ISO-10303-21;
HEADER;
FILE_DESCRIPTION (( 'STEP AP203' ),
    '1' );
FILE_NAME ('b03d.STEP',
    '2022-07-08T15:48:07',
    ( '' ),
    ( '' ),
    'SwSTEP 2.0',
    'SolidWorks 2019',
    '' );
FILE_SCHEMA (( 'CONFIG_CONTROL_DESIGN' ));
ENDSEC;

DATA;
#1 = DIRECTION ( 'NONE',  ( -0.000000000000000000, -0.000000000000000000, -1.000000000000000000 ) ) ;
#2 = CARTESIAN_POINT ( 'NONE',  ( 0.000000000000000000, 0.000000000000000000, 163.0000000000000000 ) ) ;
#3 = AXIS2_PLACEMENT_3D ( 'NONE', #322, #287, #207 ) ;
#4 = DIRECTION ( 'NONE',  ( 0.000000000000000000, 0.000000000000000000, -1.000000000000000000 ) ) ;
#5 = EDGE_CURVE ( 'NONE', #118, #291, #280, .T. ) ;
#6 = APPROVAL_DATE_TIME ( #65, #108 ) ;
#7 = DIRECTION ( 'NONE',  ( 1.000000000000000000, 0.000000000000000000, 0.000000000000000000 ) ) ;
#8 = CARTESIAN_POINT ( 'NONE',  ( 1.250000000000000000, 1.530808498934191571E-16, 163.0000000000000000 ) ) ;
#9 = TOROIDAL_SURFACE ( 'NONE', #321, 2.799999999999999822, 0.2999999999999999889 ) ;
#10 = FACE_OUTER_BOUND ( 'NONE', #369, .T. ) ;
#11 = EDGE_CURVE ( 'NONE', #238, #116, #165, .T. ) ;
#12 = DIRECTION ( 'NONE',  ( 0.000000000000000000, 0.000000000000000000, -1.000000000000000000 ) ) ;
#13 = DIRECTION ( 'NONE',  ( 0.000000000000000000, 0.000000000000000000, 1.000000000000000000 ) ) ;
#14 = CARTESIAN_POINT ( 'NONE',  ( 0.000000000000000000, 0.000000000000000000, 163.0000000000000000 ) ) ;
#15 = CIRCLE ( 'NONE', #254, 1.250000000000000000 ) ;
#16 = ADVANCED_FACE ( 'NONE', ( #152 ), #300, .T. ) ;
#17 =( LENGTH_UNIT ( ) NAMED_UNIT ( * ) SI_UNIT ( .MILLI., .METRE. ) );
#18 = APPROVAL_DATE_TIME ( #169, #230 ) ;
#19 = ORIENTED_EDGE ( 'NONE', *, *, #221, .T. ) ;
#20 = CALENDAR_DATE ( 2022, 8, 7 ) ;
#21 = ORIENTED_EDGE ( 'NONE', *, *, #374, .T. ) ;
#22 = AXIS2_PLACEMENT_3D ( 'NONE', #329, #123, #276 ) ;
#23 = EDGE_CURVE ( 'NONE', #263, #50, #128, .T. ) ;
#24 = CC_DESIGN_APPROVAL ( #108, ( #228 ) ) ;
#25 = DIRECTION ( 'NONE',  ( 0.000000000000000000, 0.000000000000000000, -1.000000000000000000 ) ) ;
#26 = EDGE_LOOP ( 'NONE', ( #234, #320, #323, #289 ) ) ;
#27 = ORIENTED_EDGE ( 'NONE', *, *, #101, .T. ) ;
#28 = EDGE_LOOP ( 'NONE', ( #140, #292, #204, #317 ) ) ;
#29 = APPROVAL_STATUS ( 'not_yet_approved' ) ;
#30 = CARTESIAN_POINT ( 'NONE',  ( 5.000000000000000000, 6.123233995736766282E-16, 3.000000000000000000 ) ) ;
#31 = CARTESIAN_POINT ( 'NONE',  ( 0.000000000000000000, 0.000000000000000000, 3.000000000000000000 ) ) ;
#32 = APPLICATION_CONTEXT ( 'configuration controlled 3d designs of mechanical parts and assemblies' ) ;
#33 = CARTESIAN_POINT ( 'NONE',  ( 0.000000000000000000, 0.000000000000000000, 0.000000000000000000 ) ) ;
#34 = PRODUCT_RELATED_PRODUCT_CATEGORY ( 'detail', '', ( #298 ) ) ;
#35 = AXIS2_PLACEMENT_3D ( 'NONE', #159, #192, #364 ) ;
#36 = CC_DESIGN_APPROVAL ( #230, ( #40 ) ) ;
#37 = SHAPE_DEFINITION_REPRESENTATION ( #93, #318 ) ;
#38 = CYLINDRICAL_SURFACE ( 'NONE', #224, 5.000000000000000000 ) ;
#39 = CARTESIAN_POINT ( 'NONE',  ( 5.000000000000000000, 6.123233995736766282E-16, 0.000000000000000000 ) ) ;
#40 = PRODUCT_DEFINITION ( 'NEZNÁMÝ', '', #328, #151 ) ;
#41 = DIRECTION ( 'NONE',  ( 1.000000000000000000, 0.000000000000000000, 0.000000000000000000 ) ) ;
#42 = APPROVAL_PERSON_ORGANIZATION ( #79, #230, #209 ) ;
#43 = FACE_BOUND ( 'NONE', #157, .T. ) ;
#44 = PLANE ( 'NONE',  #265 ) ;
#45 = CARTESIAN_POINT ( 'NONE',  ( 2.500000000000000000, 3.061616997868383141E-16, 163.0000000000000000 ) ) ;
#46 = EDGE_CURVE ( 'NONE', #83, #88, #113, .T. ) ;
#47 = AXIS2_PLACEMENT_3D ( 'NONE', #218, #127, #243 ) ;
#48 = DIRECTION ( 'NONE',  ( 1.000000000000000000, 0.000000000000000000, 0.000000000000000000 ) ) ;
#49 = CALENDAR_DATE ( 2022, 8, 7 ) ;
#50 = VERTEX_POINT ( 'NONE', #64 ) ;
#51 = CC_DESIGN_PERSON_AND_ORGANIZATION_ASSIGNMENT ( #130, #270, ( #228 ) ) ;
#52 = ORIENTED_EDGE ( 'NONE', *, *, #324, .T. ) ;
#53 = PERSON_AND_ORGANIZATION ( #173, #274 ) ;
#54 = AXIS2_PLACEMENT_3D ( 'NONE', #337, #163, #308 ) ;
#55 = ORIENTED_EDGE ( 'NONE', *, *, #380, .F. ) ;
#56 = AXIS2_PLACEMENT_3D ( 'NONE', #31, #275, #7 ) ;
#57 = APPLICATION_CONTEXT ( 'configuration controlled 3d designs of mechanical parts and assemblies' ) ;
#58 = DIRECTION ( 'NONE',  ( 0.000000000000000000, 0.000000000000000000, 1.000000000000000000 ) ) ;
#59 = ORIENTED_EDGE ( 'NONE', *, *, #203, .T. ) ;
#60 = COORDINATED_UNIVERSAL_TIME_OFFSET ( 1, 0, .AHEAD. ) ;
#61 = EDGE_LOOP ( 'NONE', ( #227, #55 ) ) ;
#62 = CARTESIAN_POINT ( 'NONE',  ( 0.000000000000000000, 0.000000000000000000, 3.000000000000000000 ) ) ;
#63 = CLOSED_SHELL ( 'NONE', ( #335, #363, #277, #137, #166, #299, #191, #16, #180, #311, #341 ) ) ;
#64 = CARTESIAN_POINT ( 'NONE',  ( 1.250000000000000000, 1.530808498934191571E-16, 0.000000000000000000 ) ) ;
#65 = DATE_AND_TIME ( #124, #339 ) ;
#66 = EDGE_CURVE ( 'NONE', #172, #118, #95, .T. ) ;
#67 = DIRECTION ( 'NONE',  ( -1.000000000000000000, 1.224646799147353207E-16, 0.000000000000000000 ) ) ;
#68 = DATE_TIME_ROLE ( 'classification_date' ) ;
#69 = EDGE_LOOP ( 'NONE', ( #346, #210 ) ) ;
#70 = AXIS2_PLACEMENT_3D ( 'NONE', #14, #13, #253 ) ;
#71 = CARTESIAN_POINT ( 'NONE',  ( 0.000000000000000000, 0.000000000000000000, 163.0000000000000000 ) ) ;
#72 = FACE_OUTER_BOUND ( 'NONE', #81, .T. ) ;
#73 = FACE_BOUND ( 'NONE', #61, .T. ) ;
#74 = AXIS2_PLACEMENT_3D ( 'NONE', #251, #75, #312 ) ;
#75 = DIRECTION ( 'NONE',  ( -0.000000000000000000, -0.000000000000000000, -1.000000000000000000 ) ) ;
#76 = CARTESIAN_POINT ( 'NONE',  ( 0.000000000000000000, 0.000000000000000000, 3.000000000000000000 ) ) ;
#77 = EDGE_CURVE ( 'NONE', #291, #118, #160, .T. ) ;
#78 = CARTESIAN_POINT ( 'NONE',  ( -5.000000000000000000, 0.000000000000000000, 3.000000000000000000 ) ) ;
#79 = PERSON_AND_ORGANIZATION ( #173, #274 ) ;
#80 = APPROVAL_PERSON_ORGANIZATION ( #82, #237, #231 ) ;
#81 = EDGE_LOOP ( 'NONE', ( #147, #85 ) ) ;
#82 = PERSON_AND_ORGANIZATION ( #173, #274 ) ;
#83 = VERTEX_POINT ( 'NONE', #39 ) ;
#84 =( NAMED_UNIT ( * ) SI_UNIT ( $, .STERADIAN. ) SOLID_ANGLE_UNIT ( ) );
#85 = ORIENTED_EDGE ( 'NONE', *, *, #11, .T. ) ;
#86 = DIRECTION ( 'NONE',  ( 0.000000000000000000, 0.000000000000000000, 1.000000000000000000 ) ) ;
#87 = VECTOR ( 'NONE', #133, 1000.000000000000000 ) ;
#88 = VERTEX_POINT ( 'NONE', #268 ) ;
#89 = PERSON_AND_ORGANIZATION_ROLE ( 'design_owner' ) ;
#90 = ORIENTED_EDGE ( 'NONE', *, *, #5, .F. ) ;
#91 = EDGE_CURVE ( 'NONE', #229, #291, #249, .T. ) ;
#92 = ORIENTED_EDGE ( 'NONE', *, *, #146, .T. ) ;
#93 = PRODUCT_DEFINITION_SHAPE ( 'NONE', 'NONE',  #40 ) ;
#94 = FACE_OUTER_BOUND ( 'NONE', #182, .T. ) ;
#95 = CIRCLE ( 'NONE', #174, 0.2999999999999999334 ) ;
#96 = TOROIDAL_SURFACE ( 'NONE', #103, 2.799999999999999822, 0.2999999999999999889 ) ;
#97 = DIRECTION ( 'NONE',  ( -0.000000000000000000, -0.000000000000000000, -1.000000000000000000 ) ) ;
#98 = APPROVAL_DATE_TIME ( #326, #237 ) ;
#99 = CARTESIAN_POINT ( 'NONE',  ( -5.000000000000000000, 0.000000000000000000, 3.000000000000000000 ) ) ;
#100 = VERTEX_POINT ( 'NONE', #30 ) ;
#101 = EDGE_CURVE ( 'NONE', #271, #100, #121, .T. ) ;
#102 = VECTOR ( 'NONE', #223, 1000.000000000000000 ) ;
#103 = AXIS2_PLACEMENT_3D ( 'NONE', #262, #86, #48 ) ;
#104 = DIRECTION ( 'NONE',  ( 0.000000000000000000, 0.000000000000000000, 1.000000000000000000 ) ) ;
#105 = DIRECTION ( 'NONE',  ( 1.000000000000000000, 0.000000000000000000, -0.000000000000000000 ) ) ;
#106 = CARTESIAN_POINT ( 'NONE',  ( -1.250000000000000000, 0.000000000000000000, 0.000000000000000000 ) ) ;
#107 = CIRCLE ( 'NONE', #205, 5.000000000000000000 ) ;
#108 = APPROVAL ( #29, 'NEURÈENÝ' ) ;
#109 = AXIS2_PLACEMENT_3D ( 'NONE', #375, #285, #144 ) ;
#110 = FACE_OUTER_BOUND ( 'NONE', #373, .T. ) ;
#111 = ORIENTED_EDGE ( 'NONE', *, *, #211, .T. ) ;
#112 = EDGE_CURVE ( 'NONE', #100, #83, #304, .T. ) ;
#113 = CIRCLE ( 'NONE', #22, 5.000000000000000000 ) ;
#114 = DIRECTION ( 'NONE',  ( 1.000000000000000000, 0.000000000000000000, 0.000000000000000000 ) ) ;
#115 = CIRCLE ( 'NONE', #3, 5.000000000000000000 ) ;
#116 = VERTEX_POINT ( 'NONE', #247 ) ;
#117 = DATE_TIME_ROLE ( 'creation_date' ) ;
#118 = VERTEX_POINT ( 'NONE', #358 ) ;
#119 = ORIENTED_EDGE ( 'NONE', *, *, #5, .T. ) ;
#120 = DIRECTION ( 'NONE',  ( 0.000000000000000000, 0.000000000000000000, 1.000000000000000000 ) ) ;
#121 = CIRCLE ( 'NONE', #350, 5.000000000000000000 ) ;
#122 = ORIENTED_EDGE ( 'NONE', *, *, #162, .T. ) ;
#123 = DIRECTION ( 'NONE',  ( 0.000000000000000000, 0.000000000000000000, 1.000000000000000000 ) ) ;
#124 = CALENDAR_DATE ( 2022, 8, 7 ) ;
#125 = LINE ( 'NONE', #99, #284 ) ;
#126 = CC_DESIGN_PERSON_AND_ORGANIZATION_ASSIGNMENT ( #216, #245, ( #328 ) ) ;
#127 = DIRECTION ( 'NONE',  ( -0.000000000000000000, -0.000000000000000000, -1.000000000000000000 ) ) ;
#128 = CIRCLE ( 'NONE', #235, 1.250000000000000000 ) ;
#129 = DIRECTION ( 'NONE',  ( 0.000000000000000000, 0.000000000000000000, 1.000000000000000000 ) ) ;
#130 = PERSON_AND_ORGANIZATION ( #173, #274 ) ;
#131 = DIRECTION ( 'NONE',  ( -1.000000000000000000, 0.000000000000000000, 0.000000000000000000 ) ) ;
#132 = DIRECTION ( 'NONE',  ( 1.000000000000000000, 0.000000000000000000, 0.000000000000000000 ) ) ;
#133 = DIRECTION ( 'NONE',  ( 0.000000000000000000, 0.000000000000000000, -1.000000000000000000 ) ) ;
#134 = CARTESIAN_POINT ( 'NONE',  ( 0.000000000000000000, 0.000000000000000000, 3.000000000000000000 ) ) ;
#135 = LINE ( 'NONE', #336, #260 ) ;
#136 = CARTESIAN_POINT ( 'NONE',  ( 0.000000000000000000, 0.000000000000000000, 3.299999999999997158 ) ) ;
#137 = ADVANCED_FACE ( 'NONE', ( #297 ), #38, .T. ) ;
#138 =( NAMED_UNIT ( * ) PLANE_ANGLE_UNIT ( ) SI_UNIT ( $, .RADIAN. ) );
#139 = PERSON_AND_ORGANIZATION_ROLE ( 'creator' ) ;
#140 = ORIENTED_EDGE ( 'NONE', *, *, #244, .F. ) ;
#141 = AXIS2_PLACEMENT_3D ( 'NONE', #310, #190, #105 ) ;
#142 = AXIS2_PLACEMENT_3D ( 'NONE', #136, #278, #132 ) ;
#143 = ORIENTED_EDGE ( 'NONE', *, *, #203, .F. ) ;
#144 = DIRECTION ( 'NONE',  ( -1.000000000000000000, 0.000000000000000000, 0.000000000000000000 ) ) ;
#145 = EDGE_LOOP ( 'NONE', ( #143, #315, #111, #199 ) ) ;
#146 = EDGE_CURVE ( 'NONE', #178, #259, #365, .T. ) ;
#147 = ORIENTED_EDGE ( 'NONE', *, *, #293, .T. ) ;
#148 = COORDINATED_UNIVERSAL_TIME_OFFSET ( 1, 0, .AHEAD. ) ;
#149 = ORIENTED_EDGE ( 'NONE', *, *, #112, .F. ) ;
#150 = CIRCLE ( 'NONE', #142, 2.500000000000000000 ) ;
#151 = DESIGN_CONTEXT ( 'detailed design', #57, 'design' ) ;
#152 = FACE_OUTER_BOUND ( 'NONE', #26, .T. ) ;
#153 = CYLINDRICAL_SURFACE ( 'NONE', #47, 5.000000000000000000 ) ;
#154 = CARTESIAN_POINT ( 'NONE',  ( 0.000000000000000000, 0.000000000000000000, 163.0000000000000000 ) ) ;
#155 =( GEOMETRIC_REPRESENTATION_CONTEXT ( 3 ) GLOBAL_UNCERTAINTY_ASSIGNED_CONTEXT ( ( #296 ) ) GLOBAL_UNIT_ASSIGNED_CONTEXT ( ( #17, #138, #84 ) ) REPRESENTATION_CONTEXT ( 'NONE', 'WORKASPACE' ) );
#156 = APPROVAL_ROLE ( '' ) ;
#157 = EDGE_LOOP ( 'NONE', ( #349, #179 ) ) ;
#158 = DIRECTION ( 'NONE',  ( 1.000000000000000000, 0.000000000000000000, 0.000000000000000000 ) ) ;
#159 = CARTESIAN_POINT ( 'NONE',  ( 0.000000000000000000, 0.000000000000000000, 3.299999999999997158 ) ) ;
#160 = CIRCLE ( 'NONE', #242, 2.799999999999999822 ) ;
#161 = DIRECTION ( 'NONE',  ( 1.000000000000000000, 0.000000000000000000, -0.000000000000000000 ) ) ;
#162 = EDGE_CURVE ( 'NONE', #271, #88, #125, .T. ) ;
#163 = DIRECTION ( 'NONE',  ( -0.000000000000000000, -0.000000000000000000, -1.000000000000000000 ) ) ;
#164 = DIRECTION ( 'NONE',  ( -0.000000000000000000, -0.000000000000000000, -1.000000000000000000 ) ) ;
#165 = CIRCLE ( 'NONE', #379, 2.500000000000000000 ) ;
#166 = ADVANCED_FACE ( 'NONE', ( #94 ), #153, .T. ) ;
#167 = APPROVAL_PERSON_ORGANIZATION ( #302, #108, #156 ) ;
#168 = MECHANICAL_CONTEXT ( 'NONE', #32, 'mechanical' ) ;
#169 = DATE_AND_TIME ( #49, #206 ) ;
#170 = ORIENTED_EDGE ( 'NONE', *, *, #91, .T. ) ;
#171 = CYLINDRICAL_SURFACE ( 'NONE', #109, 1.250000000000000000 ) ;
#172 = VERTEX_POINT ( 'NONE', #357 ) ;
#173 = PERSON ( 'NEURÈENÝ', 'NEURÈENÝ', 'NEURÈENÝ', ('NEURÈENÝ'), ('NEURÈENÝ'), ('NEURÈENÝ') ) ;
#174 = AXIS2_PLACEMENT_3D ( 'NONE', #183, #186, #67 ) ;
#175 = CARTESIAN_POINT ( 'NONE',  ( 0.000000000000000000, 0.000000000000000000, 163.0000000000000000 ) ) ;
#176 = ORIENTED_EDGE ( 'NONE', *, *, #244, .T. ) ;
#177 = CC_DESIGN_DATE_AND_TIME_ASSIGNMENT ( #359, #68, ( #228 ) ) ;
#178 = VERTEX_POINT ( 'NONE', #332 ) ;
#179 = ORIENTED_EDGE ( 'NONE', *, *, #221, .F. ) ;
#180 = ADVANCED_FACE ( 'NONE', ( #73, #72 ), #44, .T. ) ;
#181 = CIRCLE ( 'NONE', #35, 2.500000000000000000 ) ;
#182 = EDGE_LOOP ( 'NONE', ( #149, #202, #122, #21 ) ) ;
#183 = CARTESIAN_POINT ( 'NONE',  ( -2.799999999999999822, 3.429011037612588783E-16, 3.299999999999997158 ) ) ;
#184 = DIRECTION ( 'NONE',  ( -1.000000000000000000, 0.000000000000000000, 0.000000000000000000 ) ) ;
#185 = PERSON_AND_ORGANIZATION_ROLE ( 'creator' ) ;
#186 = DIRECTION ( 'NONE',  ( 1.224646799147353207E-16, 1.000000000000000000, -0.000000000000000000 ) ) ;
#187 = VECTOR ( 'NONE', #164, 1000.000000000000000 ) ;
#188 = AXIS2_PLACEMENT_3D ( 'NONE', #175, #25, #257 ) ;
#189 = EDGE_LOOP ( 'NONE', ( #370, #294, #215, #376 ) ) ;
#190 = DIRECTION ( 'NONE',  ( 0.000000000000000000, 0.000000000000000000, 1.000000000000000000 ) ) ;
#191 = ADVANCED_FACE ( 'NONE', ( #43, #222 ), #361, .F. ) ;
#192 = DIRECTION ( 'NONE',  ( 0.000000000000000000, 0.000000000000000000, 1.000000000000000000 ) ) ;
#193 = CARTESIAN_POINT ( 'NONE',  ( -2.500000000000000000, 0.000000000000000000, 163.0000000000000000 ) ) ;
#194 = DIRECTION ( 'NONE',  ( 1.000000000000000000, 0.000000000000000000, -0.000000000000000000 ) ) ;
#195 = FACE_OUTER_BOUND ( 'NONE', #288, .T. ) ;
#196 = CC_DESIGN_PERSON_AND_ORGANIZATION_ASSIGNMENT ( #53, #139, ( #40 ) ) ;
#197 = LOCAL_TIME ( 17, 48, 7.000000000000000000, #212 ) ;
#198 = APPROVAL_STATUS ( 'not_yet_approved' ) ;
#199 = ORIENTED_EDGE ( 'NONE', *, *, #23, .T. ) ;
#200 = APPROVAL_STATUS ( 'not_yet_approved' ) ;
#201 = MANIFOLD_SOLID_BREP ( 'Odebrat vysunutím3', #63 ) ;
#202 = ORIENTED_EDGE ( 'NONE', *, *, #101, .F. ) ;
#203 = EDGE_CURVE ( 'NONE', #259, #50, #252, .T. ) ;
#204 = ORIENTED_EDGE ( 'NONE', *, *, #46, .T. ) ;
#205 = AXIS2_PLACEMENT_3D ( 'NONE', #134, #104, #41 ) ;
#206 = LOCAL_TIME ( 17, 48, 7.000000000000000000, #319 ) ;
#207 = DIRECTION ( 'NONE',  ( 1.000000000000000000, 0.000000000000000000, 0.000000000000000000 ) ) ;
#208 = ORIENTED_EDGE ( 'NONE', *, *, #272, .T. ) ;
#209 = APPROVAL_ROLE ( '' ) ;
#210 = ORIENTED_EDGE ( 'NONE', *, *, #46, .F. ) ;
#211 = EDGE_CURVE ( 'NONE', #178, #263, #135, .T. ) ;
#212 = COORDINATED_UNIVERSAL_TIME_OFFSET ( 1, 0, .AHEAD. ) ;
#213 = DIRECTION ( 'NONE',  ( 1.000000000000000000, 0.000000000000000000, 0.000000000000000000 ) ) ;
#214 = CARTESIAN_POINT ( 'NONE',  ( 2.799999999999999822, 0.000000000000000000, 3.299999999999997158 ) ) ;
#215 = ORIENTED_EDGE ( 'NONE', *, *, #77, .F. ) ;
#216 = PERSON_AND_ORGANIZATION ( #173, #274 ) ;
#217 = CC_DESIGN_PERSON_AND_ORGANIZATION_ASSIGNMENT ( #331, #185, ( #328 ) ) ;
#218 = CARTESIAN_POINT ( 'NONE',  ( 0.000000000000000000, 0.000000000000000000, 3.000000000000000000 ) ) ;
#219 = DIRECTION ( 'NONE',  ( 1.000000000000000000, 0.000000000000000000, 0.000000000000000000 ) ) ;
#220 = CARTESIAN_POINT ( 'NONE',  ( 2.500000000000000000, 3.061616997868383141E-16, 3.299999999999997158 ) ) ;
#221 = EDGE_CURVE ( 'NONE', #50, #263, #309, .T. ) ;
#222 = FACE_OUTER_BOUND ( 'NONE', #69, .T. ) ;
#223 = DIRECTION ( 'NONE',  ( -0.000000000000000000, -0.000000000000000000, -1.000000000000000000 ) ) ;
#224 = AXIS2_PLACEMENT_3D ( 'NONE', #381, #1, #131 ) ;
#225 = AXIS2_PLACEMENT_3D ( 'NONE', #214, #334, #4 ) ;
#226 = DIRECTION ( 'NONE',  ( 0.000000000000000000, 0.000000000000000000, 1.000000000000000000 ) ) ;
#227 = ORIENTED_EDGE ( 'NONE', *, *, #146, .F. ) ;
#228 = SECURITY_CLASSIFICATION ( '', '', #295 ) ;
#229 = VERTEX_POINT ( 'NONE', #220 ) ;
#230 = APPROVAL ( #198, 'NEURÈENÝ' ) ;
#231 = APPROVAL_ROLE ( '' ) ;
#232 = EDGE_LOOP ( 'NONE', ( #378, #119 ) ) ;
#233 = FACE_OUTER_BOUND ( 'NONE', #347, .T. ) ;
#234 = ORIENTED_EDGE ( 'NONE', *, *, #272, .F. ) ;
#235 = AXIS2_PLACEMENT_3D ( 'NONE', #33, #330, #213 ) ;
#236 = CYLINDRICAL_SURFACE ( 'NONE', #188, 1.250000000000000000 ) ;
#237 = APPROVAL ( #200, 'NEURÈENÝ' ) ;
#238 = VERTEX_POINT ( 'NONE', #307 ) ;
#239 = DIRECTION ( 'NONE',  ( -0.000000000000000000, -0.000000000000000000, -1.000000000000000000 ) ) ;
#240 = DIRECTION ( 'NONE',  ( 1.000000000000000000, 0.000000000000000000, 0.000000000000000000 ) ) ;
#241 = CALENDAR_DATE ( 2022, 8, 7 ) ;
#242 = AXIS2_PLACEMENT_3D ( 'NONE', #327, #239, #240 ) ;
#243 = DIRECTION ( 'NONE',  ( -1.000000000000000000, 0.000000000000000000, 0.000000000000000000 ) ) ;
#244 = EDGE_CURVE ( 'NONE', #100, #271, #107, .T. ) ;
#245 = PERSON_AND_ORGANIZATION_ROLE ( 'design_supplier' ) ;
#246 = CARTESIAN_POINT ( 'NONE',  ( 5.000000000000000000, 6.123233995736766282E-16, 3.000000000000000000 ) ) ;
#247 = CARTESIAN_POINT ( 'NONE',  ( -2.500000000000000000, 0.000000000000000000, 163.0000000000000000 ) ) ;
#248 = CARTESIAN_POINT ( 'NONE',  ( 0.000000000000000000, 0.000000000000000000, 163.0000000000000000 ) ) ;
#249 = CIRCLE ( 'NONE', #225, 0.2999999999999999334 ) ;
#250 = CC_DESIGN_APPROVAL ( #237, ( #328 ) ) ;
#251 = CARTESIAN_POINT ( 'NONE',  ( 0.000000000000000000, 0.000000000000000000, 163.0000000000000000 ) ) ;
#252 = LINE ( 'NONE', #281, #87 ) ;
#253 = DIRECTION ( 'NONE',  ( 1.000000000000000000, 0.000000000000000000, 0.000000000000000000 ) ) ;
#254 = AXIS2_PLACEMENT_3D ( 'NONE', #290, #58, #316 ) ;
#255 = EDGE_CURVE ( 'NONE', #172, #229, #181, .T. ) ;
#256 = CARTESIAN_POINT ( 'NONE',  ( 0.000000000000000000, 0.000000000000000000, 3.299999999999997158 ) ) ;
#257 = DIRECTION ( 'NONE',  ( -1.000000000000000000, 0.000000000000000000, 0.000000000000000000 ) ) ;
#258 = DATE_AND_TIME ( #20, #266 ) ;
#259 = VERTEX_POINT ( 'NONE', #8 ) ;
#260 = VECTOR ( 'NONE', #12, 1000.000000000000000 ) ;
#261 = ORIENTED_EDGE ( 'NONE', *, *, #324, .F. ) ;
#262 = CARTESIAN_POINT ( 'NONE',  ( 0.000000000000000000, 0.000000000000000000, 3.299999999999997158 ) ) ;
#263 = VERTEX_POINT ( 'NONE', #106 ) ;
#264 = ORIENTED_EDGE ( 'NONE', *, *, #286, .F. ) ;
#265 = AXIS2_PLACEMENT_3D ( 'NONE', #248, #226, #161 ) ;
#266 = LOCAL_TIME ( 17, 48, 7.000000000000000000, #372 ) ;
#267 = CC_DESIGN_PERSON_AND_ORGANIZATION_ASSIGNMENT ( #342, #89, ( #298 ) ) ;
#268 = CARTESIAN_POINT ( 'NONE',  ( -5.000000000000000000, 0.000000000000000000, 0.000000000000000000 ) ) ;
#269 = DIRECTION ( 'NONE',  ( 1.000000000000000000, 0.000000000000000000, 0.000000000000000000 ) ) ;
#270 = PERSON_AND_ORGANIZATION_ROLE ( 'classification_officer' ) ;
#271 = VERTEX_POINT ( 'NONE', #78 ) ;
#272 = EDGE_CURVE ( 'NONE', #238, #229, #279, .T. ) ;
#273 = CALENDAR_DATE ( 2022, 8, 7 ) ;
#274 = ORGANIZATION ( 'NEURÈENÝ', 'NEURÈENÝ', '' ) ;
#275 = DIRECTION ( 'NONE',  ( -0.000000000000000000, -0.000000000000000000, -1.000000000000000000 ) ) ;
#276 = DIRECTION ( 'NONE',  ( 1.000000000000000000, 0.000000000000000000, 0.000000000000000000 ) ) ;
#277 = ADVANCED_FACE ( 'NONE', ( #10 ), #338, .T. ) ;
#278 = DIRECTION ( 'NONE',  ( 0.000000000000000000, 0.000000000000000000, 1.000000000000000000 ) ) ;
#279 = LINE ( 'NONE', #45, #102 ) ;
#280 = CIRCLE ( 'NONE', #56, 2.799999999999999822 ) ;
#281 = CARTESIAN_POINT ( 'NONE',  ( 1.250000000000000000, 1.530808498934191571E-16, 163.0000000000000000 ) ) ;
#282 = CARTESIAN_POINT ( 'NONE',  ( 2.799999999999999822, 0.000000000000000000, 2.999999999999998668 ) ) ;
#283 = DIRECTION ( 'NONE',  ( 0.000000000000000000, 0.000000000000000000, 1.000000000000000000 ) ) ;
#284 = VECTOR ( 'NONE', #354, 1000.000000000000000 ) ;
#285 = DIRECTION ( 'NONE',  ( 0.000000000000000000, 0.000000000000000000, -1.000000000000000000 ) ) ;
#286 = EDGE_CURVE ( 'NONE', #116, #172, #362, .T. ) ;
#287 = DIRECTION ( 'NONE',  ( 0.000000000000000000, 0.000000000000000000, 1.000000000000000000 ) ) ;
#288 = EDGE_LOOP ( 'NONE', ( #325, #261, #170, #90 ) ) ;
#289 = ORIENTED_EDGE ( 'NONE', *, *, #255, .T. ) ;
#290 = CARTESIAN_POINT ( 'NONE',  ( 0.000000000000000000, 0.000000000000000000, 163.0000000000000000 ) ) ;
#291 = VERTEX_POINT ( 'NONE', #282 ) ;
#292 = ORIENTED_EDGE ( 'NONE', *, *, #112, .T. ) ;
#293 = EDGE_CURVE ( 'NONE', #116, #238, #344, .T. ) ;
#294 = ORIENTED_EDGE ( 'NONE', *, *, #66, .T. ) ;
#295 = SECURITY_CLASSIFICATION_LEVEL ( 'unclassified' ) ;
#296 = UNCERTAINTY_MEASURE_WITH_UNIT (LENGTH_MEASURE( 1.000000000000000082E-05 ), #17, 'distance_accuracy_value', 'NONE');
#297 = FACE_OUTER_BOUND ( 'NONE', #28, .T. ) ;
#298 = PRODUCT ( 'b03d', 'b03d', '', ( #168 ) ) ;
#299 = ADVANCED_FACE ( 'NONE', ( #366, #110 ), #340, .T. ) ;
#300 = CYLINDRICAL_SURFACE ( 'NONE', #313, 2.500000000000000000 ) ;
#301 = DIRECTION ( 'NONE',  ( 0.000000000000000000, 0.000000000000000000, 1.000000000000000000 ) ) ;
#302 = PERSON_AND_ORGANIZATION ( #173, #274 ) ;
#303 = LOCAL_TIME ( 17, 48, 7.000000000000000000, #148 ) ;
#304 = LINE ( 'NONE', #246, #355 ) ;
#305 = CC_DESIGN_DATE_AND_TIME_ASSIGNMENT ( #258, #117, ( #40 ) ) ;
#306 = DIRECTION ( 'NONE',  ( -0.000000000000000000, -0.000000000000000000, -1.000000000000000000 ) ) ;
#307 = CARTESIAN_POINT ( 'NONE',  ( 2.500000000000000000, 3.061616997868383141E-16, 163.0000000000000000 ) ) ;
#308 = DIRECTION ( 'NONE',  ( 1.000000000000000000, 0.000000000000000000, 0.000000000000000000 ) ) ;
#309 = CIRCLE ( 'NONE', #54, 1.250000000000000000 ) ;
#310 = CARTESIAN_POINT ( 'NONE',  ( 0.000000000000000000, 0.000000000000000000, 0.000000000000000000 ) ) ;
#311 = ADVANCED_FACE ( 'NONE', ( #195 ), #9, .F. ) ;
#312 = DIRECTION ( 'NONE',  ( -1.000000000000000000, 0.000000000000000000, 0.000000000000000000 ) ) ;
#313 = AXIS2_PLACEMENT_3D ( 'NONE', #71, #306, #184 ) ;
#314 = APPLICATION_PROTOCOL_DEFINITION ( 'international standard', 'config_control_design', 1994, #57 ) ;
#315 = ORIENTED_EDGE ( 'NONE', *, *, #380, .T. ) ;
#316 = DIRECTION ( 'NONE',  ( 1.000000000000000000, 0.000000000000000000, 0.000000000000000000 ) ) ;
#317 = ORIENTED_EDGE ( 'NONE', *, *, #162, .F. ) ;
#318 = ADVANCED_BREP_SHAPE_REPRESENTATION ( 'b03d', ( #201, #351 ), #155 ) ;
#319 = COORDINATED_UNIVERSAL_TIME_OFFSET ( 1, 0, .AHEAD. ) ;
#320 = ORIENTED_EDGE ( 'NONE', *, *, #293, .F. ) ;
#321 = AXIS2_PLACEMENT_3D ( 'NONE', #256, #367, #158 ) ;
#322 = CARTESIAN_POINT ( 'NONE',  ( 0.000000000000000000, 0.000000000000000000, 0.000000000000000000 ) ) ;
#323 = ORIENTED_EDGE ( 'NONE', *, *, #286, .T. ) ;
#324 = EDGE_CURVE ( 'NONE', #229, #172, #150, .T. ) ;
#325 = ORIENTED_EDGE ( 'NONE', *, *, #66, .F. ) ;
#326 = DATE_AND_TIME ( #273, #197 ) ;
#327 = CARTESIAN_POINT ( 'NONE',  ( 0.000000000000000000, 0.000000000000000000, 3.000000000000000000 ) ) ;
#328 = PRODUCT_DEFINITION_FORMATION_WITH_SPECIFIED_SOURCE ( 'LIBOVOLNÝ', '', #298, .NOT_KNOWN. ) ;
#329 = CARTESIAN_POINT ( 'NONE',  ( 0.000000000000000000, 0.000000000000000000, 0.000000000000000000 ) ) ;
#330 = DIRECTION ( 'NONE',  ( -0.000000000000000000, -0.000000000000000000, -1.000000000000000000 ) ) ;
#331 = PERSON_AND_ORGANIZATION ( #173, #274 ) ;
#332 = CARTESIAN_POINT ( 'NONE',  ( -1.250000000000000000, 0.000000000000000000, 163.0000000000000000 ) ) ;
#333 = AXIS2_PLACEMENT_3D ( 'NONE', #76, #283, #194 ) ;
#334 = DIRECTION ( 'NONE',  ( 0.000000000000000000, -1.000000000000000000, 0.000000000000000000 ) ) ;
#335 = ADVANCED_FACE ( 'NONE', ( #233 ), #236, .F. ) ;
#336 = CARTESIAN_POINT ( 'NONE',  ( -1.250000000000000000, 0.000000000000000000, 163.0000000000000000 ) ) ;
#337 = CARTESIAN_POINT ( 'NONE',  ( 0.000000000000000000, 0.000000000000000000, 0.000000000000000000 ) ) ;
#338 = CYLINDRICAL_SURFACE ( 'NONE', #74, 2.500000000000000000 ) ;
#339 = LOCAL_TIME ( 17, 48, 7.000000000000000000, #60 ) ;
#340 = PLANE ( 'NONE',  #333 ) ;
#341 = ADVANCED_FACE ( 'NONE', ( #348 ), #171, .F. ) ;
#342 = PERSON_AND_ORGANIZATION ( #173, #274 ) ;
#343 = ORIENTED_EDGE ( 'NONE', *, *, #11, .F. ) ;
#344 = CIRCLE ( 'NONE', #70, 2.500000000000000000 ) ;
#345 = APPLICATION_PROTOCOL_DEFINITION ( 'international standard', 'config_control_design', 1994, #32 ) ;
#346 = ORIENTED_EDGE ( 'NONE', *, *, #374, .F. ) ;
#347 = EDGE_LOOP ( 'NONE', ( #92, #59, #19, #352 ) ) ;
#348 = FACE_OUTER_BOUND ( 'NONE', #145, .T. ) ;
#349 = ORIENTED_EDGE ( 'NONE', *, *, #23, .F. ) ;
#350 = AXIS2_PLACEMENT_3D ( 'NONE', #62, #129, #269 ) ;
#351 = AXIS2_PLACEMENT_3D ( 'NONE', #377, #120, #114 ) ;
#352 = ORIENTED_EDGE ( 'NONE', *, *, #211, .F. ) ;
#353 = DIRECTION ( 'NONE',  ( 0.000000000000000000, 0.000000000000000000, 1.000000000000000000 ) ) ;
#354 = DIRECTION ( 'NONE',  ( -0.000000000000000000, -0.000000000000000000, -1.000000000000000000 ) ) ;
#355 = VECTOR ( 'NONE', #97, 1000.000000000000000 ) ;
#356 = CC_DESIGN_SECURITY_CLASSIFICATION ( #228, ( #328 ) ) ;
#357 = CARTESIAN_POINT ( 'NONE',  ( -2.500000000000000000, 0.000000000000000000, 3.299999999999997158 ) ) ;
#358 = CARTESIAN_POINT ( 'NONE',  ( -2.799999999999999822, 3.429011037612589276E-16, 2.999999999999998668 ) ) ;
#359 = DATE_AND_TIME ( #241, #303 ) ;
#360 = DIRECTION ( 'NONE',  ( 1.000000000000000000, 0.000000000000000000, 0.000000000000000000 ) ) ;
#361 = PLANE ( 'NONE',  #141 ) ;
#362 = LINE ( 'NONE', #193, #187 ) ;
#363 = ADVANCED_FACE ( 'NONE', ( #368 ), #96, .F. ) ;
#364 = DIRECTION ( 'NONE',  ( 1.000000000000000000, 0.000000000000000000, 0.000000000000000000 ) ) ;
#365 = CIRCLE ( 'NONE', #371, 1.250000000000000000 ) ;
#366 = FACE_BOUND ( 'NONE', #232, .T. ) ;
#367 = DIRECTION ( 'NONE',  ( 0.000000000000000000, 0.000000000000000000, 1.000000000000000000 ) ) ;
#368 = FACE_OUTER_BOUND ( 'NONE', #189, .T. ) ;
#369 = EDGE_LOOP ( 'NONE', ( #343, #208, #52, #264 ) ) ;
#370 = ORIENTED_EDGE ( 'NONE', *, *, #255, .F. ) ;
#371 = AXIS2_PLACEMENT_3D ( 'NONE', #2, #301, #360 ) ;
#372 = COORDINATED_UNIVERSAL_TIME_OFFSET ( 1, 0, .AHEAD. ) ;
#373 = EDGE_LOOP ( 'NONE', ( #27, #176 ) ) ;
#374 = EDGE_CURVE ( 'NONE', #88, #83, #115, .T. ) ;
#375 = CARTESIAN_POINT ( 'NONE',  ( 0.000000000000000000, 0.000000000000000000, 163.0000000000000000 ) ) ;
#376 = ORIENTED_EDGE ( 'NONE', *, *, #91, .F. ) ;
#377 = CARTESIAN_POINT ( 'NONE',  ( 0.000000000000000000, 0.000000000000000000, 0.000000000000000000 ) ) ;
#378 = ORIENTED_EDGE ( 'NONE', *, *, #77, .T. ) ;
#379 = AXIS2_PLACEMENT_3D ( 'NONE', #154, #353, #219 ) ;
#380 = EDGE_CURVE ( 'NONE', #259, #178, #15, .T. ) ;
#381 = CARTESIAN_POINT ( 'NONE',  ( 0.000000000000000000, 0.000000000000000000, 3.000000000000000000 ) ) ;
ENDSEC;
END-ISO-10303-21;
