ISO-10303-21;
HEADER;
FILE_DESCRIPTION (( 'STEP AP203' ),
    '1' );
FILE_NAME ('07c2.STEP',
    '2022-07-08T14:19:32',
    ( '' ),
    ( '' ),
    'SwSTEP 2.0',
    'SolidWorks 2019',
    '' );
FILE_SCHEMA (( 'CONFIG_CONTROL_DESIGN' ));
ENDSEC;

DATA;
#1 = ADVANCED_FACE ( 'NONE', ( #323, #350 ), #58, .T. ) ;
#2 = CARTESIAN_POINT ( 'NONE',  ( 0.000000000000000000, 0.000000000000000000, 257.0000000000000000 ) ) ;
#3 = CARTESIAN_POINT ( 'NONE',  ( -8.699999999999999289, 1.065442715258197248E-15, 7.000000000000006217 ) ) ;
#4 = ORIENTED_EDGE ( 'NONE', *, *, #185, .F. ) ;
#5 = ADVANCED_FACE ( 'NONE', ( #56 ), #92, .F. ) ;
#6 = DIRECTION ( 'NONE',  ( -0.000000000000000000, -0.000000000000000000, -1.000000000000000000 ) ) ;
#7 = FACE_OUTER_BOUND ( 'NONE', #110, .T. ) ;
#8 = COORDINATED_UNIVERSAL_TIME_OFFSET ( 1, 0, .AHEAD. ) ;
#9 = PERSON_AND_ORGANIZATION ( #255, #154 ) ;
#10 = ORIENTED_EDGE ( 'NONE', *, *, #253, .T. ) ;
#11 = LOCAL_TIME ( 16, 19, 32.00000000000000000, #14 ) ;
#12 = PERSON_AND_ORGANIZATION_ROLE ( 'design_supplier' ) ;
#13 = ORIENTED_EDGE ( 'NONE', *, *, #46, .T. ) ;
#14 = COORDINATED_UNIVERSAL_TIME_OFFSET ( 1, 0, .AHEAD. ) ;
#15 = VERTEX_POINT ( 'NONE', #88 ) ;
#16 = CIRCLE ( 'NONE', #279, 0.7000000000000000666 ) ;
#17 = EDGE_CURVE ( 'NONE', #344, #38, #104, .T. ) ;
#18 = ORIENTED_EDGE ( 'NONE', *, *, #330, .F. ) ;
#19 = APPROVAL_PERSON_ORGANIZATION ( #223, #95, #116 ) ;
#20 = ORIENTED_EDGE ( 'NONE', *, *, #179, .F. ) ;
#21 = CARTESIAN_POINT ( 'NONE',  ( -11.00000000000000000, 0.000000000000000000, 0.000000000000000000 ) ) ;
#22 = DIRECTION ( 'NONE',  ( 1.000000000000000000, 0.000000000000000000, 0.000000000000000000 ) ) ;
#23 = CIRCLE ( 'NONE', #238, 8.000000000000000000 ) ;
#24 = CYLINDRICAL_SURFACE ( 'NONE', #329, 6.000000000000000888 ) ;
#25 = DIRECTION ( 'NONE',  ( 0.000000000000000000, 0.000000000000000000, 1.000000000000000000 ) ) ;
#26 = UNCERTAINTY_MEASURE_WITH_UNIT (LENGTH_MEASURE( 1.000000000000000082E-05 ), #212, 'distance_accuracy_value', 'NONE');
#27 = CC_DESIGN_DATE_AND_TIME_ASSIGNMENT ( #140, #259, ( #170 ) ) ;
#28 = DIRECTION ( 'NONE',  ( 0.000000000000000000, 0.000000000000000000, 1.000000000000000000 ) ) ;
#29 = CARTESIAN_POINT ( 'NONE',  ( 6.000000000000000888, 7.347880794884120722E-16, 257.0000000000000000 ) ) ;
#30 = AXIS2_PLACEMENT_3D ( 'NONE', #2, #360, #178 ) ;
#31 = EDGE_LOOP ( 'NONE', ( #346, #193, #10, #368 ) ) ;
#32 = LINE ( 'NONE', #239, #343 ) ;
#33 = DIRECTION ( 'NONE',  ( 1.224646799147353207E-16, 1.000000000000000000, -0.000000000000000000 ) ) ;
#34 = CARTESIAN_POINT ( 'NONE',  ( 0.000000000000000000, 0.000000000000000000, 0.000000000000000000 ) ) ;
#35 =( GEOMETRIC_REPRESENTATION_CONTEXT ( 3 ) GLOBAL_UNCERTAINTY_ASSIGNED_CONTEXT ( ( #26 ) ) GLOBAL_UNIT_ASSIGNED_CONTEXT ( ( #212, #243, #362 ) ) REPRESENTATION_CONTEXT ( 'NONE', 'WORKASPACE' ) );
#36 = LINE ( 'NONE', #120, #263 ) ;
#37 = APPROVAL_STATUS ( 'not_yet_approved' ) ;
#38 = VERTEX_POINT ( 'NONE', #54 ) ;
#39 = VECTOR ( 'NONE', #258, 1000.000000000000000 ) ;
#40 = PERSON_AND_ORGANIZATION ( #255, #154 ) ;
#41 = EDGE_LOOP ( 'NONE', ( #340, #164 ) ) ;
#42 = AXIS2_PLACEMENT_3D ( 'NONE', #111, #113, #318 ) ;
#43 = CC_DESIGN_APPROVAL ( #219, ( #233 ) ) ;
#44 = CALENDAR_DATE ( 2022, 8, 7 ) ;
#45 = ORIENTED_EDGE ( 'NONE', *, *, #46, .F. ) ;
#46 = EDGE_CURVE ( 'NONE', #187, #311, #16, .T. ) ;
#47 = ORIENTED_EDGE ( 'NONE', *, *, #77, .T. ) ;
#48 = ORIENTED_EDGE ( 'NONE', *, *, #106, .F. ) ;
#49 = VECTOR ( 'NONE', #236, 1000.000000000000000 ) ;
#50 = DIRECTION ( 'NONE',  ( 1.000000000000000000, 0.000000000000000000, 0.000000000000000000 ) ) ;
#51 = APPLICATION_CONTEXT ( 'configuration controlled 3d designs of mechanical parts and assemblies' ) ;
#52 = COORDINATED_UNIVERSAL_TIME_OFFSET ( 1, 0, .AHEAD. ) ;
#53 = CC_DESIGN_DATE_AND_TIME_ASSIGNMENT ( #107, #241, ( #117 ) ) ;
#54 = CARTESIAN_POINT ( 'NONE',  ( 6.000000000000000888, 7.347880794884120722E-16, 0.000000000000000000 ) ) ;
#55 = AXIS2_PLACEMENT_3D ( 'NONE', #195, #377, #50 ) ;
#56 = FACE_OUTER_BOUND ( 'NONE', #81, .T. ) ;
#57 = CIRCLE ( 'NONE', #42, 8.000000000000000000 ) ;
#58 = PLANE ( 'NONE',  #351 ) ;
#59 = EDGE_CURVE ( 'NONE', #213, #338, #319, .T. ) ;
#60 = CARTESIAN_POINT ( 'NONE',  ( 11.00000000000000000, 1.347111479062088405E-15, 0.000000000000000000 ) ) ;
#61 = AXIS2_PLACEMENT_3D ( 'NONE', #138, #25, #226 ) ;
#62 = CARTESIAN_POINT ( 'NONE',  ( 6.000000000000000888, 7.347880794884120722E-16, 257.0000000000000000 ) ) ;
#63 = DIRECTION ( 'NONE',  ( -1.000000000000000000, 0.000000000000000000, 0.000000000000000000 ) ) ;
#64 = CC_DESIGN_SECURITY_CLASSIFICATION ( #170, ( #233 ) ) ;
#65 = CARTESIAN_POINT ( 'NONE',  ( 0.000000000000000000, 0.000000000000000000, 7.000000000000000000 ) ) ;
#66 = EDGE_CURVE ( 'NONE', #134, #101, #203, .T. ) ;
#67 = ORIENTED_EDGE ( 'NONE', *, *, #142, .F. ) ;
#68 = CYLINDRICAL_SURFACE ( 'NONE', #135, 8.000000000000000000 ) ;
#69 = CARTESIAN_POINT ( 'NONE',  ( -8.000000000000000000, 0.000000000000000000, 7.700000000000012612 ) ) ;
#70 = CC_DESIGN_APPROVAL ( #95, ( #170 ) ) ;
#71 = ADVANCED_FACE ( 'NONE', ( #200 ), #24, .F. ) ;
#72 = APPROVAL_STATUS ( 'not_yet_approved' ) ;
#73 = VERTEX_POINT ( 'NONE', #230 ) ;
#74 = DATE_AND_TIME ( #313, #89 ) ;
#75 = ORIENTED_EDGE ( 'NONE', *, *, #335, .T. ) ;
#76 = LINE ( 'NONE', #307, #143 ) ;
#77 = EDGE_CURVE ( 'NONE', #101, #134, #112, .T. ) ;
#78 = EDGE_LOOP ( 'NONE', ( #282, #48 ) ) ;
#79 = ORIENTED_EDGE ( 'NONE', *, *, #298, .F. ) ;
#80 = APPROVAL_ROLE ( '' ) ;
#81 = EDGE_LOOP ( 'NONE', ( #67, #314, #94, #45 ) ) ;
#82 = DESIGN_CONTEXT ( 'detailed design', #306, 'design' ) ;
#83 = DIRECTION ( 'NONE',  ( 0.000000000000000000, 0.000000000000000000, 1.000000000000000000 ) ) ;
#84 = EDGE_CURVE ( 'NONE', #128, #273, #225, .T. ) ;
#85 = AXIS2_PLACEMENT_3D ( 'NONE', #34, #153, #270 ) ;
#86 = CARTESIAN_POINT ( 'NONE',  ( 0.000000000000000000, 0.000000000000000000, 7.000000000000000000 ) ) ;
#87 = DIRECTION ( 'NONE',  ( 1.000000000000000000, 0.000000000000000000, 0.000000000000000000 ) ) ;
#88 = CARTESIAN_POINT ( 'NONE',  ( -6.000000000000000888, 0.000000000000000000, 257.0000000000000000 ) ) ;
#89 = LOCAL_TIME ( 16, 19, 32.00000000000000000, #8 ) ;
#90 = DIRECTION ( 'NONE',  ( 0.000000000000000000, 0.000000000000000000, 1.000000000000000000 ) ) ;
#91 = CARTESIAN_POINT ( 'NONE',  ( 0.000000000000000000, 0.000000000000000000, 257.0000000000000000 ) ) ;
#92 = TOROIDAL_SURFACE ( 'NONE', #312, 8.699999999999999289, 0.6999999999999999556 ) ;
#93 = DIRECTION ( 'NONE',  ( 0.000000000000000000, 0.000000000000000000, -1.000000000000000000 ) ) ;
#94 = ORIENTED_EDGE ( 'NONE', *, *, #99, .F. ) ;
#95 = APPROVAL ( #379, 'NEURÈENÝ' ) ;
#96 = CARTESIAN_POINT ( 'NONE',  ( 0.000000000000000000, 0.000000000000000000, 257.0000000000000000 ) ) ;
#97 = CYLINDRICAL_SURFACE ( 'NONE', #161, 6.000000000000000888 ) ;
#98 = PLANE ( 'NONE',  #85 ) ;
#99 = EDGE_CURVE ( 'NONE', #311, #220, #303, .T. ) ;
#100 = CARTESIAN_POINT ( 'NONE',  ( -11.00000000000000000, 0.000000000000000000, 7.000000000000000000 ) ) ;
#101 = VERTEX_POINT ( 'NONE', #60 ) ;
#102 = ORIENTED_EDGE ( 'NONE', *, *, #66, .F. ) ;
#103 = PERSON_AND_ORGANIZATION_ROLE ( 'creator' ) ;
#104 = CIRCLE ( 'NONE', #173, 6.000000000000000888 ) ;
#105 = ORIENTED_EDGE ( 'NONE', *, *, #125, .F. ) ;
#106 = EDGE_CURVE ( 'NONE', #216, #15, #321, .T. ) ;
#107 = DATE_AND_TIME ( #44, #11 ) ;
#108 = ORIENTED_EDGE ( 'NONE', *, *, #77, .F. ) ;
#109 = TOROIDAL_SURFACE ( 'NONE', #148, 8.699999999999999289, 0.6999999999999999556 ) ;
#110 = EDGE_LOOP ( 'NONE', ( #278, #222, #47, #366 ) ) ;
#111 = CARTESIAN_POINT ( 'NONE',  ( 0.000000000000000000, 0.000000000000000000, 7.700000000000012612 ) ) ;
#112 = CIRCLE ( 'NONE', #155, 11.00000000000000000 ) ;
#113 = DIRECTION ( 'NONE',  ( 0.000000000000000000, 0.000000000000000000, 1.000000000000000000 ) ) ;
#114 = AXIS2_PLACEMENT_3D ( 'NONE', #345, #339, #210 ) ;
#115 = DIRECTION ( 'NONE',  ( 1.000000000000000000, 0.000000000000000000, 0.000000000000000000 ) ) ;
#116 = APPROVAL_ROLE ( '' ) ;
#117 = PRODUCT_DEFINITION ( 'NEZNÁMÝ', '', #233, #82 ) ;
#118 = DIRECTION ( 'NONE',  ( 0.000000000000000000, 0.000000000000000000, 1.000000000000000000 ) ) ;
#119 = CARTESIAN_POINT ( 'NONE',  ( 8.699999999999999289, 0.000000000000000000, 7.000000000000006217 ) ) ;
#120 = CARTESIAN_POINT ( 'NONE',  ( 8.000000000000000000, 9.797174393178825657E-16, 257.0000000000000000 ) ) ;
#121 = ADVANCED_FACE ( 'NONE', ( #353 ), #109, .F. ) ;
#122 = DIRECTION ( 'NONE',  ( 0.000000000000000000, 0.000000000000000000, 1.000000000000000000 ) ) ;
#123 = DIRECTION ( 'NONE',  ( 1.000000000000000000, 0.000000000000000000, -0.000000000000000000 ) ) ;
#124 = AXIS2_PLACEMENT_3D ( 'NONE', #96, #6, #355 ) ;
#125 = EDGE_CURVE ( 'NONE', #187, #273, #23, .T. ) ;
#126 = CYLINDRICAL_SURFACE ( 'NONE', #124, 8.000000000000000000 ) ;
#127 = PERSON_AND_ORGANIZATION ( #255, #154 ) ;
#128 = VERTEX_POINT ( 'NONE', #373 ) ;
#129 = CC_DESIGN_APPROVAL ( #231, ( #117 ) ) ;
#130 = ORIENTED_EDGE ( 'NONE', *, *, #17, .F. ) ;
#131 = APPROVAL_DATE_TIME ( #186, #219 ) ;
#132 = ORIENTED_EDGE ( 'NONE', *, *, #253, .F. ) ;
#133 = CARTESIAN_POINT ( 'NONE',  ( -6.000000000000000888, 0.000000000000000000, 0.000000000000000000 ) ) ;
#134 = VERTEX_POINT ( 'NONE', #21 ) ;
#135 = AXIS2_PLACEMENT_3D ( 'NONE', #91, #297, #328 ) ;
#136 = PRODUCT ( '07c2', '07c2', '', ( #221 ) ) ;
#137 = ORIENTED_EDGE ( 'NONE', *, *, #59, .T. ) ;
#138 = CARTESIAN_POINT ( 'NONE',  ( 0.000000000000000000, 0.000000000000000000, 0.000000000000000000 ) ) ;
#139 = AXIS2_PLACEMENT_3D ( 'NONE', #378, #380, #115 ) ;
#140 = DATE_AND_TIME ( #145, #256 ) ;
#141 = DIRECTION ( 'NONE',  ( 0.000000000000000000, 0.000000000000000000, 1.000000000000000000 ) ) ;
#142 = EDGE_CURVE ( 'NONE', #273, #187, #57, .T. ) ;
#143 = VECTOR ( 'NONE', #217, 1000.000000000000000 ) ;
#144 = CARTESIAN_POINT ( 'NONE',  ( 0.000000000000000000, 0.000000000000000000, 257.0000000000000000 ) ) ;
#145 = CALENDAR_DATE ( 2022, 8, 7 ) ;
#146 = DIRECTION ( 'NONE',  ( 0.000000000000000000, 0.000000000000000000, 1.000000000000000000 ) ) ;
#147 = DIRECTION ( 'NONE',  ( 1.000000000000000000, 0.000000000000000000, 0.000000000000000000 ) ) ;
#148 = AXIS2_PLACEMENT_3D ( 'NONE', #290, #28, #87 ) ;
#149 = FACE_OUTER_BOUND ( 'NONE', #184, .T. ) ;
#150 = ORIENTED_EDGE ( 'NONE', *, *, #66, .T. ) ;
#151 = CARTESIAN_POINT ( 'NONE',  ( 0.000000000000000000, 0.000000000000000000, 0.000000000000000000 ) ) ;
#152 = DIRECTION ( 'NONE',  ( -0.000000000000000000, -0.000000000000000000, -1.000000000000000000 ) ) ;
#153 = DIRECTION ( 'NONE',  ( 0.000000000000000000, 0.000000000000000000, 1.000000000000000000 ) ) ;
#154 = ORGANIZATION ( 'NEURÈENÝ', 'NEURÈENÝ', '' ) ;
#155 = AXIS2_PLACEMENT_3D ( 'NONE', #252, #286, #352 ) ;
#156 = CALENDAR_DATE ( 2022, 8, 7 ) ;
#157 = EDGE_LOOP ( 'NONE', ( #102, #108 ) ) ;
#158 = PERSON_AND_ORGANIZATION_ROLE ( 'creator' ) ;
#159 = ORIENTED_EDGE ( 'NONE', *, *, #99, .T. ) ;
#160 = CC_DESIGN_PERSON_AND_ORGANIZATION_ASSIGNMENT ( #245, #367, ( #170 ) ) ;
#161 = AXIS2_PLACEMENT_3D ( 'NONE', #269, #93, #181 ) ;
#162 = CARTESIAN_POINT ( 'NONE',  ( 0.000000000000000000, 0.000000000000000000, 7.000000000000000000 ) ) ;
#163 = ORIENTED_EDGE ( 'NONE', *, *, #84, .F. ) ;
#164 = ORIENTED_EDGE ( 'NONE', *, *, #174, .T. ) ;
#165 = CC_DESIGN_PERSON_AND_ORGANIZATION_ASSIGNMENT ( #40, #158, ( #233 ) ) ;
#166 = ORIENTED_EDGE ( 'NONE', *, *, #201, .T. ) ;
#167 = DIRECTION ( 'NONE',  ( 0.000000000000000000, 0.000000000000000000, -1.000000000000000000 ) ) ;
#168 = CARTESIAN_POINT ( 'NONE',  ( 0.000000000000000000, 0.000000000000000000, 0.000000000000000000 ) ) ;
#169 = CARTESIAN_POINT ( 'NONE',  ( 0.000000000000000000, 0.000000000000000000, 7.700000000000012612 ) ) ;
#170 = SECURITY_CLASSIFICATION ( '', '', #277 ) ;
#171 = DIRECTION ( 'NONE',  ( -0.000000000000000000, -0.000000000000000000, -1.000000000000000000 ) ) ;
#172 = DIRECTION ( 'NONE',  ( 0.000000000000000000, -1.000000000000000000, 0.000000000000000000 ) ) ;
#173 = AXIS2_PLACEMENT_3D ( 'NONE', #168, #171, #284 ) ;
#174 = EDGE_CURVE ( 'NONE', #73, #128, #287, .T. ) ;
#175 = CARTESIAN_POINT ( 'NONE',  ( 0.000000000000000000, 0.000000000000000000, 257.0000000000000000 ) ) ;
#176 = AXIS2_PLACEMENT_3D ( 'NONE', #162, #271, #369 ) ;
#177 = CARTESIAN_POINT ( 'NONE',  ( 0.000000000000000000, 0.000000000000000000, 7.000000000000000000 ) ) ;
#178 = DIRECTION ( 'NONE',  ( 1.000000000000000000, 0.000000000000000000, 0.000000000000000000 ) ) ;
#179 = EDGE_CURVE ( 'NONE', #338, #213, #199, .T. ) ;
#180 = DIRECTION ( 'NONE',  ( -0.000000000000000000, -0.000000000000000000, -1.000000000000000000 ) ) ;
#181 = DIRECTION ( 'NONE',  ( -1.000000000000000000, 0.000000000000000000, 0.000000000000000000 ) ) ;
#182 = CIRCLE ( 'NONE', #348, 8.699999999999999289 ) ;
#183 = PERSON_AND_ORGANIZATION_ROLE ( 'design_owner' ) ;
#184 = EDGE_LOOP ( 'NONE', ( #267, #250, #295, #190 ) ) ;
#185 = EDGE_CURVE ( 'NONE', #213, #101, #320, .T. ) ;
#186 = DATE_AND_TIME ( #156, #299 ) ;
#187 = VERTEX_POINT ( 'NONE', #334 ) ;
#188 = FACE_OUTER_BOUND ( 'NONE', #237, .T. ) ;
#189 = ORIENTED_EDGE ( 'NONE', *, *, #174, .F. ) ;
#190 = ORIENTED_EDGE ( 'NONE', *, *, #142, .T. ) ;
#191 = EDGE_CURVE ( 'NONE', #73, #187, #36, .T. ) ;
#192 = CYLINDRICAL_SURFACE ( 'NONE', #176, 11.00000000000000000 ) ;
#193 = ORIENTED_EDGE ( 'NONE', *, *, #106, .T. ) ;
#194 = CARTESIAN_POINT ( 'NONE',  ( 0.000000000000000000, 0.000000000000000000, 257.0000000000000000 ) ) ;
#195 = CARTESIAN_POINT ( 'NONE',  ( 0.000000000000000000, 0.000000000000000000, 7.000000000000000000 ) ) ;
#196 = PRODUCT_RELATED_PRODUCT_CATEGORY ( 'detail', '', ( #136 ) ) ;
#197 = CARTESIAN_POINT ( 'NONE',  ( 0.000000000000000000, 0.000000000000000000, 257.0000000000000000 ) ) ;
#198 = DIRECTION ( 'NONE',  ( 0.000000000000000000, 0.000000000000000000, 1.000000000000000000 ) ) ;
#199 = CIRCLE ( 'NONE', #232, 11.00000000000000000 ) ;
#200 = FACE_OUTER_BOUND ( 'NONE', #342, .T. ) ;
#201 = EDGE_CURVE ( 'NONE', #216, #38, #381, .T. ) ;
#202 = CARTESIAN_POINT ( 'NONE',  ( 11.00000000000000000, 1.347111479062088405E-15, 7.000000000000000000 ) ) ;
#203 = CIRCLE ( 'NONE', #61, 11.00000000000000000 ) ;
#204 = FACE_OUTER_BOUND ( 'NONE', #157, .T. ) ;
#205 = APPROVAL_PERSON_ORGANIZATION ( #9, #231, #80 ) ;
#206 = EDGE_CURVE ( 'NONE', #15, #216, #275, .T. ) ;
#207 = DIRECTION ( 'NONE',  ( 0.000000000000000000, 0.000000000000000000, -1.000000000000000000 ) ) ;
#208 = FACE_OUTER_BOUND ( 'NONE', #371, .T. ) ;
#209 = FACE_OUTER_BOUND ( 'NONE', #363, .T. ) ;
#210 = DIRECTION ( 'NONE',  ( 1.000000000000000000, 0.000000000000000000, 0.000000000000000000 ) ) ;
#211 = ORIENTED_EDGE ( 'NONE', *, *, #125, .T. ) ;
#212 =( LENGTH_UNIT ( ) NAMED_UNIT ( * ) SI_UNIT ( .MILLI., .METRE. ) );
#213 = VERTEX_POINT ( 'NONE', #266 ) ;
#214 = CLOSED_SHELL ( 'NONE', ( #71, #5, #283, #268, #341, #242, #288, #315, #1, #121, #244 ) ) ;
#215 = COORDINATED_UNIVERSAL_TIME_OFFSET ( 1, 0, .AHEAD. ) ;
#216 = VERTEX_POINT ( 'NONE', #62 ) ;
#217 = DIRECTION ( 'NONE',  ( -0.000000000000000000, -0.000000000000000000, -1.000000000000000000 ) ) ;
#218 = AXIS2_PLACEMENT_3D ( 'NONE', #197, #118, #22 ) ;
#219 = APPROVAL ( #37, 'NEURÈENÝ' ) ;
#220 = VERTEX_POINT ( 'NONE', #3 ) ;
#221 = MECHANICAL_CONTEXT ( 'NONE', #51, 'mechanical' ) ;
#222 = ORIENTED_EDGE ( 'NONE', *, *, #185, .T. ) ;
#223 = PERSON_AND_ORGANIZATION ( #255, #154 ) ;
#224 = PRODUCT_DEFINITION_SHAPE ( 'NONE', 'NONE',  #117 ) ;
#225 = LINE ( 'NONE', #374, #39 ) ;
#226 = DIRECTION ( 'NONE',  ( 1.000000000000000000, 0.000000000000000000, 0.000000000000000000 ) ) ;
#227 = LOCAL_TIME ( 16, 19, 32.00000000000000000, #249 ) ;
#228 = DIRECTION ( 'NONE',  ( 1.000000000000000000, 0.000000000000000000, 0.000000000000000000 ) ) ;
#229 = CARTESIAN_POINT ( 'NONE',  ( 0.000000000000000000, 0.000000000000000000, 7.700000000000012612 ) ) ;
#230 = CARTESIAN_POINT ( 'NONE',  ( 8.000000000000000000, 9.797174393178825657E-16, 257.0000000000000000 ) ) ;
#231 = APPROVAL ( #72, 'NEURÈENÝ' ) ;
#232 = AXIS2_PLACEMENT_3D ( 'NONE', #86, #141, #228 ) ;
#233 = PRODUCT_DEFINITION_FORMATION_WITH_SPECIFIED_SOURCE ( 'LIBOVOLNÝ', '', #136, .NOT_KNOWN. ) ;
#234 = DIRECTION ( 'NONE',  ( 1.000000000000000000, 0.000000000000000000, 0.000000000000000000 ) ) ;
#235 = CARTESIAN_POINT ( 'NONE',  ( -8.699999999999999289, 1.065442715258197248E-15, 7.700000000000012612 ) ) ;
#236 = DIRECTION ( 'NONE',  ( -0.000000000000000000, -0.000000000000000000, -1.000000000000000000 ) ) ;
#237 = EDGE_LOOP ( 'NONE', ( #4, #20, #357, #150 ) ) ;
#238 = AXIS2_PLACEMENT_3D ( 'NONE', #169, #90, #147 ) ;
#239 = CARTESIAN_POINT ( 'NONE',  ( -6.000000000000000888, 0.000000000000000000, 257.0000000000000000 ) ) ;
#240 = PLANE ( 'NONE',  #359 ) ;
#241 = DATE_TIME_ROLE ( 'creation_date' ) ;
#242 = ADVANCED_FACE ( 'NONE', ( #361, #209 ), #240, .T. ) ;
#243 =( NAMED_UNIT ( * ) PLANE_ANGLE_UNIT ( ) SI_UNIT ( $, .RADIAN. ) );
#244 = ADVANCED_FACE ( 'NONE', ( #356 ), #97, .F. ) ;
#245 = PERSON_AND_ORGANIZATION ( #255, #154 ) ;
#246 = ORIENTED_EDGE ( 'NONE', *, *, #298, .T. ) ;
#247 = CIRCLE ( 'NONE', #308, 0.6999999999999992895 ) ;
#248 = EDGE_LOOP ( 'NONE', ( #130, #79 ) ) ;
#249 = COORDINATED_UNIVERSAL_TIME_OFFSET ( 1, 0, .AHEAD. ) ;
#250 = ORIENTED_EDGE ( 'NONE', *, *, #260, .F. ) ;
#251 = SHAPE_DEFINITION_REPRESENTATION ( #224, #316 ) ;
#252 = CARTESIAN_POINT ( 'NONE',  ( 0.000000000000000000, 0.000000000000000000, 0.000000000000000000 ) ) ;
#253 = EDGE_CURVE ( 'NONE', #15, #344, #32, .T. ) ;
#254 = DIRECTION ( 'NONE',  ( 0.000000000000000000, 0.000000000000000000, -1.000000000000000000 ) ) ;
#255 = PERSON ( 'NEURÈENÝ', 'NEURÈENÝ', 'NEURÈENÝ', ('NEURÈENÝ'), ('NEURÈENÝ'), ('NEURÈENÝ') ) ;
#256 = LOCAL_TIME ( 16, 19, 32.00000000000000000, #52 ) ;
#257 = CALENDAR_DATE ( 2022, 8, 7 ) ;
#258 = DIRECTION ( 'NONE',  ( -0.000000000000000000, -0.000000000000000000, -1.000000000000000000 ) ) ;
#259 = DATE_TIME_ROLE ( 'classification_date' ) ;
#260 = EDGE_CURVE ( 'NONE', #128, #73, #337, .T. ) ;
#261 = DIRECTION ( 'NONE',  ( 1.000000000000000000, 0.000000000000000000, 0.000000000000000000 ) ) ;
#262 = CARTESIAN_POINT ( 'NONE',  ( 0.000000000000000000, 0.000000000000000000, 7.000000000000000000 ) ) ;
#263 = VECTOR ( 'NONE', #336, 1000.000000000000000 ) ;
#264 = AXIS2_PLACEMENT_3D ( 'NONE', #175, #122, #234 ) ;
#265 = DIRECTION ( 'NONE',  ( 0.000000000000000000, 0.000000000000000000, -1.000000000000000000 ) ) ;
#266 = CARTESIAN_POINT ( 'NONE',  ( 11.00000000000000000, 1.347111479062088405E-15, 7.000000000000000000 ) ) ;
#267 = ORIENTED_EDGE ( 'NONE', *, *, #191, .F. ) ;
#268 = ADVANCED_FACE ( 'NONE', ( #7 ), #358, .T. ) ;
#269 = CARTESIAN_POINT ( 'NONE',  ( 0.000000000000000000, 0.000000000000000000, 257.0000000000000000 ) ) ;
#270 = DIRECTION ( 'NONE',  ( 1.000000000000000000, 0.000000000000000000, -0.000000000000000000 ) ) ;
#271 = DIRECTION ( 'NONE',  ( -0.000000000000000000, -0.000000000000000000, -1.000000000000000000 ) ) ;
#272 = APPLICATION_PROTOCOL_DEFINITION ( 'international standard', 'config_control_design', 1994, #51 ) ;
#273 = VERTEX_POINT ( 'NONE', #69 ) ;
#274 = PERSON_AND_ORGANIZATION ( #255, #154 ) ;
#275 = CIRCLE ( 'NONE', #264, 6.000000000000000888 ) ;
#276 = ORIENTED_EDGE ( 'NONE', *, *, #191, .T. ) ;
#277 = SECURITY_CLASSIFICATION_LEVEL ( 'unclassified' ) ;
#278 = ORIENTED_EDGE ( 'NONE', *, *, #59, .F. ) ;
#279 = AXIS2_PLACEMENT_3D ( 'NONE', #289, #172, #254 ) ;
#280 = APPROVAL_ROLE ( '' ) ;
#281 = EDGE_LOOP ( 'NONE', ( #18, #105, #13, #292 ) ) ;
#282 = ORIENTED_EDGE ( 'NONE', *, *, #206, .F. ) ;
#283 = ADVANCED_FACE ( 'NONE', ( #208 ), #68, .T. ) ;
#284 = DIRECTION ( 'NONE',  ( 1.000000000000000000, 0.000000000000000000, 0.000000000000000000 ) ) ;
#285 = CARTESIAN_POINT ( 'NONE',  ( 0.000000000000000000, 0.000000000000000000, 257.0000000000000000 ) ) ;
#286 = DIRECTION ( 'NONE',  ( 0.000000000000000000, 0.000000000000000000, 1.000000000000000000 ) ) ;
#287 = CIRCLE ( 'NONE', #324, 8.000000000000000000 ) ;
#288 = ADVANCED_FACE ( 'NONE', ( #296, #204 ), #98, .F. ) ;
#289 = CARTESIAN_POINT ( 'NONE',  ( 8.699999999999999289, 0.000000000000000000, 7.700000000000012612 ) ) ;
#290 = CARTESIAN_POINT ( 'NONE',  ( 0.000000000000000000, 0.000000000000000000, 7.700000000000012612 ) ) ;
#291 = DIRECTION ( 'NONE',  ( -0.000000000000000000, -0.000000000000000000, -1.000000000000000000 ) ) ;
#292 = ORIENTED_EDGE ( 'NONE', *, *, #335, .F. ) ;
#293 = CIRCLE ( 'NONE', #354, 6.000000000000000888 ) ;
#294 = DIRECTION ( 'NONE',  ( 1.000000000000000000, 0.000000000000000000, 0.000000000000000000 ) ) ;
#295 = ORIENTED_EDGE ( 'NONE', *, *, #84, .T. ) ;
#296 = FACE_BOUND ( 'NONE', #248, .T. ) ;
#297 = DIRECTION ( 'NONE',  ( -0.000000000000000000, -0.000000000000000000, -1.000000000000000000 ) ) ;
#298 = EDGE_CURVE ( 'NONE', #38, #344, #293, .T. ) ;
#299 = LOCAL_TIME ( 16, 19, 32.00000000000000000, #215 ) ;
#300 = DIRECTION ( 'NONE',  ( 1.000000000000000000, 0.000000000000000000, 0.000000000000000000 ) ) ;
#301 = PERSON_AND_ORGANIZATION ( #255, #154 ) ;
#302 = ORIENTED_EDGE ( 'NONE', *, *, #206, .T. ) ;
#303 = CIRCLE ( 'NONE', #139, 8.699999999999999289 ) ;
#304 = APPLICATION_PROTOCOL_DEFINITION ( 'international standard', 'config_control_design', 1994, #306 ) ;
#305 = ORIENTED_EDGE ( 'NONE', *, *, #179, .T. ) ;
#306 = APPLICATION_CONTEXT ( 'configuration controlled 3d designs of mechanical parts and assemblies' ) ;
#307 = CARTESIAN_POINT ( 'NONE',  ( -11.00000000000000000, 0.000000000000000000, 7.000000000000000000 ) ) ;
#308 = AXIS2_PLACEMENT_3D ( 'NONE', #235, #33, #331 ) ;
#309 = EDGE_LOOP ( 'NONE', ( #159, #75 ) ) ;
#310 = PERSON_AND_ORGANIZATION ( #255, #154 ) ;
#311 = VERTEX_POINT ( 'NONE', #119 ) ;
#312 = AXIS2_PLACEMENT_3D ( 'NONE', #229, #146, #261 ) ;
#313 = CALENDAR_DATE ( 2022, 8, 7 ) ;
#314 = ORIENTED_EDGE ( 'NONE', *, *, #330, .T. ) ;
#315 = ADVANCED_FACE ( 'NONE', ( #149 ), #126, .T. ) ;
#316 = ADVANCED_BREP_SHAPE_REPRESENTATION ( '07c2', ( #326, #114 ), #35 ) ;
#317 = DIRECTION ( 'NONE',  ( 1.000000000000000000, 0.000000000000000000, -0.000000000000000000 ) ) ;
#318 = DIRECTION ( 'NONE',  ( 1.000000000000000000, 0.000000000000000000, 0.000000000000000000 ) ) ;
#319 = CIRCLE ( 'NONE', #55, 11.00000000000000000 ) ;
#320 = LINE ( 'NONE', #202, #49 ) ;
#321 = CIRCLE ( 'NONE', #218, 6.000000000000000888 ) ;
#322 = CC_DESIGN_PERSON_AND_ORGANIZATION_ASSIGNMENT ( #310, #183, ( #136 ) ) ;
#323 = FACE_BOUND ( 'NONE', #78, .T. ) ;
#324 = AXIS2_PLACEMENT_3D ( 'NONE', #285, #83, #349 ) ;
#325 = AXIS2_PLACEMENT_3D ( 'NONE', #262, #180, #63 ) ;
#326 = MANIFOLD_SOLID_BREP ( 'Odebrat vysunutím3', #214 ) ;
#327 = DIRECTION ( 'NONE',  ( -1.000000000000000000, 0.000000000000000000, 0.000000000000000000 ) ) ;
#328 = DIRECTION ( 'NONE',  ( -1.000000000000000000, 0.000000000000000000, 0.000000000000000000 ) ) ;
#329 = AXIS2_PLACEMENT_3D ( 'NONE', #144, #167, #327 ) ;
#330 = EDGE_CURVE ( 'NONE', #273, #220, #247, .T. ) ;
#331 = DIRECTION ( 'NONE',  ( -1.000000000000000000, 1.224646799147353207E-16, 0.000000000000000000 ) ) ;
#332 = VECTOR ( 'NONE', #207, 1000.000000000000000 ) ;
#333 = DIRECTION ( 'NONE',  ( 0.000000000000000000, 0.000000000000000000, 1.000000000000000000 ) ) ;
#334 = CARTESIAN_POINT ( 'NONE',  ( 8.000000000000000000, 9.797174393178825657E-16, 7.700000000000012612 ) ) ;
#335 = EDGE_CURVE ( 'NONE', #220, #311, #182, .T. ) ;
#336 = DIRECTION ( 'NONE',  ( -0.000000000000000000, -0.000000000000000000, -1.000000000000000000 ) ) ;
#337 = CIRCLE ( 'NONE', #30, 8.000000000000000000 ) ;
#338 = VERTEX_POINT ( 'NONE', #100 ) ;
#339 = DIRECTION ( 'NONE',  ( 0.000000000000000000, 0.000000000000000000, 1.000000000000000000 ) ) ;
#340 = ORIENTED_EDGE ( 'NONE', *, *, #260, .T. ) ;
#341 = ADVANCED_FACE ( 'NONE', ( #188 ), #192, .T. ) ;
#342 = EDGE_LOOP ( 'NONE', ( #302, #166, #246, #132 ) ) ;
#343 = VECTOR ( 'NONE', #265, 1000.000000000000000 ) ;
#344 = VERTEX_POINT ( 'NONE', #133 ) ;
#345 = CARTESIAN_POINT ( 'NONE',  ( 0.000000000000000000, 0.000000000000000000, 0.000000000000000000 ) ) ;
#346 = ORIENTED_EDGE ( 'NONE', *, *, #201, .F. ) ;
#347 = EDGE_CURVE ( 'NONE', #338, #134, #76, .T. ) ;
#348 = AXIS2_PLACEMENT_3D ( 'NONE', #177, #152, #300 ) ;
#349 = DIRECTION ( 'NONE',  ( 1.000000000000000000, 0.000000000000000000, 0.000000000000000000 ) ) ;
#350 = FACE_OUTER_BOUND ( 'NONE', #41, .T. ) ;
#351 = AXIS2_PLACEMENT_3D ( 'NONE', #194, #198, #317 ) ;
#352 = DIRECTION ( 'NONE',  ( 1.000000000000000000, 0.000000000000000000, 0.000000000000000000 ) ) ;
#353 = FACE_OUTER_BOUND ( 'NONE', #281, .T. ) ;
#354 = AXIS2_PLACEMENT_3D ( 'NONE', #151, #291, #294 ) ;
#355 = DIRECTION ( 'NONE',  ( -1.000000000000000000, 0.000000000000000000, 0.000000000000000000 ) ) ;
#356 = FACE_OUTER_BOUND ( 'NONE', #31, .T. ) ;
#357 = ORIENTED_EDGE ( 'NONE', *, *, #347, .T. ) ;
#358 = CYLINDRICAL_SURFACE ( 'NONE', #325, 11.00000000000000000 ) ;
#359 = AXIS2_PLACEMENT_3D ( 'NONE', #65, #333, #123 ) ;
#360 = DIRECTION ( 'NONE',  ( 0.000000000000000000, 0.000000000000000000, 1.000000000000000000 ) ) ;
#361 = FACE_BOUND ( 'NONE', #309, .T. ) ;
#362 =( NAMED_UNIT ( * ) SI_UNIT ( $, .STERADIAN. ) SOLID_ANGLE_UNIT ( ) );
#363 = EDGE_LOOP ( 'NONE', ( #305, #137 ) ) ;
#364 = CC_DESIGN_PERSON_AND_ORGANIZATION_ASSIGNMENT ( #274, #12, ( #233 ) ) ;
#365 = APPROVAL_DATE_TIME ( #74, #231 ) ;
#366 = ORIENTED_EDGE ( 'NONE', *, *, #347, .F. ) ;
#367 = PERSON_AND_ORGANIZATION_ROLE ( 'classification_officer' ) ;
#368 = ORIENTED_EDGE ( 'NONE', *, *, #17, .T. ) ;
#369 = DIRECTION ( 'NONE',  ( -1.000000000000000000, 0.000000000000000000, 0.000000000000000000 ) ) ;
#370 = CC_DESIGN_PERSON_AND_ORGANIZATION_ASSIGNMENT ( #127, #103, ( #117 ) ) ;
#371 = EDGE_LOOP ( 'NONE', ( #189, #276, #211, #163 ) ) ;
#372 = APPROVAL_DATE_TIME ( #375, #95 ) ;
#373 = CARTESIAN_POINT ( 'NONE',  ( -8.000000000000000000, 0.000000000000000000, 257.0000000000000000 ) ) ;
#374 = CARTESIAN_POINT ( 'NONE',  ( -8.000000000000000000, 0.000000000000000000, 257.0000000000000000 ) ) ;
#375 = DATE_AND_TIME ( #257, #227 ) ;
#376 = APPROVAL_PERSON_ORGANIZATION ( #301, #219, #280 ) ;
#377 = DIRECTION ( 'NONE',  ( 0.000000000000000000, 0.000000000000000000, 1.000000000000000000 ) ) ;
#378 = CARTESIAN_POINT ( 'NONE',  ( 0.000000000000000000, 0.000000000000000000, 7.000000000000000000 ) ) ;
#379 = APPROVAL_STATUS ( 'not_yet_approved' ) ;
#380 = DIRECTION ( 'NONE',  ( -0.000000000000000000, -0.000000000000000000, -1.000000000000000000 ) ) ;
#381 = LINE ( 'NONE', #29, #332 ) ;
ENDSEC;
END-ISO-10303-21;
