ISO-10303-21;
HEADER;
FILE_DESCRIPTION (( 'STEP AP203' ),
    '1' );
FILE_NAME ('36db.STEP',
    '2022-07-08T15:35:51',
    ( '' ),
    ( '' ),
    'SwSTEP 2.0',
    'SolidWorks 2019',
    '' );
FILE_SCHEMA (( 'CONFIG_CONTROL_DESIGN' ));
ENDSEC;

DATA;
#1 = EDGE_CURVE ( 'NONE', #127, #99, #23, .T. ) ;
#2 = APPROVAL_STATUS ( 'not_yet_approved' ) ;
#3 = CARTESIAN_POINT ( 'NONE',  ( -3.500000000000000444, 4.286263797015737088E-16, 5.500000000000005329 ) ) ;
#4 = CIRCLE ( 'NONE', #103, 2.000000000000000000 ) ;
#5 = AXIS2_PLACEMENT_3D ( 'NONE', #319, #176, #207 ) ;
#6 = LOCAL_TIME ( 17, 35, 51.00000000000000000, #69 ) ;
#7 = ADVANCED_FACE ( 'NONE', ( #59 ), #368, .T. ) ;
#8 = CARTESIAN_POINT ( 'NONE',  ( 0.000000000000000000, 0.000000000000000000, 5.500000000000005329 ) ) ;
#9 = CLOSED_SHELL ( 'NONE', ( #345, #289, #149, #243, #112, #163, #128, #7, #199, #96, #247 ) ) ;
#10 = EDGE_LOOP ( 'NONE', ( #56, #83 ) ) ;
#11 = AXIS2_PLACEMENT_3D ( 'NONE', #348, #152, #131 ) ;
#12 = DIRECTION ( 'NONE',  ( 0.000000000000000000, 0.000000000000000000, 1.000000000000000000 ) ) ;
#13 = ORIENTED_EDGE ( 'NONE', *, *, #135, .F. ) ;
#14 = DIRECTION ( 'NONE',  ( 1.000000000000000000, 0.000000000000000000, 0.000000000000000000 ) ) ;
#15 = PERSON ( 'NEURÈENÝ', 'NEURÈENÝ', 'NEURÈENÝ', ('NEURÈENÝ'), ('NEURÈENÝ'), ('NEURÈENÝ') ) ;
#16 = CIRCLE ( 'NONE', #224, 2.000000000000000000 ) ;
#17 = CARTESIAN_POINT ( 'NONE',  ( 0.000000000000000000, 0.000000000000000000, 180.0000000000000000 ) ) ;
#18 = AXIS2_PLACEMENT_3D ( 'NONE', #3, #236, #118 ) ;
#19 = APPLICATION_PROTOCOL_DEFINITION ( 'international standard', 'config_control_design', 1994, #342 ) ;
#20 = ORGANIZATION ( 'NEURÈENÝ', 'NEURÈENÝ', '' ) ;
#21 = EDGE_CURVE ( 'NONE', #35, #77, #4, .T. ) ;
#22 = DIRECTION ( 'NONE',  ( -0.000000000000000000, -0.000000000000000000, -1.000000000000000000 ) ) ;
#23 = CIRCLE ( 'NONE', #246, 6.000000000000000888 ) ;
#24 = AXIS2_PLACEMENT_3D ( 'NONE', #200, #32, #375 ) ;
#25 = LINE ( 'NONE', #88, #268 ) ;
#26 = EDGE_CURVE ( 'NONE', #99, #127, #86, .T. ) ;
#27 = APPROVAL_STATUS ( 'not_yet_approved' ) ;
#28 = VECTOR ( 'NONE', #146, 1000.000000000000000 ) ;
#29 = DIRECTION ( 'NONE',  ( 0.000000000000000000, 0.000000000000000000, -1.000000000000000000 ) ) ;
#30 = AXIS2_PLACEMENT_3D ( 'NONE', #362, #192, #278 ) ;
#31 = PERSON_AND_ORGANIZATION_ROLE ( 'classification_officer' ) ;
#32 = DIRECTION ( 'NONE',  ( -0.000000000000000000, -0.000000000000000000, -1.000000000000000000 ) ) ;
#33 = DIRECTION ( 'NONE',  ( 0.000000000000000000, 0.000000000000000000, 1.000000000000000000 ) ) ;
#34 = FACE_BOUND ( 'NONE', #119, .T. ) ;
#35 = VERTEX_POINT ( 'NONE', #251 ) ;
#36 = CARTESIAN_POINT ( 'NONE',  ( 0.000000000000000000, 0.000000000000000000, 180.0000000000000000 ) ) ;
#37 = ORIENTED_EDGE ( 'NONE', *, *, #205, .T. ) ;
#38 = APPROVAL_DATE_TIME ( #201, #49 ) ;
#39 = DIRECTION ( 'NONE',  ( 1.000000000000000000, 0.000000000000000000, -0.000000000000000000 ) ) ;
#40 = ORIENTED_EDGE ( 'NONE', *, *, #105, .T. ) ;
#41 = EDGE_CURVE ( 'NONE', #183, #336, #16, .T. ) ;
#42 = DIRECTION ( 'NONE',  ( 1.000000000000000000, 0.000000000000000000, 0.000000000000000000 ) ) ;
#43 = ORIENTED_EDGE ( 'NONE', *, *, #1, .F. ) ;
#44 = CC_DESIGN_APPROVAL ( #117, ( #295 ) ) ;
#45 = EDGE_LOOP ( 'NONE', ( #352, #335 ) ) ;
#46 = VERTEX_POINT ( 'NONE', #193 ) ;
#47 = DIRECTION ( 'NONE',  ( 0.000000000000000000, 0.000000000000000000, 1.000000000000000000 ) ) ;
#48 = EDGE_LOOP ( 'NONE', ( #269, #169, #230, #154 ) ) ;
#49 = APPROVAL ( #2, 'NEURÈENÝ' ) ;
#50 = AXIS2_PLACEMENT_3D ( 'NONE', #121, #341, #97 ) ;
#51 = DIRECTION ( 'NONE',  ( -0.000000000000000000, -0.000000000000000000, -1.000000000000000000 ) ) ;
#52 = ORIENTED_EDGE ( 'NONE', *, *, #135, .T. ) ;
#53 = APPLICATION_PROTOCOL_DEFINITION ( 'international standard', 'config_control_design', 1994, #145 ) ;
#54 = EDGE_LOOP ( 'NONE', ( #124, #43 ) ) ;
#55 = EDGE_CURVE ( 'NONE', #361, #99, #306, .T. ) ;
#56 = ORIENTED_EDGE ( 'NONE', *, *, #307, .F. ) ;
#57 = AXIS2_PLACEMENT_3D ( 'NONE', #133, #305, #165 ) ;
#58 = DIRECTION ( 'NONE',  ( 0.000000000000000000, 0.000000000000000000, 1.000000000000000000 ) ) ;
#59 = FACE_OUTER_BOUND ( 'NONE', #302, .T. ) ;
#60 = PERSON_AND_ORGANIZATION_ROLE ( 'design_owner' ) ;
#61 = DIRECTION ( 'NONE',  ( -0.000000000000000000, -0.000000000000000000, -1.000000000000000000 ) ) ;
#62 = CIRCLE ( 'NONE', #293, 3.000000000000000444 ) ;
#63 = CARTESIAN_POINT ( 'NONE',  ( 0.000000000000000000, 0.000000000000000000, 5.000000000000000000 ) ) ;
#64 = DATE_AND_TIME ( #313, #210 ) ;
#65 = DIRECTION ( 'NONE',  ( 0.000000000000000000, 0.000000000000000000, 1.000000000000000000 ) ) ;
#66 = CC_DESIGN_PERSON_AND_ORGANIZATION_ASSIGNMENT ( #337, #87, ( #249 ) ) ;
#67 = DIRECTION ( 'NONE',  ( -0.000000000000000000, -0.000000000000000000, -1.000000000000000000 ) ) ;
#68 = CIRCLE ( 'NONE', #5, 2.000000000000000000 ) ;
#69 = COORDINATED_UNIVERSAL_TIME_OFFSET ( 1, 0, .AHEAD. ) ;
#70 = CARTESIAN_POINT ( 'NONE',  ( -3.500000000000000444, 4.286263797015737088E-16, 5.000000000000002665 ) ) ;
#71 = AXIS2_PLACEMENT_3D ( 'NONE', #287, #33, #39 ) ;
#72 = SECURITY_CLASSIFICATION ( '', '', #286 ) ;
#73 = ORIENTED_EDGE ( 'NONE', *, *, #276, .F. ) ;
#74 = DIRECTION ( 'NONE',  ( 0.000000000000000000, 0.000000000000000000, -1.000000000000000000 ) ) ;
#75 = EDGE_CURVE ( 'NONE', #35, #183, #81, .T. ) ;
#76 = CARTESIAN_POINT ( 'NONE',  ( 0.000000000000000000, 0.000000000000000000, 180.0000000000000000 ) ) ;
#77 = VERTEX_POINT ( 'NONE', #338 ) ;
#78 = ORIENTED_EDGE ( 'NONE', *, *, #216, .T. ) ;
#79 = LINE ( 'NONE', #189, #162 ) ;
#80 = ORIENTED_EDGE ( 'NONE', *, *, #55, .T. ) ;
#81 = LINE ( 'NONE', #281, #179 ) ;
#82 = VECTOR ( 'NONE', #138, 1000.000000000000000 ) ;
#83 = ORIENTED_EDGE ( 'NONE', *, *, #21, .F. ) ;
#84 = CARTESIAN_POINT ( 'NONE',  ( 0.000000000000000000, 0.000000000000000000, 0.000000000000000000 ) ) ;
#85 = VERTEX_POINT ( 'NONE', #168 ) ;
#86 = CIRCLE ( 'NONE', #298, 6.000000000000000888 ) ;
#87 = PERSON_AND_ORGANIZATION_ROLE ( 'creator' ) ;
#88 = CARTESIAN_POINT ( 'NONE',  ( 3.000000000000000444, 3.673940397442060361E-16, 180.0000000000000000 ) ) ;
#89 = PERSON_AND_ORGANIZATION ( #15, #20 ) ;
#90 = CARTESIAN_POINT ( 'NONE',  ( 2.000000000000000000, 2.449293598294705921E-16, 0.000000000000000000 ) ) ;
#91 = CC_DESIGN_DATE_AND_TIME_ASSIGNMENT ( #116, #114, ( #295 ) ) ;
#92 = PERSON_AND_ORGANIZATION ( #15, #20 ) ;
#93 = FACE_BOUND ( 'NONE', #45, .T. ) ;
#94 = APPROVAL_DATE_TIME ( #157, #117 ) ;
#95 = DIRECTION ( 'NONE',  ( -0.000000000000000000, -0.000000000000000000, -1.000000000000000000 ) ) ;
#96 = ADVANCED_FACE ( 'NONE', ( #248 ), #158, .F. ) ;
#97 = DIRECTION ( 'NONE',  ( 1.000000000000000000, 0.000000000000000000, 0.000000000000000000 ) ) ;
#98 = DIRECTION ( 'NONE',  ( 0.000000000000000000, -1.000000000000000000, 0.000000000000000000 ) ) ;
#99 = VERTEX_POINT ( 'NONE', #164 ) ;
#100 = LOCAL_TIME ( 17, 35, 51.00000000000000000, #191 ) ;
#101 = CC_DESIGN_PERSON_AND_ORGANIZATION_ASSIGNMENT ( #334, #60, ( #181 ) ) ;
#102 = CYLINDRICAL_SURFACE ( 'NONE', #130, 2.000000000000000000 ) ;
#103 = AXIS2_PLACEMENT_3D ( 'NONE', #309, #284, #134 ) ;
#104 = ORIENTED_EDGE ( 'NONE', *, *, #330, .F. ) ;
#105 = EDGE_CURVE ( 'NONE', #46, #166, #25, .T. ) ;
#106 = VERTEX_POINT ( 'NONE', #111 ) ;
#107 = AXIS2_PLACEMENT_3D ( 'NONE', #212, #125, #356 ) ;
#108 = DIRECTION ( 'NONE',  ( -0.000000000000000000, -0.000000000000000000, -1.000000000000000000 ) ) ;
#109 = CARTESIAN_POINT ( 'NONE',  ( 0.000000000000000000, 0.000000000000000000, 5.000000000000000000 ) ) ;
#110 = DIRECTION ( 'NONE',  ( 1.000000000000000000, 0.000000000000000000, 0.000000000000000000 ) ) ;
#111 = CARTESIAN_POINT ( 'NONE',  ( 6.000000000000000888, 7.347880794884120722E-16, 5.000000000000000000 ) ) ;
#112 = ADVANCED_FACE ( 'NONE', ( #220 ), #314, .T. ) ;
#113 = ORIENTED_EDGE ( 'NONE', *, *, #175, .F. ) ;
#114 = DATE_TIME_ROLE ( 'creation_date' ) ;
#115 = CARTESIAN_POINT ( 'NONE',  ( 0.000000000000000000, 0.000000000000000000, 0.000000000000000000 ) ) ;
#116 = DATE_AND_TIME ( #291, #202 ) ;
#117 = APPROVAL ( #27, 'NEURÈENÝ' ) ;
#118 = DIRECTION ( 'NONE',  ( -1.000000000000000000, 1.224646799147354440E-16, 0.000000000000000000 ) ) ;
#119 = EDGE_LOOP ( 'NONE', ( #303, #37 ) ) ;
#120 = LINE ( 'NONE', #344, #82 ) ;
#121 = CARTESIAN_POINT ( 'NONE',  ( 0.000000000000000000, 0.000000000000000000, 0.000000000000000000 ) ) ;
#122 = CARTESIAN_POINT ( 'NONE',  ( 6.000000000000000888, 7.347880794884120722E-16, 0.000000000000000000 ) ) ;
#123 = AXIS2_PLACEMENT_3D ( 'NONE', #76, #47, #14 ) ;
#124 = ORIENTED_EDGE ( 'NONE', *, *, #26, .F. ) ;
#125 = DIRECTION ( 'NONE',  ( 0.000000000000000000, 0.000000000000000000, 1.000000000000000000 ) ) ;
#126 = CYLINDRICAL_SURFACE ( 'NONE', #208, 6.000000000000000888 ) ;
#127 = VERTEX_POINT ( 'NONE', #122 ) ;
#128 = ADVANCED_FACE ( 'NONE', ( #93, #142 ), #227, .F. ) ;
#129 = ORIENTED_EDGE ( 'NONE', *, *, #55, .F. ) ;
#130 = AXIS2_PLACEMENT_3D ( 'NONE', #275, #74, #178 ) ;
#131 = DIRECTION ( 'NONE',  ( 1.000000000000000000, 0.000000000000000000, 0.000000000000000000 ) ) ;
#132 = EDGE_CURVE ( 'NONE', #361, #106, #233, .T. ) ;
#133 = CARTESIAN_POINT ( 'NONE',  ( 0.000000000000000000, 0.000000000000000000, 180.0000000000000000 ) ) ;
#134 = DIRECTION ( 'NONE',  ( 1.000000000000000000, 0.000000000000000000, 0.000000000000000000 ) ) ;
#135 = EDGE_CURVE ( 'NONE', #85, #325, #120, .T. ) ;
#136 = CARTESIAN_POINT ( 'NONE',  ( -2.000000000000000000, 0.000000000000000000, 0.000000000000000000 ) ) ;
#137 = CIRCLE ( 'NONE', #50, 2.000000000000000000 ) ;
#138 = DIRECTION ( 'NONE',  ( -0.000000000000000000, -0.000000000000000000, -1.000000000000000000 ) ) ;
#139 = APPROVAL_STATUS ( 'not_yet_approved' ) ;
#140 = CARTESIAN_POINT ( 'NONE',  ( 0.000000000000000000, 0.000000000000000000, 0.000000000000000000 ) ) ;
#141 = AXIS2_PLACEMENT_3D ( 'NONE', #229, #67, #340 ) ;
#142 = FACE_OUTER_BOUND ( 'NONE', #54, .T. ) ;
#143 = ORIENTED_EDGE ( 'NONE', *, *, #205, .F. ) ;
#144 = EDGE_LOOP ( 'NONE', ( #185, #347 ) ) ;
#145 = APPLICATION_CONTEXT ( 'configuration controlled 3d designs of mechanical parts and assemblies' ) ;
#146 = DIRECTION ( 'NONE',  ( 0.000000000000000000, 0.000000000000000000, -1.000000000000000000 ) ) ;
#147 = ORIENTED_EDGE ( 'NONE', *, *, #270, .F. ) ;
#148 = LINE ( 'NONE', #211, #28 ) ;
#149 = ADVANCED_FACE ( 'NONE', ( #261 ), #232, .T. ) ;
#150 = ORIENTED_EDGE ( 'NONE', *, *, #175, .T. ) ;
#151 = ORIENTED_EDGE ( 'NONE', *, *, #355, .F. ) ;
#152 = DIRECTION ( 'NONE',  ( 0.000000000000000000, 0.000000000000000000, 1.000000000000000000 ) ) ;
#153 = ORIENTED_EDGE ( 'NONE', *, *, #105, .F. ) ;
#154 = ORIENTED_EDGE ( 'NONE', *, *, #231, .F. ) ;
#155 = VERTEX_POINT ( 'NONE', #70 ) ;
#156 = ORIENTED_EDGE ( 'NONE', *, *, #75, .F. ) ;
#157 = DATE_AND_TIME ( #369, #100 ) ;
#158 = TOROIDAL_SURFACE ( 'NONE', #206, 3.500000000000000444, 0.5000000000000000000 ) ;
#159 = ORIENTED_EDGE ( 'NONE', *, *, #330, .T. ) ;
#160 = DIRECTION ( 'NONE',  ( 1.000000000000000000, 0.000000000000000000, 0.000000000000000000 ) ) ;
#161 = AXIS2_PLACEMENT_3D ( 'NONE', #8, #12, #242 ) ;
#162 = VECTOR ( 'NONE', #326, 1000.000000000000000 ) ;
#163 = ADVANCED_FACE ( 'NONE', ( #34, #297 ), #290, .T. ) ;
#164 = CARTESIAN_POINT ( 'NONE',  ( -6.000000000000000888, 0.000000000000000000, 0.000000000000000000 ) ) ;
#165 = DIRECTION ( 'NONE',  ( -1.000000000000000000, 0.000000000000000000, 0.000000000000000000 ) ) ;
#166 = VERTEX_POINT ( 'NONE', #257 ) ;
#167 = DESIGN_CONTEXT ( 'detailed design', #145, 'design' ) ;
#168 = CARTESIAN_POINT ( 'NONE',  ( -3.000000000000000444, 0.000000000000000000, 180.0000000000000000 ) ) ;
#169 = ORIENTED_EDGE ( 'NONE', *, *, #75, .T. ) ;
#170 = EDGE_CURVE ( 'NONE', #166, #325, #62, .T. ) ;
#171 = AXIS2_PLACEMENT_3D ( 'NONE', #182, #318, #42 ) ;
#172 = DIRECTION ( 'NONE',  ( 0.000000000000000000, 0.000000000000000000, 1.000000000000000000 ) ) ;
#173 = CARTESIAN_POINT ( 'NONE',  ( 0.000000000000000000, 0.000000000000000000, 5.000000000000000000 ) ) ;
#174 = FACE_BOUND ( 'NONE', #10, .T. ) ;
#175 = EDGE_CURVE ( 'NONE', #325, #155, #376, .T. ) ;
#176 = DIRECTION ( 'NONE',  ( 0.000000000000000000, 0.000000000000000000, 1.000000000000000000 ) ) ;
#177 = CIRCLE ( 'NONE', #312, 0.5000000000000004441 ) ;
#178 = DIRECTION ( 'NONE',  ( -1.000000000000000000, 0.000000000000000000, 0.000000000000000000 ) ) ;
#179 = VECTOR ( 'NONE', #29, 1000.000000000000000 ) ;
#180 = EDGE_CURVE ( 'NONE', #336, #183, #137, .T. ) ;
#181 = PRODUCT ( '36db', '36db', '', ( #217 ) ) ;
#182 = CARTESIAN_POINT ( 'NONE',  ( 0.000000000000000000, 0.000000000000000000, 5.500000000000005329 ) ) ;
#183 = VERTEX_POINT ( 'NONE', #90 ) ;
#184 = ORIENTED_EDGE ( 'NONE', *, *, #170, .F. ) ;
#185 = ORIENTED_EDGE ( 'NONE', *, *, #132, .T. ) ;
#186 = MANIFOLD_SOLID_BREP ( 'Odebrat vysunutím3', #9 ) ;
#187 = DIRECTION ( 'NONE',  ( -0.000000000000000000, -0.000000000000000000, -1.000000000000000000 ) ) ;
#188 = DIRECTION ( 'NONE',  ( 1.000000000000000000, 0.000000000000000000, 0.000000000000000000 ) ) ;
#189 = CARTESIAN_POINT ( 'NONE',  ( 6.000000000000000888, 7.347880794884120722E-16, 5.000000000000000000 ) ) ;
#190 = DIRECTION ( 'NONE',  ( 0.000000000000000000, 0.000000000000000000, 1.000000000000000000 ) ) ;
#191 = COORDINATED_UNIVERSAL_TIME_OFFSET ( 1, 0, .AHEAD. ) ;
#192 = DIRECTION ( 'NONE',  ( 0.000000000000000000, 0.000000000000000000, 1.000000000000000000 ) ) ;
#193 = CARTESIAN_POINT ( 'NONE',  ( 3.000000000000000444, 3.673940397442060361E-16, 180.0000000000000000 ) ) ;
#194 = PERSON_AND_ORGANIZATION ( #15, #20 ) ;
#195 = CARTESIAN_POINT ( 'NONE',  ( 0.000000000000000000, 0.000000000000000000, 5.500000000000005329 ) ) ;
#196 = AXIS2_PLACEMENT_3D ( 'NONE', #109, #187, #280 ) ;
#197 = APPROVAL_ROLE ( '' ) ;
#198 = CALENDAR_DATE ( 2022, 8, 7 ) ;
#199 = ADVANCED_FACE ( 'NONE', ( #174, #204 ), #294, .T. ) ;
#200 = CARTESIAN_POINT ( 'NONE',  ( 0.000000000000000000, 0.000000000000000000, 5.000000000000000000 ) ) ;
#201 = DATE_AND_TIME ( #339, #6 ) ;
#202 = LOCAL_TIME ( 17, 35, 51.00000000000000000, #262 ) ;
#203 = DIRECTION ( 'NONE',  ( 1.000000000000000000, 0.000000000000000000, 0.000000000000000000 ) ) ;
#204 = FACE_OUTER_BOUND ( 'NONE', #214, .T. ) ;
#205 = EDGE_CURVE ( 'NONE', #155, #366, #254, .T. ) ;
#206 = AXIS2_PLACEMENT_3D ( 'NONE', #195, #190, #311 ) ;
#207 = DIRECTION ( 'NONE',  ( 1.000000000000000000, 0.000000000000000000, 0.000000000000000000 ) ) ;
#208 = AXIS2_PLACEMENT_3D ( 'NONE', #324, #51, #354 ) ;
#209 = CARTESIAN_POINT ( 'NONE',  ( -3.000000000000000444, 0.000000000000000000, 5.500000000000005329 ) ) ;
#210 = LOCAL_TIME ( 17, 35, 51.00000000000000000, #374 ) ;
#211 = CARTESIAN_POINT ( 'NONE',  ( -2.000000000000000000, 0.000000000000000000, 180.0000000000000000 ) ) ;
#212 = CARTESIAN_POINT ( 'NONE',  ( 0.000000000000000000, 0.000000000000000000, 180.0000000000000000 ) ) ;
#213 = CC_DESIGN_PERSON_AND_ORGANIZATION_ASSIGNMENT ( #372, #31, ( #72 ) ) ;
#214 = EDGE_LOOP ( 'NONE', ( #350, #274 ) ) ;
#215 = CIRCLE ( 'NONE', #107, 3.000000000000000444 ) ;
#216 = EDGE_CURVE ( 'NONE', #325, #166, #271, .T. ) ;
#217 = MECHANICAL_CONTEXT ( 'NONE', #342, 'mechanical' ) ;
#218 = CARTESIAN_POINT ( 'NONE',  ( 0.000000000000000000, 0.000000000000000000, 0.000000000000000000 ) ) ;
#219 =( NAMED_UNIT ( * ) SI_UNIT ( $, .STERADIAN. ) SOLID_ANGLE_UNIT ( ) );
#220 = FACE_OUTER_BOUND ( 'NONE', #379, .T. ) ;
#221 = TOROIDAL_SURFACE ( 'NONE', #171, 3.500000000000000444, 0.5000000000000000000 ) ;
#222 = DIRECTION ( 'NONE',  ( 0.000000000000000000, 0.000000000000000000, 1.000000000000000000 ) ) ;
#223 = CARTESIAN_POINT ( 'NONE',  ( -6.000000000000000888, 0.000000000000000000, 5.000000000000000000 ) ) ;
#224 = AXIS2_PLACEMENT_3D ( 'NONE', #115, #108, #160 ) ;
#225 = UNCERTAINTY_MEASURE_WITH_UNIT (LENGTH_MEASURE( 1.000000000000000082E-05 ), #360, 'distance_accuracy_value', 'NONE');
#226 = DATE_AND_TIME ( #198, #378 ) ;
#227 = PLANE ( 'NONE',  #364 ) ;
#228 = SHAPE_DEFINITION_REPRESENTATION ( #357, #371 ) ;
#229 = CARTESIAN_POINT ( 'NONE',  ( 0.000000000000000000, 0.000000000000000000, 180.0000000000000000 ) ) ;
#230 = ORIENTED_EDGE ( 'NONE', *, *, #41, .T. ) ;
#231 = EDGE_CURVE ( 'NONE', #77, #336, #148, .T. ) ;
#232 = CYLINDRICAL_SURFACE ( 'NONE', #141, 3.000000000000000444 ) ;
#233 = CIRCLE ( 'NONE', #332, 6.000000000000000888 ) ;
#234 = APPROVAL_ROLE ( '' ) ;
#235 = APPROVAL_PERSON_ORGANIZATION ( #89, #252, #197 ) ;
#236 = DIRECTION ( 'NONE',  ( 1.224646799147353207E-16, 1.000000000000000000, -0.000000000000000000 ) ) ;
#237 = CARTESIAN_POINT ( 'NONE',  ( 3.500000000000000444, 0.000000000000000000, 5.500000000000005329 ) ) ;
#238 = ORIENTED_EDGE ( 'NONE', *, *, #349, .F. ) ;
#239 = VECTOR ( 'NONE', #61, 1000.000000000000000 ) ;
#240 = FACE_OUTER_BOUND ( 'NONE', #308, .T. ) ;
#241 = CIRCLE ( 'NONE', #11, 6.000000000000000888 ) ;
#242 = DIRECTION ( 'NONE',  ( 1.000000000000000000, 0.000000000000000000, 0.000000000000000000 ) ) ;
#243 = ADVANCED_FACE ( 'NONE', ( #299 ), #126, .T. ) ;
#244 = FACE_OUTER_BOUND ( 'NONE', #300, .T. ) ;
#245 = ORIENTED_EDGE ( 'NONE', *, *, #1, .T. ) ;
#246 = AXIS2_PLACEMENT_3D ( 'NONE', #84, #58, #110 ) ;
#247 = ADVANCED_FACE ( 'NONE', ( #240 ), #102, .F. ) ;
#248 = FACE_OUTER_BOUND ( 'NONE', #315, .T. ) ;
#249 = PRODUCT_DEFINITION_FORMATION_WITH_SPECIFIED_SOURCE ( 'LIBOVOLNÝ', '', #181, .NOT_KNOWN. ) ;
#250 = ORIENTED_EDGE ( 'NONE', *, *, #349, .T. ) ;
#251 = CARTESIAN_POINT ( 'NONE',  ( 2.000000000000000000, 2.449293598294705921E-16, 180.0000000000000000 ) ) ;
#252 = APPROVAL ( #139, 'NEURÈENÝ' ) ;
#253 = ORIENTED_EDGE ( 'NONE', *, *, #317, .F. ) ;
#254 = CIRCLE ( 'NONE', #322, 3.500000000000000444 ) ;
#255 = APPROVAL_ROLE ( '' ) ;
#256 = COORDINATED_UNIVERSAL_TIME_OFFSET ( 1, 0, .AHEAD. ) ;
#257 = CARTESIAN_POINT ( 'NONE',  ( 3.000000000000000444, 3.673940397442060361E-16, 5.500000000000005329 ) ) ;
#258 = DIRECTION ( 'NONE',  ( 1.000000000000000000, 0.000000000000000000, 0.000000000000000000 ) ) ;
#259 = ORIENTED_EDGE ( 'NONE', *, *, #132, .F. ) ;
#260 = CC_DESIGN_APPROVAL ( #49, ( #249 ) ) ;
#261 = FACE_OUTER_BOUND ( 'NONE', #273, .T. ) ;
#262 = COORDINATED_UNIVERSAL_TIME_OFFSET ( 1, 0, .AHEAD. ) ;
#263 = DIRECTION ( 'NONE',  ( 0.000000000000000000, 0.000000000000000000, 1.000000000000000000 ) ) ;
#264 = AXIS2_PLACEMENT_3D ( 'NONE', #17, #370, #304 ) ;
#265 = ORIENTED_EDGE ( 'NONE', *, *, #180, .T. ) ;
#266 = DIRECTION ( 'NONE',  ( 0.000000000000000000, 0.000000000000000000, 1.000000000000000000 ) ) ;
#267 = CIRCLE ( 'NONE', #123, 3.000000000000000444 ) ;
#268 = VECTOR ( 'NONE', #22, 1000.000000000000000 ) ;
#269 = ORIENTED_EDGE ( 'NONE', *, *, #307, .T. ) ;
#270 = EDGE_CURVE ( 'NONE', #106, #361, #241, .T. ) ;
#271 = CIRCLE ( 'NONE', #161, 3.000000000000000444 ) ;
#272 = CC_DESIGN_SECURITY_CLASSIFICATION ( #72, ( #249 ) ) ;
#273 = EDGE_LOOP ( 'NONE', ( #253, #40, #320, #13 ) ) ;
#274 = ORIENTED_EDGE ( 'NONE', *, *, #317, .T. ) ;
#275 = CARTESIAN_POINT ( 'NONE',  ( 0.000000000000000000, 0.000000000000000000, 180.0000000000000000 ) ) ;
#276 = EDGE_CURVE ( 'NONE', #85, #46, #267, .T. ) ;
#277 = FACE_OUTER_BOUND ( 'NONE', #48, .T. ) ;
#278 = DIRECTION ( 'NONE',  ( 1.000000000000000000, 0.000000000000000000, 0.000000000000000000 ) ) ;
#279 = AXIS2_PLACEMENT_3D ( 'NONE', #36, #263, #346 ) ;
#280 = DIRECTION ( 'NONE',  ( 1.000000000000000000, 0.000000000000000000, 0.000000000000000000 ) ) ;
#281 = CARTESIAN_POINT ( 'NONE',  ( 2.000000000000000000, 2.449293598294705921E-16, 180.0000000000000000 ) ) ;
#282 = CC_DESIGN_PERSON_AND_ORGANIZATION_ASSIGNMENT ( #380, #310, ( #249 ) ) ;
#283 = CARTESIAN_POINT ( 'NONE',  ( 3.500000000000000444, 0.000000000000000000, 5.000000000000002665 ) ) ;
#284 = DIRECTION ( 'NONE',  ( 0.000000000000000000, 0.000000000000000000, 1.000000000000000000 ) ) ;
#285 = CC_DESIGN_APPROVAL ( #252, ( #72 ) ) ;
#286 = SECURITY_CLASSIFICATION_LEVEL ( 'unclassified' ) ;
#287 = CARTESIAN_POINT ( 'NONE',  ( 0.000000000000000000, 0.000000000000000000, 5.000000000000000000 ) ) ;
#288 = APPROVAL_DATE_TIME ( #64, #252 ) ;
#289 = ADVANCED_FACE ( 'NONE', ( #244 ), #221, .F. ) ;
#290 = PLANE ( 'NONE',  #71 ) ;
#291 = CALENDAR_DATE ( 2022, 8, 7 ) ;
#292 = DIRECTION ( 'NONE',  ( 1.000000000000000000, 0.000000000000000000, 0.000000000000000000 ) ) ;
#293 = AXIS2_PLACEMENT_3D ( 'NONE', #373, #266, #258 ) ;
#294 = PLANE ( 'NONE',  #279 ) ;
#295 = PRODUCT_DEFINITION ( 'NEZNÁMÝ', '', #249, #167 ) ;
#296 = ORIENTED_EDGE ( 'NONE', *, *, #216, .F. ) ;
#297 = FACE_OUTER_BOUND ( 'NONE', #144, .T. ) ;
#298 = AXIS2_PLACEMENT_3D ( 'NONE', #218, #222, #188 ) ;
#299 = FACE_OUTER_BOUND ( 'NONE', #329, .T. ) ;
#300 = EDGE_LOOP ( 'NONE', ( #296, #150, #151, #104 ) ) ;
#301 = PRODUCT_RELATED_PRODUCT_CATEGORY ( 'detail', '', ( #181 ) ) ;
#302 = EDGE_LOOP ( 'NONE', ( #153, #73, #52, #78 ) ) ;
#303 = ORIENTED_EDGE ( 'NONE', *, *, #355, .T. ) ;
#304 = DIRECTION ( 'NONE',  ( -1.000000000000000000, 0.000000000000000000, 0.000000000000000000 ) ) ;
#305 = DIRECTION ( 'NONE',  ( 0.000000000000000000, 0.000000000000000000, -1.000000000000000000 ) ) ;
#306 = LINE ( 'NONE', #223, #239 ) ;
#307 = EDGE_CURVE ( 'NONE', #77, #35, #68, .T. ) ;
#308 = EDGE_LOOP ( 'NONE', ( #156, #323, #358, #265 ) ) ;
#309 = CARTESIAN_POINT ( 'NONE',  ( 0.000000000000000000, 0.000000000000000000, 180.0000000000000000 ) ) ;
#310 = PERSON_AND_ORGANIZATION_ROLE ( 'design_supplier' ) ;
#311 = DIRECTION ( 'NONE',  ( 1.000000000000000000, 0.000000000000000000, 0.000000000000000000 ) ) ;
#312 = AXIS2_PLACEMENT_3D ( 'NONE', #237, #98, #351 ) ;
#313 = CALENDAR_DATE ( 2022, 8, 7 ) ;
#314 = CYLINDRICAL_SURFACE ( 'NONE', #24, 6.000000000000000888 ) ;
#315 = EDGE_LOOP ( 'NONE', ( #113, #184, #159, #143 ) ) ;
#316 = DATE_TIME_ROLE ( 'classification_date' ) ;
#317 = EDGE_CURVE ( 'NONE', #46, #85, #215, .T. ) ;
#318 = DIRECTION ( 'NONE',  ( 0.000000000000000000, 0.000000000000000000, 1.000000000000000000 ) ) ;
#319 = CARTESIAN_POINT ( 'NONE',  ( 0.000000000000000000, 0.000000000000000000, 180.0000000000000000 ) ) ;
#320 = ORIENTED_EDGE ( 'NONE', *, *, #170, .T. ) ;
#321 = CC_DESIGN_DATE_AND_TIME_ASSIGNMENT ( #226, #316, ( #72 ) ) ;
#322 = AXIS2_PLACEMENT_3D ( 'NONE', #63, #95, #203 ) ;
#323 = ORIENTED_EDGE ( 'NONE', *, *, #21, .T. ) ;
#324 = CARTESIAN_POINT ( 'NONE',  ( 0.000000000000000000, 0.000000000000000000, 5.000000000000000000 ) ) ;
#325 = VERTEX_POINT ( 'NONE', #209 ) ;
#326 = DIRECTION ( 'NONE',  ( -0.000000000000000000, -0.000000000000000000, -1.000000000000000000 ) ) ;
#327 = CIRCLE ( 'NONE', #196, 3.500000000000000444 ) ;
#328 = CYLINDRICAL_SURFACE ( 'NONE', #57, 2.000000000000000000 ) ;
#329 = EDGE_LOOP ( 'NONE', ( #147, #250, #245, #129 ) ) ;
#330 = EDGE_CURVE ( 'NONE', #166, #366, #177, .T. ) ;
#331 = PERSON_AND_ORGANIZATION ( #15, #20 ) ;
#332 = AXIS2_PLACEMENT_3D ( 'NONE', #173, #172, #292 ) ;
#333 =( GEOMETRIC_REPRESENTATION_CONTEXT ( 3 ) GLOBAL_UNCERTAINTY_ASSIGNED_CONTEXT ( ( #225 ) ) GLOBAL_UNIT_ASSIGNED_CONTEXT ( ( #360, #367, #219 ) ) REPRESENTATION_CONTEXT ( 'NONE', 'WORKASPACE' ) );
#334 = PERSON_AND_ORGANIZATION ( #15, #20 ) ;
#335 = ORIENTED_EDGE ( 'NONE', *, *, #41, .F. ) ;
#336 = VERTEX_POINT ( 'NONE', #136 ) ;
#337 = PERSON_AND_ORGANIZATION ( #15, #20 ) ;
#338 = CARTESIAN_POINT ( 'NONE',  ( -2.000000000000000000, 0.000000000000000000, 180.0000000000000000 ) ) ;
#339 = CALENDAR_DATE ( 2022, 8, 7 ) ;
#340 = DIRECTION ( 'NONE',  ( -1.000000000000000000, 0.000000000000000000, 0.000000000000000000 ) ) ;
#341 = DIRECTION ( 'NONE',  ( -0.000000000000000000, -0.000000000000000000, -1.000000000000000000 ) ) ;
#342 = APPLICATION_CONTEXT ( 'configuration controlled 3d designs of mechanical parts and assemblies' ) ;
#343 = PERSON_AND_ORGANIZATION_ROLE ( 'creator' ) ;
#344 = CARTESIAN_POINT ( 'NONE',  ( -3.000000000000000444, 0.000000000000000000, 180.0000000000000000 ) ) ;
#345 = ADVANCED_FACE ( 'NONE', ( #277 ), #328, .F. ) ;
#346 = DIRECTION ( 'NONE',  ( 1.000000000000000000, 0.000000000000000000, -0.000000000000000000 ) ) ;
#347 = ORIENTED_EDGE ( 'NONE', *, *, #270, .T. ) ;
#348 = CARTESIAN_POINT ( 'NONE',  ( 0.000000000000000000, 0.000000000000000000, 5.000000000000000000 ) ) ;
#349 = EDGE_CURVE ( 'NONE', #106, #127, #79, .T. ) ;
#350 = ORIENTED_EDGE ( 'NONE', *, *, #276, .T. ) ;
#351 = DIRECTION ( 'NONE',  ( 0.000000000000000000, 0.000000000000000000, -1.000000000000000000 ) ) ;
#352 = ORIENTED_EDGE ( 'NONE', *, *, #180, .F. ) ;
#353 = APPROVAL_PERSON_ORGANIZATION ( #331, #117, #255 ) ;
#354 = DIRECTION ( 'NONE',  ( -1.000000000000000000, 0.000000000000000000, 0.000000000000000000 ) ) ;
#355 = EDGE_CURVE ( 'NONE', #366, #155, #327, .T. ) ;
#356 = DIRECTION ( 'NONE',  ( 1.000000000000000000, 0.000000000000000000, 0.000000000000000000 ) ) ;
#357 = PRODUCT_DEFINITION_SHAPE ( 'NONE', 'NONE',  #295 ) ;
#358 = ORIENTED_EDGE ( 'NONE', *, *, #231, .T. ) ;
#359 = ORIENTED_EDGE ( 'NONE', *, *, #26, .T. ) ;
#360 =( LENGTH_UNIT ( ) NAMED_UNIT ( * ) SI_UNIT ( .MILLI., .METRE. ) );
#361 = VERTEX_POINT ( 'NONE', #365 ) ;
#362 = CARTESIAN_POINT ( 'NONE',  ( 0.000000000000000000, 0.000000000000000000, 0.000000000000000000 ) ) ;
#363 = CC_DESIGN_PERSON_AND_ORGANIZATION_ASSIGNMENT ( #194, #343, ( #295 ) ) ;
#364 = AXIS2_PLACEMENT_3D ( 'NONE', #140, #65, #381 ) ;
#365 = CARTESIAN_POINT ( 'NONE',  ( -6.000000000000000888, 0.000000000000000000, 5.000000000000000000 ) ) ;
#366 = VERTEX_POINT ( 'NONE', #283 ) ;
#367 =( NAMED_UNIT ( * ) PLANE_ANGLE_UNIT ( ) SI_UNIT ( $, .RADIAN. ) );
#368 = CYLINDRICAL_SURFACE ( 'NONE', #264, 3.000000000000000444 ) ;
#369 = CALENDAR_DATE ( 2022, 8, 7 ) ;
#370 = DIRECTION ( 'NONE',  ( -0.000000000000000000, -0.000000000000000000, -1.000000000000000000 ) ) ;
#371 = ADVANCED_BREP_SHAPE_REPRESENTATION ( '36db', ( #186, #30 ), #333 ) ;
#372 = PERSON_AND_ORGANIZATION ( #15, #20 ) ;
#373 = CARTESIAN_POINT ( 'NONE',  ( 0.000000000000000000, 0.000000000000000000, 5.500000000000005329 ) ) ;
#374 = COORDINATED_UNIVERSAL_TIME_OFFSET ( 1, 0, .AHEAD. ) ;
#375 = DIRECTION ( 'NONE',  ( -1.000000000000000000, 0.000000000000000000, 0.000000000000000000 ) ) ;
#376 = CIRCLE ( 'NONE', #18, 0.4999999999999995559 ) ;
#377 = APPROVAL_PERSON_ORGANIZATION ( #92, #49, #234 ) ;
#378 = LOCAL_TIME ( 17, 35, 51.00000000000000000, #256 ) ;
#379 = EDGE_LOOP ( 'NONE', ( #238, #259, #80, #359 ) ) ;
#380 = PERSON_AND_ORGANIZATION ( #15, #20 ) ;
#381 = DIRECTION ( 'NONE',  ( 1.000000000000000000, 0.000000000000000000, -0.000000000000000000 ) ) ;
ENDSEC;
END-ISO-10303-21;
