ISO-10303-21;
HEADER;
FILE_DESCRIPTION (( 'STEP AP203' ),
    '1' );
FILE_NAME ('5674.STEP',
    '2022-07-08T15:11:18',
    ( '' ),
    ( '' ),
    'SwSTEP 2.0',
    'SolidWorks 2019',
    '' );
FILE_SCHEMA (( 'CONFIG_CONTROL_DESIGN' ));
ENDSEC;

DATA;
#1 = DIRECTION ( 'NONE',  ( 1.000000000000000000, 0.000000000000000000, 0.000000000000000000 ) ) ;
#2 = DIRECTION ( 'NONE',  ( 1.000000000000000000, 0.000000000000000000, -0.000000000000000000 ) ) ;
#3 = EDGE_LOOP ( 'NONE', ( #162, #253, #229, #167 ) ) ;
#4 = CIRCLE ( 'NONE', #182, 10.00000000000000000 ) ;
#5 = CARTESIAN_POINT ( 'NONE',  ( 0.000000000000000000, 0.000000000000000000, 607.0000000000000000 ) ) ;
#6 = ORIENTED_EDGE ( 'NONE', *, *, #100, .F. ) ;
#7 =( NAMED_UNIT ( * ) PLANE_ANGLE_UNIT ( ) SI_UNIT ( $, .RADIAN. ) );
#8 = EDGE_CURVE ( 'NONE', #89, #225, #257, .T. ) ;
#9 = ORIENTED_EDGE ( 'NONE', *, *, #248, .F. ) ;
#10 = PERSON_AND_ORGANIZATION ( #251, #237 ) ;
#11 = CARTESIAN_POINT ( 'NONE',  ( 2.500000000000000000, 3.061616997868383141E-16, 607.0000000000000000 ) ) ;
#12 = DATE_AND_TIME ( #154, #269 ) ;
#13 = PERSON_AND_ORGANIZATION ( #251, #237 ) ;
#14 = DATE_AND_TIME ( #329, #103 ) ;
#15 = SHAPE_DEFINITION_REPRESENTATION ( #377, #232 ) ;
#16 = CARTESIAN_POINT ( 'NONE',  ( -6.000000000000000888, 0.000000000000000000, 607.0000000000000000 ) ) ;
#17 = EDGE_LOOP ( 'NONE', ( #177, #24 ) ) ;
#18 = DIRECTION ( 'NONE',  ( 0.000000000000000000, 0.000000000000000000, 1.000000000000000000 ) ) ;
#19 = CIRCLE ( 'NONE', #268, 2.500000000000000000 ) ;
#20 = ORIENTED_EDGE ( 'NONE', *, *, #243, .F. ) ;
#21 = CIRCLE ( 'NONE', #285, 10.00000000000000000 ) ;
#22 = LINE ( 'NONE', #79, #314 ) ;
#23 = CARTESIAN_POINT ( 'NONE',  ( 0.000000000000000000, 0.000000000000000000, 607.0000000000000000 ) ) ;
#24 = ORIENTED_EDGE ( 'NONE', *, *, #375, .F. ) ;
#25 = DIRECTION ( 'NONE',  ( 1.000000000000000000, 0.000000000000000000, 0.000000000000000000 ) ) ;
#26 = VERTEX_POINT ( 'NONE', #323 ) ;
#27 = DIRECTION ( 'NONE',  ( 0.000000000000000000, 0.000000000000000000, 1.000000000000000000 ) ) ;
#28 = PRODUCT_RELATED_PRODUCT_CATEGORY ( 'detail', '', ( #44 ) ) ;
#29 = CYLINDRICAL_SURFACE ( 'NONE', #249, 2.500000000000000000 ) ;
#30 = ADVANCED_FACE ( 'NONE', ( #56 ), #180, .T. ) ;
#31 = DIRECTION ( 'NONE',  ( 0.000000000000000000, 0.000000000000000000, 1.000000000000000000 ) ) ;
#32 = CC_DESIGN_APPROVAL ( #70, ( #263 ) ) ;
#33 = ORIENTED_EDGE ( 'NONE', *, *, #178, .T. ) ;
#34 = AXIS2_PLACEMENT_3D ( 'NONE', #247, #305, #367 ) ;
#35 = EDGE_LOOP ( 'NONE', ( #93, #9, #91, #290 ) ) ;
#36 = AXIS2_PLACEMENT_3D ( 'NONE', #333, #281, #279 ) ;
#37 = PERSON_AND_ORGANIZATION_ROLE ( 'creator' ) ;
#38 = AXIS2_PLACEMENT_3D ( 'NONE', #141, #83, #144 ) ;
#39 = LINE ( 'NONE', #11, #82 ) ;
#40 = ADVANCED_FACE ( 'NONE', ( #148, #85 ), #199, .T. ) ;
#41 = DATE_AND_TIME ( #64, #380 ) ;
#42 = CARTESIAN_POINT ( 'NONE',  ( 6.000000000000000888, 7.347880794884120722E-16, 7.499999999999951150 ) ) ;
#43 = SECURITY_CLASSIFICATION_LEVEL ( 'unclassified' ) ;
#44 = PRODUCT ( '5674', '5674', '', ( #92 ) ) ;
#45 = ADVANCED_FACE ( 'NONE', ( #293 ), #29, .F. ) ;
#46 = CIRCLE ( 'NONE', #36, 0.5000000000000004441 ) ;
#47 = DIRECTION ( 'NONE',  ( 0.000000000000000000, 0.000000000000000000, -1.000000000000000000 ) ) ;
#48 = VERTEX_POINT ( 'NONE', #42 ) ;
#49 = DIRECTION ( 'NONE',  ( 0.000000000000000000, 0.000000000000000000, -1.000000000000000000 ) ) ;
#50 = ORIENTED_EDGE ( 'NONE', *, *, #143, .F. ) ;
#51 = CC_DESIGN_PERSON_AND_ORGANIZATION_ASSIGNMENT ( #304, #278, ( #95 ) ) ;
#52 = EDGE_LOOP ( 'NONE', ( #190, #33, #222, #170 ) ) ;
#53 = ORIENTED_EDGE ( 'NONE', *, *, #106, .F. ) ;
#54 = CARTESIAN_POINT ( 'NONE',  ( 0.000000000000000000, 0.000000000000000000, 7.000000000000000000 ) ) ;
#55 = DIRECTION ( 'NONE',  ( 0.000000000000000000, 0.000000000000000000, 1.000000000000000000 ) ) ;
#56 = FACE_OUTER_BOUND ( 'NONE', #35, .T. ) ;
#57 = CARTESIAN_POINT ( 'NONE',  ( 2.500000000000000000, 3.061616997868383141E-16, 607.0000000000000000 ) ) ;
#58 = DIRECTION ( 'NONE',  ( 0.000000000000000000, 0.000000000000000000, 1.000000000000000000 ) ) ;
#59 = DIRECTION ( 'NONE',  ( 0.000000000000000000, 0.000000000000000000, 1.000000000000000000 ) ) ;
#60 = EDGE_LOOP ( 'NONE', ( #325, #73, #113, #20 ) ) ;
#61 = ORIENTED_EDGE ( 'NONE', *, *, #330, .F. ) ;
#62 = PERSON_AND_ORGANIZATION ( #251, #237 ) ;
#63 = DIRECTION ( 'NONE',  ( 0.000000000000000000, 0.000000000000000000, 1.000000000000000000 ) ) ;
#64 = CALENDAR_DATE ( 2022, 8, 7 ) ;
#65 = CC_DESIGN_PERSON_AND_ORGANIZATION_ASSIGNMENT ( #332, #102, ( #263 ) ) ;
#66 = CARTESIAN_POINT ( 'NONE',  ( 6.000000000000000888, 7.347880794884120722E-16, 607.0000000000000000 ) ) ;
#67 = AXIS2_PLACEMENT_3D ( 'NONE', #179, #27, #87 ) ;
#68 = CARTESIAN_POINT ( 'NONE',  ( 0.000000000000000000, 0.000000000000000000, 0.000000000000000000 ) ) ;
#69 = ADVANCED_FACE ( 'NONE', ( #215 ), #209, .T. ) ;
#70 = APPROVAL ( #246, 'NEURÈENÝ' ) ;
#71 = CARTESIAN_POINT ( 'NONE',  ( 0.000000000000000000, 0.000000000000000000, 607.0000000000000000 ) ) ;
#72 = APPROVAL_PERSON_ORGANIZATION ( #10, #88, #302 ) ;
#73 = ORIENTED_EDGE ( 'NONE', *, *, #78, .T. ) ;
#74 = ADVANCED_FACE ( 'NONE', ( #336 ), #188, .F. ) ;
#75 = DIRECTION ( 'NONE',  ( 1.000000000000000000, 0.000000000000000000, 0.000000000000000000 ) ) ;
#76 = VERTEX_POINT ( 'NONE', #309 ) ;
#77 = DIRECTION ( 'NONE',  ( 1.000000000000000000, 0.000000000000000000, 0.000000000000000000 ) ) ;
#78 = EDGE_CURVE ( 'NONE', #353, #373, #39, .T. ) ;
#79 = CARTESIAN_POINT ( 'NONE',  ( -10.00000000000000000, 0.000000000000000000, 7.000000000000000000 ) ) ;
#80 = AXIS2_PLACEMENT_3D ( 'NONE', #111, #109, #189 ) ;
#81 = EDGE_LOOP ( 'NONE', ( #115, #142, #317, #347 ) ) ;
#82 = VECTOR ( 'NONE', #47, 1000.000000000000000 ) ;
#83 = DIRECTION ( 'NONE',  ( 0.000000000000000000, 0.000000000000000000, 1.000000000000000000 ) ) ;
#84 = DIRECTION ( 'NONE',  ( 1.000000000000000000, 0.000000000000000000, 0.000000000000000000 ) ) ;
#85 = FACE_OUTER_BOUND ( 'NONE', #379, .T. ) ;
#86 = VECTOR ( 'NONE', #343, 1000.000000000000000 ) ;
#87 = DIRECTION ( 'NONE',  ( 1.000000000000000000, 0.000000000000000000, 0.000000000000000000 ) ) ;
#88 = APPROVAL ( #238, 'NEURÈENÝ' ) ;
#89 = VERTEX_POINT ( 'NONE', #363 ) ;
#90 = DIRECTION ( 'NONE',  ( 1.000000000000000000, 0.000000000000000000, -0.000000000000000000 ) ) ;
#91 = ORIENTED_EDGE ( 'NONE', *, *, #108, .T. ) ;
#92 = MECHANICAL_CONTEXT ( 'NONE', #218, 'mechanical' ) ;
#93 = ORIENTED_EDGE ( 'NONE', *, *, #155, .F. ) ;
#94 = CIRCLE ( 'NONE', #345, 2.500000000000000000 ) ;
#95 = PRODUCT_DEFINITION_FORMATION_WITH_SPECIFIED_SOURCE ( 'LIBOVOLNÝ', '', #44, .NOT_KNOWN. ) ;
#96 = CARTESIAN_POINT ( 'NONE',  ( 0.000000000000000000, 0.000000000000000000, 607.0000000000000000 ) ) ;
#97 = CC_DESIGN_DATE_AND_TIME_ASSIGNMENT ( #152, #364, ( #294 ) ) ;
#98 = PERSON_AND_ORGANIZATION ( #251, #237 ) ;
#99 = APPROVAL_DATE_TIME ( #14, #70 ) ;
#100 = EDGE_CURVE ( 'NONE', #137, #194, #233, .T. ) ;
#101 = DIRECTION ( 'NONE',  ( 1.000000000000000000, 0.000000000000000000, 0.000000000000000000 ) ) ;
#102 = PERSON_AND_ORGANIZATION_ROLE ( 'classification_officer' ) ;
#103 = LOCAL_TIME ( 17, 11, 18.00000000000000000, #241 ) ;
#104 = FACE_OUTER_BOUND ( 'NONE', #339, .T. ) ;
#105 = EDGE_LOOP ( 'NONE', ( #53, #203, #187, #326 ) ) ;
#106 = EDGE_CURVE ( 'NONE', #89, #48, #322, .T. ) ;
#107 = CARTESIAN_POINT ( 'NONE',  ( 10.00000000000000000, 1.224646799147353256E-15, 0.000000000000000000 ) ) ;
#108 = EDGE_CURVE ( 'NONE', #194, #89, #274, .T. ) ;
#109 = DIRECTION ( 'NONE',  ( -0.000000000000000000, -0.000000000000000000, -1.000000000000000000 ) ) ;
#110 = ORIENTED_EDGE ( 'NONE', *, *, #207, .F. ) ;
#111 = CARTESIAN_POINT ( 'NONE',  ( 0.000000000000000000, 0.000000000000000000, 7.000000000000000000 ) ) ;
#112 = ADVANCED_FACE ( 'NONE', ( #158 ), #374, .F. ) ;
#113 = ORIENTED_EDGE ( 'NONE', *, *, #143, .T. ) ;
#114 = AXIS2_PLACEMENT_3D ( 'NONE', #227, #349, #140 ) ;
#115 = ORIENTED_EDGE ( 'NONE', *, *, #78, .F. ) ;
#116 = CYLINDRICAL_SURFACE ( 'NONE', #114, 6.000000000000000888 ) ;
#117 = ORIENTED_EDGE ( 'NONE', *, *, #108, .F. ) ;
#118 = CARTESIAN_POINT ( 'NONE',  ( -10.00000000000000000, 0.000000000000000000, 0.000000000000000000 ) ) ;
#119 = DIRECTION ( 'NONE',  ( -1.000000000000000000, 1.224646799147351482E-16, 0.000000000000000000 ) ) ;
#120 = ORIENTED_EDGE ( 'NONE', *, *, #155, .T. ) ;
#121 = EDGE_CURVE ( 'NONE', #48, #204, #46, .T. ) ;
#122 = COORDINATED_UNIVERSAL_TIME_OFFSET ( 1, 0, .AHEAD. ) ;
#123 = APPLICATION_PROTOCOL_DEFINITION ( 'international standard', 'config_control_design', 1994, #230 ) ;
#124 = MANIFOLD_SOLID_BREP ( 'Odebrat vysunutím3', #149 ) ;
#125 = DIRECTION ( 'NONE',  ( 0.000000000000000000, 0.000000000000000000, 1.000000000000000000 ) ) ;
#126 = LINE ( 'NONE', #244, #235 ) ;
#127 = APPROVAL_DATE_TIME ( #41, #88 ) ;
#128 = CIRCLE ( 'NONE', #198, 2.500000000000000000 ) ;
#129 = DIRECTION ( 'NONE',  ( 0.000000000000000000, 0.000000000000000000, -1.000000000000000000 ) ) ;
#130 = AXIS2_PLACEMENT_3D ( 'NONE', #308, #125, #242 ) ;
#131 = CARTESIAN_POINT ( 'NONE',  ( 6.500000000000000888, 0.000000000000000000, 6.999999999999975131 ) ) ;
#132 = ORIENTED_EDGE ( 'NONE', *, *, #321, .T. ) ;
#133 = CC_DESIGN_PERSON_AND_ORGANIZATION_ASSIGNMENT ( #98, #181, ( #294 ) ) ;
#134 = PLANE ( 'NONE',  #165 ) ;
#135 = EDGE_LOOP ( 'NONE', ( #6, #120, #224, #117 ) ) ;
#136 = LINE ( 'NONE', #258, #172 ) ;
#137 = VERTEX_POINT ( 'NONE', #66 ) ;
#138 = CC_DESIGN_DATE_AND_TIME_ASSIGNMENT ( #12, #362, ( #263 ) ) ;
#139 = EDGE_LOOP ( 'NONE', ( #341, #355 ) ) ;
#140 = DIRECTION ( 'NONE',  ( -1.000000000000000000, 0.000000000000000000, 0.000000000000000000 ) ) ;
#141 = CARTESIAN_POINT ( 'NONE',  ( 0.000000000000000000, 0.000000000000000000, 0.000000000000000000 ) ) ;
#142 = ORIENTED_EDGE ( 'NONE', *, *, #265, .T. ) ;
#143 = EDGE_CURVE ( 'NONE', #373, #262, #94, .T. ) ;
#144 = DIRECTION ( 'NONE',  ( 1.000000000000000000, 0.000000000000000000, 0.000000000000000000 ) ) ;
#145 = CC_DESIGN_PERSON_AND_ORGANIZATION_ASSIGNMENT ( #13, #37, ( #95 ) ) ;
#146 = CARTESIAN_POINT ( 'NONE',  ( 0.000000000000000000, 0.000000000000000000, 7.000000000000000000 ) ) ;
#147 = DIRECTION ( 'NONE',  ( 1.000000000000000000, 0.000000000000000000, 0.000000000000000000 ) ) ;
#148 = FACE_BOUND ( 'NONE', #381, .T. ) ;
#149 = CLOSED_SHELL ( 'NONE', ( #45, #74, #356, #211, #69, #40, #301, #30, #261, #112, #255 ) ) ;
#150 = DESIGN_CONTEXT ( 'detailed design', #230, 'design' ) ;
#151 = APPROVAL_DATE_TIME ( #159, #369 ) ;
#152 = DATE_AND_TIME ( #273, #334 ) ;
#153 = DIRECTION ( 'NONE',  ( -1.000000000000000000, 0.000000000000000000, 0.000000000000000000 ) ) ;
#154 = CALENDAR_DATE ( 2022, 8, 7 ) ;
#155 = EDGE_CURVE ( 'NONE', #137, #48, #126, .T. ) ;
#156 = AXIS2_PLACEMENT_3D ( 'NONE', #236, #63, #239 ) ;
#157 = APPROVAL_ROLE ( '' ) ;
#158 = FACE_OUTER_BOUND ( 'NONE', #3, .T. ) ;
#159 = DATE_AND_TIME ( #234, #219 ) ;
#160 = CIRCLE ( 'NONE', #303, 6.500000000000000888 ) ;
#161 = DIRECTION ( 'NONE',  ( 0.000000000000000000, 0.000000000000000000, 1.000000000000000000 ) ) ;
#162 = ORIENTED_EDGE ( 'NONE', *, *, #8, .F. ) ;
#163 = DIRECTION ( 'NONE',  ( 0.000000000000000000, 0.000000000000000000, 1.000000000000000000 ) ) ;
#164 = ORIENTED_EDGE ( 'NONE', *, *, #197, .T. ) ;
#165 = AXIS2_PLACEMENT_3D ( 'NONE', #256, #161, #90 ) ;
#166 = CARTESIAN_POINT ( 'NONE',  ( 10.00000000000000000, 1.224646799147353256E-15, 7.000000000000000000 ) ) ;
#167 = ORIENTED_EDGE ( 'NONE', *, *, #321, .F. ) ;
#168 = CARTESIAN_POINT ( 'NONE',  ( -6.500000000000000888, 7.960204194457796463E-16, 6.999999999999975131 ) ) ;
#169 = VECTOR ( 'NONE', #277, 1000.000000000000000 ) ;
#170 = ORIENTED_EDGE ( 'NONE', *, *, #197, .F. ) ;
#171 = EDGE_CURVE ( 'NONE', #48, #89, #213, .T. ) ;
#172 = VECTOR ( 'NONE', #311, 1000.000000000000000 ) ;
#173 = DIRECTION ( 'NONE',  ( -0.000000000000000000, -0.000000000000000000, -1.000000000000000000 ) ) ;
#174 = FACE_BOUND ( 'NONE', #259, .T. ) ;
#175 = DIRECTION ( 'NONE',  ( 1.000000000000000000, 0.000000000000000000, -0.000000000000000000 ) ) ;
#176 = DIRECTION ( 'NONE',  ( 1.000000000000000000, 0.000000000000000000, 0.000000000000000000 ) ) ;
#177 = ORIENTED_EDGE ( 'NONE', *, *, #216, .F. ) ;
#178 = EDGE_CURVE ( 'NONE', #26, #201, #223, .T. ) ;
#179 = CARTESIAN_POINT ( 'NONE',  ( 0.000000000000000000, 0.000000000000000000, 0.000000000000000000 ) ) ;
#180 = CYLINDRICAL_SURFACE ( 'NONE', #360, 6.000000000000000888 ) ;
#181 = PERSON_AND_ORGANIZATION_ROLE ( 'creator' ) ;
#182 = AXIS2_PLACEMENT_3D ( 'NONE', #146, #31, #25 ) ;
#183 = DIRECTION ( 'NONE',  ( 0.000000000000000000, 0.000000000000000000, 1.000000000000000000 ) ) ;
#184 = AXIS2_PLACEMENT_3D ( 'NONE', #338, #49, #217 ) ;
#185 = CC_DESIGN_APPROVAL ( #88, ( #294 ) ) ;
#186 = DIRECTION ( 'NONE',  ( 1.000000000000000000, 0.000000000000000000, 0.000000000000000000 ) ) ;
#187 = ORIENTED_EDGE ( 'NONE', *, *, #226, .F. ) ;
#188 = TOROIDAL_SURFACE ( 'NONE', #342, 6.500000000000000888, 0.5000000000000000000 ) ;
#189 = DIRECTION ( 'NONE',  ( -1.000000000000000000, 0.000000000000000000, 0.000000000000000000 ) ) ;
#190 = ORIENTED_EDGE ( 'NONE', *, *, #337, .F. ) ;
#191 = CIRCLE ( 'NONE', #298, 10.00000000000000000 ) ;
#192 = CC_DESIGN_APPROVAL ( #369, ( #95 ) ) ;
#193 = CARTESIAN_POINT ( 'NONE',  ( 0.000000000000000000, 0.000000000000000000, 7.499999999999951150 ) ) ;
#194 = VERTEX_POINT ( 'NONE', #16 ) ;
#195 = FACE_OUTER_BOUND ( 'NONE', #52, .T. ) ;
#196 = DIRECTION ( 'NONE',  ( 1.224646799147353207E-16, 1.000000000000000000, -0.000000000000000000 ) ) ;
#197 = EDGE_CURVE ( 'NONE', #76, #376, #22, .T. ) ;
#198 = AXIS2_PLACEMENT_3D ( 'NONE', #297, #289, #1 ) ;
#199 = PLANE ( 'NONE',  #240 ) ;
#200 = PLANE ( 'NONE',  #346 ) ;
#201 = VERTEX_POINT ( 'NONE', #107 ) ;
#202 = CARTESIAN_POINT ( 'NONE',  ( -2.500000000000000000, 0.000000000000000000, 0.000000000000000000 ) ) ;
#203 = ORIENTED_EDGE ( 'NONE', *, *, #8, .T. ) ;
#204 = VERTEX_POINT ( 'NONE', #131 ) ;
#205 = AXIS2_PLACEMENT_3D ( 'NONE', #5, #59, #84 ) ;
#206 = DIRECTION ( 'NONE',  ( -0.000000000000000000, -0.000000000000000000, -1.000000000000000000 ) ) ;
#207 = EDGE_CURVE ( 'NONE', #262, #373, #19, .T. ) ;
#208 = COORDINATED_UNIVERSAL_TIME_OFFSET ( 1, 0, .AHEAD. ) ;
#209 = CYLINDRICAL_SURFACE ( 'NONE', #34, 10.00000000000000000 ) ;
#210 = PERSON_AND_ORGANIZATION_ROLE ( 'design_owner' ) ;
#211 = ADVANCED_FACE ( 'NONE', ( #195 ), #283, .T. ) ;
#212 = DIRECTION ( 'NONE',  ( 1.000000000000000000, 0.000000000000000000, 0.000000000000000000 ) ) ;
#213 = CIRCLE ( 'NONE', #254, 6.000000000000000888 ) ;
#214 = APPROVAL_PERSON_ORGANIZATION ( #62, #369, #157 ) ;
#215 = FACE_OUTER_BOUND ( 'NONE', #270, .T. ) ;
#216 = EDGE_CURVE ( 'NONE', #376, #201, #191, .T. ) ;
#217 = DIRECTION ( 'NONE',  ( -1.000000000000000000, 0.000000000000000000, 0.000000000000000000 ) ) ;
#218 = APPLICATION_CONTEXT ( 'configuration controlled 3d designs of mechanical parts and assemblies' ) ;
#219 = LOCAL_TIME ( 17, 11, 18.00000000000000000, #208 ) ;
#220 = AXIS2_PLACEMENT_3D ( 'NONE', #96, #183, #101 ) ;
#221 = CARTESIAN_POINT ( 'NONE',  ( 0.000000000000000000, 0.000000000000000000, 0.000000000000000000 ) ) ;
#222 = ORIENTED_EDGE ( 'NONE', *, *, #375, .T. ) ;
#223 = LINE ( 'NONE', #166, #86 ) ;
#224 = ORIENTED_EDGE ( 'NONE', *, *, #171, .T. ) ;
#225 = VERTEX_POINT ( 'NONE', #168 ) ;
#226 = EDGE_CURVE ( 'NONE', #204, #225, #299, .T. ) ;
#227 = CARTESIAN_POINT ( 'NONE',  ( 0.000000000000000000, 0.000000000000000000, 607.0000000000000000 ) ) ;
#228 =( GEOMETRIC_REPRESENTATION_CONTEXT ( 3 ) GLOBAL_UNCERTAINTY_ASSIGNED_CONTEXT ( ( #327 ) ) GLOBAL_UNIT_ASSIGNED_CONTEXT ( ( #231, #7, #292 ) ) REPRESENTATION_CONTEXT ( 'NONE', 'WORKASPACE' ) );
#229 = ORIENTED_EDGE ( 'NONE', *, *, #121, .T. ) ;
#230 = APPLICATION_CONTEXT ( 'configuration controlled 3d designs of mechanical parts and assemblies' ) ;
#231 =( LENGTH_UNIT ( ) NAMED_UNIT ( * ) SI_UNIT ( .MILLI., .METRE. ) );
#232 = ADVANCED_BREP_SHAPE_REPRESENTATION ( '5674', ( #124, #38 ), #228 ) ;
#233 = CIRCLE ( 'NONE', #220, 6.000000000000000888 ) ;
#234 = CALENDAR_DATE ( 2022, 8, 7 ) ;
#235 = VECTOR ( 'NONE', #365, 1000.000000000000000 ) ;
#236 = CARTESIAN_POINT ( 'NONE',  ( 0.000000000000000000, 0.000000000000000000, 7.499999999999951150 ) ) ;
#237 = ORGANIZATION ( 'NEURÈENÝ', 'NEURÈENÝ', '' ) ;
#238 = APPROVAL_STATUS ( 'not_yet_approved' ) ;
#239 = DIRECTION ( 'NONE',  ( 1.000000000000000000, 0.000000000000000000, 0.000000000000000000 ) ) ;
#240 = AXIS2_PLACEMENT_3D ( 'NONE', #272, #58, #175 ) ;
#241 = COORDINATED_UNIVERSAL_TIME_OFFSET ( 1, 0, .AHEAD. ) ;
#242 = DIRECTION ( 'NONE',  ( 1.000000000000000000, 0.000000000000000000, 0.000000000000000000 ) ) ;
#243 = EDGE_CURVE ( 'NONE', #315, #262, #136, .T. ) ;
#244 = CARTESIAN_POINT ( 'NONE',  ( 6.000000000000000888, 7.347880794884120722E-16, 607.0000000000000000 ) ) ;
#245 = CC_DESIGN_SECURITY_CLASSIFICATION ( #263, ( #95 ) ) ;
#246 = APPROVAL_STATUS ( 'not_yet_approved' ) ;
#247 = CARTESIAN_POINT ( 'NONE',  ( 0.000000000000000000, 0.000000000000000000, 7.000000000000000000 ) ) ;
#248 = EDGE_CURVE ( 'NONE', #194, #137, #319, .T. ) ;
#249 = AXIS2_PLACEMENT_3D ( 'NONE', #71, #129, #153 ) ;
#250 = CYLINDRICAL_SURFACE ( 'NONE', #184, 2.500000000000000000 ) ;
#251 = PERSON ( 'NEURÈENÝ', 'NEURÈENÝ', 'NEURÈENÝ', ('NEURÈENÝ'), ('NEURÈENÝ'), ('NEURÈENÝ') ) ;
#252 = DIRECTION ( 'NONE',  ( 1.000000000000000000, 0.000000000000000000, 0.000000000000000000 ) ) ;
#253 = ORIENTED_EDGE ( 'NONE', *, *, #171, .F. ) ;
#254 = AXIS2_PLACEMENT_3D ( 'NONE', #193, #163, #75 ) ;
#255 = ADVANCED_FACE ( 'NONE', ( #282 ), #250, .F. ) ;
#256 = CARTESIAN_POINT ( 'NONE',  ( 0.000000000000000000, 0.000000000000000000, 607.0000000000000000 ) ) ;
#257 = CIRCLE ( 'NONE', #310, 0.5000000000000004441 ) ;
#258 = CARTESIAN_POINT ( 'NONE',  ( -2.500000000000000000, 0.000000000000000000, 607.0000000000000000 ) ) ;
#259 = EDGE_LOOP ( 'NONE', ( #110, #50 ) ) ;
#260 = DIRECTION ( 'NONE',  ( -0.000000000000000000, -0.000000000000000000, -1.000000000000000000 ) ) ;
#261 = ADVANCED_FACE ( 'NONE', ( #368, #104 ), #134, .T. ) ;
#262 = VERTEX_POINT ( 'NONE', #202 ) ;
#263 = SECURITY_CLASSIFICATION ( '', '', #43 ) ;
#264 = ORIENTED_EDGE ( 'NONE', *, *, #337, .T. ) ;
#265 = EDGE_CURVE ( 'NONE', #353, #315, #128, .T. ) ;
#266 = CARTESIAN_POINT ( 'NONE',  ( 0.000000000000000000, 0.000000000000000000, 0.000000000000000000 ) ) ;
#267 = FACE_OUTER_BOUND ( 'NONE', #135, .T. ) ;
#268 = AXIS2_PLACEMENT_3D ( 'NONE', #378, #287, #252 ) ;
#269 = LOCAL_TIME ( 17, 11, 18.00000000000000000, #280 ) ;
#270 = EDGE_LOOP ( 'NONE', ( #344, #61, #164, #288 ) ) ;
#271 = CARTESIAN_POINT ( 'NONE',  ( -2.500000000000000000, 0.000000000000000000, 607.0000000000000000 ) ) ;
#272 = CARTESIAN_POINT ( 'NONE',  ( 0.000000000000000000, 0.000000000000000000, 7.000000000000000000 ) ) ;
#273 = CALENDAR_DATE ( 2022, 8, 7 ) ;
#274 = LINE ( 'NONE', #358, #169 ) ;
#275 = APPROVAL_PERSON_ORGANIZATION ( #276, #70, #357 ) ;
#276 = PERSON_AND_ORGANIZATION ( #251, #237 ) ;
#277 = DIRECTION ( 'NONE',  ( -0.000000000000000000, -0.000000000000000000, -1.000000000000000000 ) ) ;
#278 = PERSON_AND_ORGANIZATION_ROLE ( 'design_supplier' ) ;
#279 = DIRECTION ( 'NONE',  ( 0.000000000000000000, 0.000000000000000000, -1.000000000000000000 ) ) ;
#280 = COORDINATED_UNIVERSAL_TIME_OFFSET ( 1, 0, .AHEAD. ) ;
#281 = DIRECTION ( 'NONE',  ( 0.000000000000000000, -1.000000000000000000, 0.000000000000000000 ) ) ;
#282 = FACE_OUTER_BOUND ( 'NONE', #81, .T. ) ;
#283 = CYLINDRICAL_SURFACE ( 'NONE', #80, 10.00000000000000000 ) ;
#284 = ORIENTED_EDGE ( 'NONE', *, *, #226, .T. ) ;
#285 = AXIS2_PLACEMENT_3D ( 'NONE', #324, #55, #147 ) ;
#286 = DIRECTION ( 'NONE',  ( -0.000000000000000000, -0.000000000000000000, -1.000000000000000000 ) ) ;
#287 = DIRECTION ( 'NONE',  ( -0.000000000000000000, -0.000000000000000000, -1.000000000000000000 ) ) ;
#288 = ORIENTED_EDGE ( 'NONE', *, *, #216, .T. ) ;
#289 = DIRECTION ( 'NONE',  ( 0.000000000000000000, 0.000000000000000000, 1.000000000000000000 ) ) ;
#290 = ORIENTED_EDGE ( 'NONE', *, *, #106, .T. ) ;
#291 = DIRECTION ( 'NONE',  ( 0.000000000000000000, 0.000000000000000000, 1.000000000000000000 ) ) ;
#292 =( NAMED_UNIT ( * ) SI_UNIT ( $, .STERADIAN. ) SOLID_ANGLE_UNIT ( ) );
#293 = FACE_OUTER_BOUND ( 'NONE', #60, .T. ) ;
#294 = PRODUCT_DEFINITION ( 'NEZNÁMÝ', '', #95, #150 ) ;
#295 = DIRECTION ( 'NONE',  ( -0.000000000000000000, -0.000000000000000000, -1.000000000000000000 ) ) ;
#296 = ORIENTED_EDGE ( 'NONE', *, *, #248, .T. ) ;
#297 = CARTESIAN_POINT ( 'NONE',  ( 0.000000000000000000, 0.000000000000000000, 607.0000000000000000 ) ) ;
#298 = AXIS2_PLACEMENT_3D ( 'NONE', #221, #316, #77 ) ;
#299 = CIRCLE ( 'NONE', #340, 6.500000000000000888 ) ;
#300 = CARTESIAN_POINT ( 'NONE',  ( 0.000000000000000000, 0.000000000000000000, 607.0000000000000000 ) ) ;
#301 = ADVANCED_FACE ( 'NONE', ( #174, #318 ), #200, .F. ) ;
#302 = APPROVAL_ROLE ( '' ) ;
#303 = AXIS2_PLACEMENT_3D ( 'NONE', #54, #295, #176 ) ;
#304 = PERSON_AND_ORGANIZATION ( #251, #237 ) ;
#305 = DIRECTION ( 'NONE',  ( -0.000000000000000000, -0.000000000000000000, -1.000000000000000000 ) ) ;
#306 = CC_DESIGN_PERSON_AND_ORGANIZATION_ASSIGNMENT ( #320, #210, ( #44 ) ) ;
#307 = COORDINATED_UNIVERSAL_TIME_OFFSET ( 1, 0, .AHEAD. ) ;
#308 = CARTESIAN_POINT ( 'NONE',  ( 0.000000000000000000, 0.000000000000000000, 7.499999999999951150 ) ) ;
#309 = CARTESIAN_POINT ( 'NONE',  ( -10.00000000000000000, 0.000000000000000000, 7.000000000000000000 ) ) ;
#310 = AXIS2_PLACEMENT_3D ( 'NONE', #348, #196, #119 ) ;
#311 = DIRECTION ( 'NONE',  ( 0.000000000000000000, 0.000000000000000000, -1.000000000000000000 ) ) ;
#312 = ORIENTED_EDGE ( 'NONE', *, *, #330, .T. ) ;
#313 = CARTESIAN_POINT ( 'NONE',  ( 0.000000000000000000, 0.000000000000000000, 7.000000000000000000 ) ) ;
#314 = VECTOR ( 'NONE', #260, 1000.000000000000000 ) ;
#315 = VERTEX_POINT ( 'NONE', #271 ) ;
#316 = DIRECTION ( 'NONE',  ( 0.000000000000000000, 0.000000000000000000, 1.000000000000000000 ) ) ;
#317 = ORIENTED_EDGE ( 'NONE', *, *, #243, .T. ) ;
#318 = FACE_OUTER_BOUND ( 'NONE', #17, .T. ) ;
#319 = CIRCLE ( 'NONE', #351, 6.000000000000000888 ) ;
#320 = PERSON_AND_ORGANIZATION ( #251, #237 ) ;
#321 = EDGE_CURVE ( 'NONE', #225, #204, #160, .T. ) ;
#322 = CIRCLE ( 'NONE', #156, 6.000000000000000888 ) ;
#323 = CARTESIAN_POINT ( 'NONE',  ( 10.00000000000000000, 1.224646799147353256E-15, 7.000000000000000000 ) ) ;
#324 = CARTESIAN_POINT ( 'NONE',  ( 0.000000000000000000, 0.000000000000000000, 7.000000000000000000 ) ) ;
#325 = ORIENTED_EDGE ( 'NONE', *, *, #361, .T. ) ;
#326 = ORIENTED_EDGE ( 'NONE', *, *, #121, .F. ) ;
#327 = UNCERTAINTY_MEASURE_WITH_UNIT (LENGTH_MEASURE( 1.000000000000000082E-05 ), #231, 'distance_accuracy_value', 'NONE');
#328 = DIRECTION ( 'NONE',  ( 1.000000000000000000, 0.000000000000000000, 0.000000000000000000 ) ) ;
#329 = CALENDAR_DATE ( 2022, 8, 7 ) ;
#330 = EDGE_CURVE ( 'NONE', #76, #26, #4, .T. ) ;
#331 = CARTESIAN_POINT ( 'NONE',  ( 0.000000000000000000, 0.000000000000000000, 7.499999999999951150 ) ) ;
#332 = PERSON_AND_ORGANIZATION ( #251, #237 ) ;
#333 = CARTESIAN_POINT ( 'NONE',  ( 6.500000000000000888, 0.000000000000000000, 7.499999999999951150 ) ) ;
#334 = LOCAL_TIME ( 17, 11, 18.00000000000000000, #307 ) ;
#335 = DIRECTION ( 'NONE',  ( 0.000000000000000000, 0.000000000000000000, 1.000000000000000000 ) ) ;
#336 = FACE_OUTER_BOUND ( 'NONE', #105, .T. ) ;
#337 = EDGE_CURVE ( 'NONE', #26, #76, #21, .T. ) ;
#338 = CARTESIAN_POINT ( 'NONE',  ( 0.000000000000000000, 0.000000000000000000, 607.0000000000000000 ) ) ;
#339 = EDGE_LOOP ( 'NONE', ( #296, #371 ) ) ;
#340 = AXIS2_PLACEMENT_3D ( 'NONE', #313, #286, #370 ) ;
#341 = ORIENTED_EDGE ( 'NONE', *, *, #361, .F. ) ;
#342 = AXIS2_PLACEMENT_3D ( 'NONE', #331, #335, #212 ) ;
#343 = DIRECTION ( 'NONE',  ( -0.000000000000000000, -0.000000000000000000, -1.000000000000000000 ) ) ;
#344 = ORIENTED_EDGE ( 'NONE', *, *, #178, .F. ) ;
#345 = AXIS2_PLACEMENT_3D ( 'NONE', #68, #206, #328 ) ;
#346 = AXIS2_PLACEMENT_3D ( 'NONE', #266, #291, #2 ) ;
#347 = ORIENTED_EDGE ( 'NONE', *, *, #207, .T. ) ;
#348 = CARTESIAN_POINT ( 'NONE',  ( -6.500000000000000888, 7.960204194457796463E-16, 7.499999999999951150 ) ) ;
#349 = DIRECTION ( 'NONE',  ( -0.000000000000000000, -0.000000000000000000, -1.000000000000000000 ) ) ;
#350 = DIRECTION ( 'NONE',  ( -1.000000000000000000, 0.000000000000000000, 0.000000000000000000 ) ) ;
#351 = AXIS2_PLACEMENT_3D ( 'NONE', #23, #18, #186 ) ;
#352 = CARTESIAN_POINT ( 'NONE',  ( 2.500000000000000000, 3.061616997868383141E-16, 0.000000000000000000 ) ) ;
#353 = VERTEX_POINT ( 'NONE', #57 ) ;
#354 = APPLICATION_PROTOCOL_DEFINITION ( 'international standard', 'config_control_design', 1994, #218 ) ;
#355 = ORIENTED_EDGE ( 'NONE', *, *, #265, .F. ) ;
#356 = ADVANCED_FACE ( 'NONE', ( #267 ), #116, .T. ) ;
#357 = APPROVAL_ROLE ( '' ) ;
#358 = CARTESIAN_POINT ( 'NONE',  ( -6.000000000000000888, 0.000000000000000000, 607.0000000000000000 ) ) ;
#359 = APPROVAL_STATUS ( 'not_yet_approved' ) ;
#360 = AXIS2_PLACEMENT_3D ( 'NONE', #300, #173, #350 ) ;
#361 = EDGE_CURVE ( 'NONE', #315, #353, #366, .T. ) ;
#362 = DATE_TIME_ROLE ( 'classification_date' ) ;
#363 = CARTESIAN_POINT ( 'NONE',  ( -6.000000000000000888, 0.000000000000000000, 7.499999999999951150 ) ) ;
#364 = DATE_TIME_ROLE ( 'creation_date' ) ;
#365 = DIRECTION ( 'NONE',  ( -0.000000000000000000, -0.000000000000000000, -1.000000000000000000 ) ) ;
#366 = CIRCLE ( 'NONE', #205, 2.500000000000000000 ) ;
#367 = DIRECTION ( 'NONE',  ( -1.000000000000000000, 0.000000000000000000, 0.000000000000000000 ) ) ;
#368 = FACE_BOUND ( 'NONE', #139, .T. ) ;
#369 = APPROVAL ( #359, 'NEURÈENÝ' ) ;
#370 = DIRECTION ( 'NONE',  ( 1.000000000000000000, 0.000000000000000000, 0.000000000000000000 ) ) ;
#371 = ORIENTED_EDGE ( 'NONE', *, *, #100, .T. ) ;
#372 = CIRCLE ( 'NONE', #67, 10.00000000000000000 ) ;
#373 = VERTEX_POINT ( 'NONE', #352 ) ;
#374 = TOROIDAL_SURFACE ( 'NONE', #130, 6.500000000000000888, 0.5000000000000000000 ) ;
#375 = EDGE_CURVE ( 'NONE', #201, #376, #372, .T. ) ;
#376 = VERTEX_POINT ( 'NONE', #118 ) ;
#377 = PRODUCT_DEFINITION_SHAPE ( 'NONE', 'NONE',  #294 ) ;
#378 = CARTESIAN_POINT ( 'NONE',  ( 0.000000000000000000, 0.000000000000000000, 0.000000000000000000 ) ) ;
#379 = EDGE_LOOP ( 'NONE', ( #312, #264 ) ) ;
#380 = LOCAL_TIME ( 17, 11, 18.00000000000000000, #122 ) ;
#381 = EDGE_LOOP ( 'NONE', ( #284, #132 ) ) ;
ENDSEC;
END-ISO-10303-21;
