ISO-10303-21;
HEADER;
FILE_DESCRIPTION (( 'STEP AP203' ),
    '1' );
FILE_NAME ('9df9.STEP',
    '2022-07-08T15:41:45',
    ( '' ),
    ( '' ),
    'SwSTEP 2.0',
    'SolidWorks 2019',
    '' );
FILE_SCHEMA (( 'CONFIG_CONTROL_DESIGN' ));
ENDSEC;

DATA;
#1 = AXIS2_PLACEMENT_3D ( 'NONE', #213, #184, #7 ) ;
#2 = CARTESIAN_POINT ( 'NONE',  ( 0.000000000000000000, 0.000000000000000000, 3.300000000000025135 ) ) ;
#3 = CC_DESIGN_APPROVAL ( #359, ( #52 ) ) ;
#4 = EDGE_CURVE ( 'NONE', #353, #321, #352, .T. ) ;
#5 = EDGE_LOOP ( 'NONE', ( #361, #230, #381, #25 ) ) ;
#6 = AXIS2_PLACEMENT_3D ( 'NONE', #155, #15, #279 ) ;
#7 = DIRECTION ( 'NONE',  ( 1.000000000000000000, 0.000000000000000000, 0.000000000000000000 ) ) ;
#8 = DIRECTION ( 'NONE',  ( 0.000000000000000000, 0.000000000000000000, 1.000000000000000000 ) ) ;
#9 = DATE_AND_TIME ( #278, #333 ) ;
#10 = DIRECTION ( 'NONE',  ( 1.000000000000000000, 0.000000000000000000, 0.000000000000000000 ) ) ;
#11 = PERSON_AND_ORGANIZATION_ROLE ( 'design_supplier' ) ;
#12 = LINE ( 'NONE', #163, #128 ) ;
#13 = ORGANIZATION ( 'NEURÈENÝ', 'NEURÈENÝ', '' ) ;
#14 = CARTESIAN_POINT ( 'NONE',  ( 1.600000000000000089, 1.959434878635765230E-16, 303.0000000000000000 ) ) ;
#15 = DIRECTION ( 'NONE',  ( 0.000000000000000000, 0.000000000000000000, 1.000000000000000000 ) ) ;
#16 = MANIFOLD_SOLID_BREP ( 'Odebrat vysunutím3', #112 ) ;
#17 = CARTESIAN_POINT ( 'NONE',  ( 0.000000000000000000, 0.000000000000000000, 3.000000000000000000 ) ) ;
#18 = ORIENTED_EDGE ( 'NONE', *, *, #68, .F. ) ;
#19 = APPROVAL ( #217, 'NEURÈENÝ' ) ;
#20 = FACE_OUTER_BOUND ( 'NONE', #150, .T. ) ;
#21 = ORIENTED_EDGE ( 'NONE', *, *, #42, .F. ) ;
#22 = DIRECTION ( 'NONE',  ( 1.000000000000000000, 0.000000000000000000, -0.000000000000000000 ) ) ;
#23 = CARTESIAN_POINT ( 'NONE',  ( 0.000000000000000000, 0.000000000000000000, 3.000000000000000000 ) ) ;
#24 = PLANE ( 'NONE',  #179 ) ;
#25 = ORIENTED_EDGE ( 'NONE', *, *, #85, .T. ) ;
#26 = PERSON_AND_ORGANIZATION ( #99, #13 ) ;
#27 = CARTESIAN_POINT ( 'NONE',  ( 0.000000000000000000, 0.000000000000000000, 303.0000000000000000 ) ) ;
#28 = LINE ( 'NONE', #60, #77 ) ;
#29 = VERTEX_POINT ( 'NONE', #211 ) ;
#30 = AXIS2_PLACEMENT_3D ( 'NONE', #143, #343, #113 ) ;
#31 = APPLICATION_CONTEXT ( 'configuration controlled 3d designs of mechanical parts and assemblies' ) ;
#32 = VERTEX_POINT ( 'NONE', #56 ) ;
#33 = CARTESIAN_POINT ( 'NONE',  ( 0.000000000000000000, 0.000000000000000000, 303.0000000000000000 ) ) ;
#34 = AXIS2_PLACEMENT_3D ( 'NONE', #311, #101, #104 ) ;
#35 = DATE_TIME_ROLE ( 'classification_date' ) ;
#36 = CARTESIAN_POINT ( 'NONE',  ( 2.500000000000000000, 3.061616997868383141E-16, 303.0000000000000000 ) ) ;
#37 = APPROVAL_DATE_TIME ( #305, #19 ) ;
#38 = CARTESIAN_POINT ( 'NONE',  ( 0.000000000000000000, 0.000000000000000000, 3.000000000000000000 ) ) ;
#39 = PERSON_AND_ORGANIZATION ( #99, #13 ) ;
#40 = DIRECTION ( 'NONE',  ( -0.000000000000000000, -0.000000000000000000, -1.000000000000000000 ) ) ;
#41 = AXIS2_PLACEMENT_3D ( 'NONE', #33, #331, #177 ) ;
#42 = EDGE_CURVE ( 'NONE', #244, #227, #28, .T. ) ;
#43 = CARTESIAN_POINT ( 'NONE',  ( -2.500000000000000000, 0.000000000000000000, 303.0000000000000000 ) ) ;
#44 = CARTESIAN_POINT ( 'NONE',  ( 5.000000000000000000, 6.123233995736766282E-16, 3.000000000000000000 ) ) ;
#45 = CARTESIAN_POINT ( 'NONE',  ( -2.799999999999999822, 3.429011037612589276E-16, 3.000000000000012434 ) ) ;
#46 = CC_DESIGN_PERSON_AND_ORGANIZATION_ASSIGNMENT ( #147, #118, ( #52 ) ) ;
#47 =( GEOMETRIC_REPRESENTATION_CONTEXT ( 3 ) GLOBAL_UNCERTAINTY_ASSIGNED_CONTEXT ( ( #295 ) ) GLOBAL_UNIT_ASSIGNED_CONTEXT ( ( #265, #317, #81 ) ) REPRESENTATION_CONTEXT ( 'NONE', 'WORKASPACE' ) );
#48 = CARTESIAN_POINT ( 'NONE',  ( -5.000000000000000000, 0.000000000000000000, 3.000000000000000000 ) ) ;
#49 = FACE_OUTER_BOUND ( 'NONE', #137, .T. ) ;
#50 = CIRCLE ( 'NONE', #318, 0.2999999999999999334 ) ;
#51 = ORIENTED_EDGE ( 'NONE', *, *, #193, .F. ) ;
#52 = PRODUCT_DEFINITION ( 'NEZNÁMÝ', '', #195, #178 ) ;
#53 = CYLINDRICAL_SURFACE ( 'NONE', #327, 1.600000000000000089 ) ;
#54 = ORIENTED_EDGE ( 'NONE', *, *, #196, .T. ) ;
#55 = EDGE_LOOP ( 'NONE', ( #84, #328, #54, #325 ) ) ;
#56 = CARTESIAN_POINT ( 'NONE',  ( -1.600000000000000089, 0.000000000000000000, 0.000000000000000000 ) ) ;
#57 = AXIS2_PLACEMENT_3D ( 'NONE', #17, #335, #368 ) ;
#58 = EDGE_LOOP ( 'NONE', ( #275, #358 ) ) ;
#59 = CC_DESIGN_APPROVAL ( #371, ( #78 ) ) ;
#60 = CARTESIAN_POINT ( 'NONE',  ( 2.500000000000000000, 3.061616997868383141E-16, 303.0000000000000000 ) ) ;
#61 = COORDINATED_UNIVERSAL_TIME_OFFSET ( 1, 0, .AHEAD. ) ;
#62 = ORIENTED_EDGE ( 'NONE', *, *, #71, .F. ) ;
#63 = DIRECTION ( 'NONE',  ( 0.000000000000000000, 0.000000000000000000, 1.000000000000000000 ) ) ;
#64 = CARTESIAN_POINT ( 'NONE',  ( 0.000000000000000000, 0.000000000000000000, 303.0000000000000000 ) ) ;
#65 = APPROVAL_PERSON_ORGANIZATION ( #26, #359, #100 ) ;
#66 = APPROVAL_STATUS ( 'not_yet_approved' ) ;
#67 = CARTESIAN_POINT ( 'NONE',  ( 1.600000000000000089, 1.959434878635765230E-16, 0.000000000000000000 ) ) ;
#68 = EDGE_CURVE ( 'NONE', #29, #32, #269, .T. ) ;
#69 = MECHANICAL_CONTEXT ( 'NONE', #175, 'mechanical' ) ;
#70 = DIRECTION ( 'NONE',  ( -1.000000000000000000, 0.000000000000000000, 0.000000000000000000 ) ) ;
#71 = EDGE_CURVE ( 'NONE', #32, #210, #122, .T. ) ;
#72 = LINE ( 'NONE', #14, #297 ) ;
#73 = VECTOR ( 'NONE', #91, 1000.000000000000000 ) ;
#74 = CYLINDRICAL_SURFACE ( 'NONE', #372, 5.000000000000000000 ) ;
#75 = PLANE ( 'NONE',  #360 ) ;
#76 = ORIENTED_EDGE ( 'NONE', *, *, #68, .T. ) ;
#77 = VECTOR ( 'NONE', #326, 1000.000000000000000 ) ;
#78 = SECURITY_CLASSIFICATION ( '', '', #154 ) ;
#79 = DIRECTION ( 'NONE',  ( 0.000000000000000000, 0.000000000000000000, -1.000000000000000000 ) ) ;
#80 = ORIENTED_EDGE ( 'NONE', *, *, #106, .T. ) ;
#81 =( NAMED_UNIT ( * ) SI_UNIT ( $, .STERADIAN. ) SOLID_ANGLE_UNIT ( ) );
#82 = CARTESIAN_POINT ( 'NONE',  ( -2.799999999999999822, 3.429011037612588783E-16, 3.300000000000025135 ) ) ;
#83 = AXIS2_PLACEMENT_3D ( 'NONE', #379, #140, #167 ) ;
#84 = ORIENTED_EDGE ( 'NONE', *, *, #274, .F. ) ;
#85 = EDGE_CURVE ( 'NONE', #151, #242, #270, .T. ) ;
#86 = PERSON_AND_ORGANIZATION ( #99, #13 ) ;
#87 = EDGE_LOOP ( 'NONE', ( #183, #245 ) ) ;
#88 = PERSON_AND_ORGANIZATION_ROLE ( 'creator' ) ;
#89 = ORIENTED_EDGE ( 'NONE', *, *, #261, .F. ) ;
#90 = DIRECTION ( 'NONE',  ( -0.000000000000000000, -0.000000000000000000, -1.000000000000000000 ) ) ;
#91 = DIRECTION ( 'NONE',  ( 0.000000000000000000, 0.000000000000000000, -1.000000000000000000 ) ) ;
#92 = CC_DESIGN_SECURITY_CLASSIFICATION ( #78, ( #195 ) ) ;
#93 = DIRECTION ( 'NONE',  ( 0.000000000000000000, 0.000000000000000000, 1.000000000000000000 ) ) ;
#94 = ADVANCED_FACE ( 'NONE', ( #216 ), #105, .F. ) ;
#95 = CALENDAR_DATE ( 2022, 8, 7 ) ;
#96 = DIRECTION ( 'NONE',  ( 1.000000000000000000, 0.000000000000000000, 0.000000000000000000 ) ) ;
#97 = AXIS2_PLACEMENT_3D ( 'NONE', #289, #313, #136 ) ;
#98 = AXIS2_PLACEMENT_3D ( 'NONE', #228, #138, #259 ) ;
#99 = PERSON ( 'NEURÈENÝ', 'NEURÈENÝ', 'NEURÈENÝ', ('NEURÈENÝ'), ('NEURÈENÝ'), ('NEURÈENÝ') ) ;
#100 = APPROVAL_ROLE ( '' ) ;
#101 = DIRECTION ( 'NONE',  ( -0.000000000000000000, -0.000000000000000000, -1.000000000000000000 ) ) ;
#102 = DIRECTION ( 'NONE',  ( 0.000000000000000000, 0.000000000000000000, 1.000000000000000000 ) ) ;
#103 = AXIS2_PLACEMENT_3D ( 'NONE', #23, #226, #170 ) ;
#104 = DIRECTION ( 'NONE',  ( 1.000000000000000000, 0.000000000000000000, 0.000000000000000000 ) ) ;
#105 = TOROIDAL_SURFACE ( 'NONE', #340, 2.799999999999999822, 0.2999999999999999889 ) ;
#106 = EDGE_CURVE ( 'NONE', #201, #29, #172, .T. ) ;
#107 = DIRECTION ( 'NONE',  ( 1.000000000000000000, 0.000000000000000000, 0.000000000000000000 ) ) ;
#108 = FACE_OUTER_BOUND ( 'NONE', #87, .T. ) ;
#109 = AXIS2_PLACEMENT_3D ( 'NONE', #221, #282, #132 ) ;
#110 = CARTESIAN_POINT ( 'NONE',  ( 2.799999999999999822, 0.000000000000000000, 3.300000000000025135 ) ) ;
#111 = ADVANCED_FACE ( 'NONE', ( #296 ), #119, .T. ) ;
#112 = CLOSED_SHELL ( 'NONE', ( #374, #94, #111, #173, #233, #266, #290, #362, #350, #135, #309 ) ) ;
#113 = DIRECTION ( 'NONE',  ( 1.000000000000000000, 0.000000000000000000, 0.000000000000000000 ) ) ;
#114 = DIRECTION ( 'NONE',  ( -0.000000000000000000, -0.000000000000000000, -1.000000000000000000 ) ) ;
#115 = CARTESIAN_POINT ( 'NONE',  ( 0.000000000000000000, 0.000000000000000000, 3.000000000000000000 ) ) ;
#116 = ORIENTED_EDGE ( 'NONE', *, *, #261, .T. ) ;
#117 = EDGE_CURVE ( 'NONE', #314, #316, #129, .T. ) ;
#118 = PERSON_AND_ORGANIZATION_ROLE ( 'creator' ) ;
#119 = CYLINDRICAL_SURFACE ( 'NONE', #262, 2.500000000000000000 ) ;
#120 = ORIENTED_EDGE ( 'NONE', *, *, #145, .F. ) ;
#121 = ORIENTED_EDGE ( 'NONE', *, *, #251, .T. ) ;
#122 = CIRCLE ( 'NONE', #1, 1.600000000000000089 ) ;
#123 = CARTESIAN_POINT ( 'NONE',  ( 0.000000000000000000, 0.000000000000000000, 0.000000000000000000 ) ) ;
#124 = EDGE_CURVE ( 'NONE', #316, #242, #337, .T. ) ;
#125 = DIRECTION ( 'NONE',  ( 1.000000000000000000, 0.000000000000000000, 0.000000000000000000 ) ) ;
#126 = PERSON_AND_ORGANIZATION ( #99, #13 ) ;
#127 = DIRECTION ( 'NONE',  ( -0.000000000000000000, -0.000000000000000000, -1.000000000000000000 ) ) ;
#128 = VECTOR ( 'NONE', #283, 1000.000000000000000 ) ;
#129 = CIRCLE ( 'NONE', #134, 5.000000000000000000 ) ;
#130 = DIRECTION ( 'NONE',  ( -1.000000000000000000, 0.000000000000000000, 0.000000000000000000 ) ) ;
#131 = FACE_OUTER_BOUND ( 'NONE', #55, .T. ) ;
#132 = DIRECTION ( 'NONE',  ( -1.000000000000000000, 0.000000000000000000, 0.000000000000000000 ) ) ;
#133 = DIRECTION ( 'NONE',  ( 0.000000000000000000, 0.000000000000000000, 1.000000000000000000 ) ) ;
#134 = AXIS2_PLACEMENT_3D ( 'NONE', #192, #164, #107 ) ;
#135 = ADVANCED_FACE ( 'NONE', ( #248 ), #320, .F. ) ;
#136 = DIRECTION ( 'NONE',  ( -1.000000000000000000, 0.000000000000000000, 0.000000000000000000 ) ) ;
#137 = EDGE_LOOP ( 'NONE', ( #292, #80, #76, #174 ) ) ;
#138 = DIRECTION ( 'NONE',  ( -0.000000000000000000, -0.000000000000000000, -1.000000000000000000 ) ) ;
#139 = ORIENTED_EDGE ( 'NONE', *, *, #4, .T. ) ;
#140 = DIRECTION ( 'NONE',  ( 0.000000000000000000, 0.000000000000000000, 1.000000000000000000 ) ) ;
#141 = FACE_BOUND ( 'NONE', #323, .T. ) ;
#142 = EDGE_LOOP ( 'NONE', ( #380, #364 ) ) ;
#143 = CARTESIAN_POINT ( 'NONE',  ( 0.000000000000000000, 0.000000000000000000, 3.300000000000025135 ) ) ;
#144 = ORIENTED_EDGE ( 'NONE', *, *, #193, .T. ) ;
#145 = EDGE_CURVE ( 'NONE', #321, #353, #212, .T. ) ;
#146 = PRODUCT_DEFINITION_SHAPE ( 'NONE', 'NONE',  #52 ) ;
#147 = PERSON_AND_ORGANIZATION ( #99, #13 ) ;
#148 = VECTOR ( 'NONE', #114, 1000.000000000000000 ) ;
#149 = EDGE_LOOP ( 'NONE', ( #301, #272, #186, #120 ) ) ;
#150 = EDGE_LOOP ( 'NONE', ( #21, #51, #344, #116 ) ) ;
#151 = VERTEX_POINT ( 'NONE', #308 ) ;
#152 = CIRCLE ( 'NONE', #34, 1.600000000000000089 ) ;
#153 = EDGE_LOOP ( 'NONE', ( #205, #294, #298, #18 ) ) ;
#154 = SECURITY_CLASSIFICATION_LEVEL ( 'unclassified' ) ;
#155 = CARTESIAN_POINT ( 'NONE',  ( 0.000000000000000000, 0.000000000000000000, 303.0000000000000000 ) ) ;
#156 = PRODUCT_RELATED_PRODUCT_CATEGORY ( 'detail', '', ( #357 ) ) ;
#157 = PERSON_AND_ORGANIZATION ( #99, #13 ) ;
#158 = CARTESIAN_POINT ( 'NONE',  ( 0.000000000000000000, 0.000000000000000000, 3.300000000000025135 ) ) ;
#159 = CIRCLE ( 'NONE', #103, 5.000000000000000000 ) ;
#160 = CARTESIAN_POINT ( 'NONE',  ( -2.500000000000000000, 0.000000000000000000, 3.300000000000025135 ) ) ;
#161 = LOCAL_TIME ( 17, 41, 45.00000000000000000, #324 ) ;
#162 = AXIS2_PLACEMENT_3D ( 'NONE', #224, #102, #310 ) ;
#163 = CARTESIAN_POINT ( 'NONE',  ( -2.500000000000000000, 0.000000000000000000, 303.0000000000000000 ) ) ;
#164 = DIRECTION ( 'NONE',  ( 0.000000000000000000, 0.000000000000000000, 1.000000000000000000 ) ) ;
#165 = CIRCLE ( 'NONE', #312, 2.500000000000000000 ) ;
#166 = CIRCLE ( 'NONE', #30, 2.500000000000000000 ) ;
#167 = DIRECTION ( 'NONE',  ( 1.000000000000000000, 0.000000000000000000, -0.000000000000000000 ) ) ;
#168 = CARTESIAN_POINT ( 'NONE',  ( -5.000000000000000000, 0.000000000000000000, 3.000000000000000000 ) ) ;
#169 = EDGE_LOOP ( 'NONE', ( #89, #239, #302, #355 ) ) ;
#170 = DIRECTION ( 'NONE',  ( 1.000000000000000000, 0.000000000000000000, 0.000000000000000000 ) ) ;
#171 = VERTEX_POINT ( 'NONE', #160 ) ;
#172 = CIRCLE ( 'NONE', #41, 1.600000000000000089 ) ;
#173 = ADVANCED_FACE ( 'NONE', ( #131 ), #74, .T. ) ;
#174 = ORIENTED_EDGE ( 'NONE', *, *, #71, .T. ) ;
#175 = APPLICATION_CONTEXT ( 'configuration controlled 3d designs of mechanical parts and assemblies' ) ;
#176 = CC_DESIGN_DATE_AND_TIME_ASSIGNMENT ( #336, #354, ( #52 ) ) ;
#177 = DIRECTION ( 'NONE',  ( 1.000000000000000000, 0.000000000000000000, 0.000000000000000000 ) ) ;
#178 = DESIGN_CONTEXT ( 'detailed design', #31, 'design' ) ;
#179 = AXIS2_PLACEMENT_3D ( 'NONE', #115, #234, #348 ) ;
#180 = EDGE_LOOP ( 'NONE', ( #349, #235, #208, #356 ) ) ;
#181 = EDGE_CURVE ( 'NONE', #210, #32, #152, .T. ) ;
#182 = CC_DESIGN_APPROVAL ( #19, ( #195 ) ) ;
#183 = ORIENTED_EDGE ( 'NONE', *, *, #85, .F. ) ;
#184 = DIRECTION ( 'NONE',  ( -0.000000000000000000, -0.000000000000000000, -1.000000000000000000 ) ) ;
#185 = SHAPE_DEFINITION_REPRESENTATION ( #146, #258 ) ;
#186 = ORIENTED_EDGE ( 'NONE', *, *, #280, .T. ) ;
#187 = DATE_AND_TIME ( #307, #199 ) ;
#188 = CIRCLE ( 'NONE', #162, 5.000000000000000000 ) ;
#189 = DIRECTION ( 'NONE',  ( 1.000000000000000000, 0.000000000000000000, 0.000000000000000000 ) ) ;
#190 = CARTESIAN_POINT ( 'NONE',  ( 5.000000000000000000, 6.123233995736766282E-16, 0.000000000000000000 ) ) ;
#191 = COORDINATED_UNIVERSAL_TIME_OFFSET ( 1, 0, .AHEAD. ) ;
#192 = CARTESIAN_POINT ( 'NONE',  ( 0.000000000000000000, 0.000000000000000000, 3.000000000000000000 ) ) ;
#193 = EDGE_CURVE ( 'NONE', #237, #244, #255, .T. ) ;
#194 = FACE_OUTER_BOUND ( 'NONE', #5, .T. ) ;
#195 = PRODUCT_DEFINITION_FORMATION_WITH_SPECIFIED_SOURCE ( 'LIBOVOLNÝ', '', #357, .NOT_KNOWN. ) ;
#196 = EDGE_CURVE ( 'NONE', #242, #151, #188, .T. ) ;
#197 = AXIS2_PLACEMENT_3D ( 'NONE', #306, #373, #252 ) ;
#198 = DIRECTION ( 'NONE',  ( 0.000000000000000000, -1.000000000000000000, 0.000000000000000000 ) ) ;
#199 = LOCAL_TIME ( 17, 41, 45.00000000000000000, #363 ) ;
#200 = PLANE ( 'NONE',  #83 ) ;
#201 = VERTEX_POINT ( 'NONE', #284 ) ;
#202 = CYLINDRICAL_SURFACE ( 'NONE', #98, 2.500000000000000000 ) ;
#203 = EDGE_CURVE ( 'NONE', #201, #210, #72, .T. ) ;
#204 = CARTESIAN_POINT ( 'NONE',  ( 5.000000000000000000, 6.123233995736766282E-16, 3.000000000000000000 ) ) ;
#205 = ORIENTED_EDGE ( 'NONE', *, *, #215, .T. ) ;
#206 = AXIS2_PLACEMENT_3D ( 'NONE', #273, #90, #277 ) ;
#207 = DATE_AND_TIME ( #332, #161 ) ;
#208 = ORIENTED_EDGE ( 'NONE', *, *, #339, .T. ) ;
#209 = PERSON_AND_ORGANIZATION_ROLE ( 'classification_officer' ) ;
#210 = VERTEX_POINT ( 'NONE', #67 ) ;
#211 = CARTESIAN_POINT ( 'NONE',  ( -1.600000000000000089, 0.000000000000000000, 303.0000000000000000 ) ) ;
#212 = CIRCLE ( 'NONE', #57, 2.799999999999999822 ) ;
#213 = CARTESIAN_POINT ( 'NONE',  ( 0.000000000000000000, 0.000000000000000000, 0.000000000000000000 ) ) ;
#214 = APPROVAL_DATE_TIME ( #187, #359 ) ;
#215 = EDGE_CURVE ( 'NONE', #29, #201, #222, .T. ) ;
#216 = FACE_OUTER_BOUND ( 'NONE', #169, .T. ) ;
#217 = APPROVAL_STATUS ( 'not_yet_approved' ) ;
#218 = CARTESIAN_POINT ( 'NONE',  ( 0.000000000000000000, 0.000000000000000000, 3.300000000000025135 ) ) ;
#219 = PERSON_AND_ORGANIZATION ( #99, #13 ) ;
#220 = CARTESIAN_POINT ( 'NONE',  ( 2.500000000000000000, 3.061616997868383141E-16, 3.300000000000025135 ) ) ;
#221 = CARTESIAN_POINT ( 'NONE',  ( 0.000000000000000000, 0.000000000000000000, 3.000000000000000000 ) ) ;
#222 = CIRCLE ( 'NONE', #197, 1.600000000000000089 ) ;
#223 = CC_DESIGN_PERSON_AND_ORGANIZATION_ASSIGNMENT ( #157, #209, ( #78 ) ) ;
#224 = CARTESIAN_POINT ( 'NONE',  ( 0.000000000000000000, 0.000000000000000000, 0.000000000000000000 ) ) ;
#225 = DIRECTION ( 'NONE',  ( 0.000000000000000000, 0.000000000000000000, 1.000000000000000000 ) ) ;
#226 = DIRECTION ( 'NONE',  ( 0.000000000000000000, 0.000000000000000000, 1.000000000000000000 ) ) ;
#227 = VERTEX_POINT ( 'NONE', #220 ) ;
#228 = CARTESIAN_POINT ( 'NONE',  ( 0.000000000000000000, 0.000000000000000000, 303.0000000000000000 ) ) ;
#229 = AXIS2_PLACEMENT_3D ( 'NONE', #218, #225, #338 ) ;
#230 = ORIENTED_EDGE ( 'NONE', *, *, #117, .F. ) ;
#231 = APPROVAL_PERSON_ORGANIZATION ( #322, #371, #249 ) ;
#232 = CARTESIAN_POINT ( 'NONE',  ( 0.000000000000000000, 0.000000000000000000, 303.0000000000000000 ) ) ;
#233 = ADVANCED_FACE ( 'NONE', ( #194 ), #341, .T. ) ;
#234 = DIRECTION ( 'NONE',  ( 0.000000000000000000, 0.000000000000000000, 1.000000000000000000 ) ) ;
#235 = ORIENTED_EDGE ( 'NONE', *, *, #42, .T. ) ;
#236 = APPROVAL_STATUS ( 'not_yet_approved' ) ;
#237 = VERTEX_POINT ( 'NONE', #43 ) ;
#238 = PERSON_AND_ORGANIZATION_ROLE ( 'design_owner' ) ;
#239 = ORIENTED_EDGE ( 'NONE', *, *, #287, .T. ) ;
#240 = EDGE_CURVE ( 'NONE', #237, #171, #12, .T. ) ;
#241 = ORIENTED_EDGE ( 'NONE', *, *, #145, .T. ) ;
#242 = VERTEX_POINT ( 'NONE', #190 ) ;
#243 = LOCAL_TIME ( 17, 41, 45.00000000000000000, #268 ) ;
#244 = VERTEX_POINT ( 'NONE', #36 ) ;
#245 = ORIENTED_EDGE ( 'NONE', *, *, #196, .F. ) ;
#246 = CC_DESIGN_PERSON_AND_ORGANIZATION_ASSIGNMENT ( #219, #238, ( #357 ) ) ;
#247 = APPLICATION_PROTOCOL_DEFINITION ( 'international standard', 'config_control_design', 1994, #175 ) ;
#248 = FACE_OUTER_BOUND ( 'NONE', #149, .T. ) ;
#249 = APPROVAL_ROLE ( '' ) ;
#250 = FACE_BOUND ( 'NONE', #329, .T. ) ;
#251 = EDGE_CURVE ( 'NONE', #244, #237, #267, .T. ) ;
#252 = DIRECTION ( 'NONE',  ( 1.000000000000000000, 0.000000000000000000, 0.000000000000000000 ) ) ;
#253 = DIRECTION ( 'NONE',  ( 0.000000000000000000, 0.000000000000000000, 1.000000000000000000 ) ) ;
#254 = AXIS2_PLACEMENT_3D ( 'NONE', #82, #376, #257 ) ;
#255 = CIRCLE ( 'NONE', #304, 2.500000000000000000 ) ;
#256 = DIRECTION ( 'NONE',  ( 0.000000000000000000, 0.000000000000000000, -1.000000000000000000 ) ) ;
#257 = DIRECTION ( 'NONE',  ( -1.000000000000000000, 1.224646799147353207E-16, 0.000000000000000000 ) ) ;
#258 = ADVANCED_BREP_SHAPE_REPRESENTATION ( '9df9', ( #16, #347 ), #47 ) ;
#259 = DIRECTION ( 'NONE',  ( -1.000000000000000000, 0.000000000000000000, 0.000000000000000000 ) ) ;
#260 = FACE_OUTER_BOUND ( 'NONE', #378, .T. ) ;
#261 = EDGE_CURVE ( 'NONE', #171, #227, #165, .T. ) ;
#262 = AXIS2_PLACEMENT_3D ( 'NONE', #27, #370, #70 ) ;
#263 = CYLINDRICAL_SURFACE ( 'NONE', #97, 1.600000000000000089 ) ;
#264 = ORIENTED_EDGE ( 'NONE', *, *, #181, .F. ) ;
#265 =( LENGTH_UNIT ( ) NAMED_UNIT ( * ) SI_UNIT ( .MILLI., .METRE. ) );
#266 = ADVANCED_FACE ( 'NONE', ( #250, #367 ), #24, .T. ) ;
#267 = CIRCLE ( 'NONE', #6, 2.500000000000000000 ) ;
#268 = COORDINATED_UNIVERSAL_TIME_OFFSET ( 1, 0, .AHEAD. ) ;
#269 = LINE ( 'NONE', #303, #73 ) ;
#270 = CIRCLE ( 'NONE', #299, 5.000000000000000000 ) ;
#271 = CC_DESIGN_PERSON_AND_ORGANIZATION_ASSIGNMENT ( #86, #11, ( #195 ) ) ;
#272 = ORIENTED_EDGE ( 'NONE', *, *, #339, .F. ) ;
#273 = CARTESIAN_POINT ( 'NONE',  ( 0.000000000000000000, 0.000000000000000000, 3.000000000000000000 ) ) ;
#274 = EDGE_CURVE ( 'NONE', #316, #314, #159, .T. ) ;
#275 = ORIENTED_EDGE ( 'NONE', *, *, #215, .F. ) ;
#276 = CARTESIAN_POINT ( 'NONE',  ( 0.000000000000000000, 0.000000000000000000, 0.000000000000000000 ) ) ;
#277 = DIRECTION ( 'NONE',  ( 1.000000000000000000, 0.000000000000000000, 0.000000000000000000 ) ) ;
#278 = CALENDAR_DATE ( 2022, 8, 7 ) ;
#279 = DIRECTION ( 'NONE',  ( 1.000000000000000000, 0.000000000000000000, 0.000000000000000000 ) ) ;
#280 = EDGE_CURVE ( 'NONE', #227, #353, #50, .T. ) ;
#281 = APPLICATION_PROTOCOL_DEFINITION ( 'international standard', 'config_control_design', 1994, #31 ) ;
#282 = DIRECTION ( 'NONE',  ( -0.000000000000000000, -0.000000000000000000, -1.000000000000000000 ) ) ;
#283 = DIRECTION ( 'NONE',  ( -0.000000000000000000, -0.000000000000000000, -1.000000000000000000 ) ) ;
#284 = CARTESIAN_POINT ( 'NONE',  ( 1.600000000000000089, 1.959434878635765230E-16, 303.0000000000000000 ) ) ;
#285 = LINE ( 'NONE', #168, #148 ) ;
#286 = LOCAL_TIME ( 17, 41, 45.00000000000000000, #191 ) ;
#287 = EDGE_CURVE ( 'NONE', #171, #321, #369, .T. ) ;
#288 = DIRECTION ( 'NONE',  ( 0.000000000000000000, 0.000000000000000000, 1.000000000000000000 ) ) ;
#289 = CARTESIAN_POINT ( 'NONE',  ( 0.000000000000000000, 0.000000000000000000, 303.0000000000000000 ) ) ;
#290 = ADVANCED_FACE ( 'NONE', ( #141, #108 ), #200, .F. ) ;
#291 = FACE_BOUND ( 'NONE', #58, .T. ) ;
#292 = ORIENTED_EDGE ( 'NONE', *, *, #203, .F. ) ;
#293 = DIRECTION ( 'NONE',  ( -1.000000000000000000, 0.000000000000000000, 0.000000000000000000 ) ) ;
#294 = ORIENTED_EDGE ( 'NONE', *, *, #203, .T. ) ;
#295 = UNCERTAINTY_MEASURE_WITH_UNIT (LENGTH_MEASURE( 1.000000000000000082E-05 ), #265, 'distance_accuracy_value', 'NONE');
#296 = FACE_OUTER_BOUND ( 'NONE', #180, .T. ) ;
#297 = VECTOR ( 'NONE', #256, 1000.000000000000000 ) ;
#298 = ORIENTED_EDGE ( 'NONE', *, *, #181, .T. ) ;
#299 = AXIS2_PLACEMENT_3D ( 'NONE', #123, #93, #125 ) ;
#300 = APPROVAL_PERSON_ORGANIZATION ( #39, #19, #351 ) ;
#301 = ORIENTED_EDGE ( 'NONE', *, *, #287, .F. ) ;
#302 = ORIENTED_EDGE ( 'NONE', *, *, #4, .F. ) ;
#303 = CARTESIAN_POINT ( 'NONE',  ( -1.600000000000000089, 0.000000000000000000, 303.0000000000000000 ) ) ;
#304 = AXIS2_PLACEMENT_3D ( 'NONE', #64, #133, #189 ) ;
#305 = DATE_AND_TIME ( #330, #286 ) ;
#306 = CARTESIAN_POINT ( 'NONE',  ( 0.000000000000000000, 0.000000000000000000, 303.0000000000000000 ) ) ;
#307 = CALENDAR_DATE ( 2022, 8, 7 ) ;
#308 = CARTESIAN_POINT ( 'NONE',  ( -5.000000000000000000, 0.000000000000000000, 0.000000000000000000 ) ) ;
#309 = ADVANCED_FACE ( 'NONE', ( #49 ), #263, .F. ) ;
#310 = DIRECTION ( 'NONE',  ( 1.000000000000000000, 0.000000000000000000, 0.000000000000000000 ) ) ;
#311 = CARTESIAN_POINT ( 'NONE',  ( 0.000000000000000000, 0.000000000000000000, 0.000000000000000000 ) ) ;
#312 = AXIS2_PLACEMENT_3D ( 'NONE', #158, #253, #10 ) ;
#313 = DIRECTION ( 'NONE',  ( 0.000000000000000000, 0.000000000000000000, -1.000000000000000000 ) ) ;
#314 = VERTEX_POINT ( 'NONE', #48 ) ;
#315 = EDGE_CURVE ( 'NONE', #314, #151, #285, .T. ) ;
#316 = VERTEX_POINT ( 'NONE', #204 ) ;
#317 =( NAMED_UNIT ( * ) PLANE_ANGLE_UNIT ( ) SI_UNIT ( $, .RADIAN. ) );
#318 = AXIS2_PLACEMENT_3D ( 'NONE', #110, #198, #375 ) ;
#319 = CARTESIAN_POINT ( 'NONE',  ( 2.799999999999999822, 0.000000000000000000, 3.000000000000012434 ) ) ;
#320 = TOROIDAL_SURFACE ( 'NONE', #229, 2.799999999999999822, 0.2999999999999999889 ) ;
#321 = VERTEX_POINT ( 'NONE', #45 ) ;
#322 = PERSON_AND_ORGANIZATION ( #99, #13 ) ;
#323 = EDGE_LOOP ( 'NONE', ( #62, #264 ) ) ;
#324 = COORDINATED_UNIVERSAL_TIME_OFFSET ( 1, 0, .AHEAD. ) ;
#325 = ORIENTED_EDGE ( 'NONE', *, *, #315, .F. ) ;
#326 = DIRECTION ( 'NONE',  ( -0.000000000000000000, -0.000000000000000000, -1.000000000000000000 ) ) ;
#327 = AXIS2_PLACEMENT_3D ( 'NONE', #346, #79, #293 ) ;
#328 = ORIENTED_EDGE ( 'NONE', *, *, #124, .T. ) ;
#329 = EDGE_LOOP ( 'NONE', ( #139, #241 ) ) ;
#330 = CALENDAR_DATE ( 2022, 8, 7 ) ;
#331 = DIRECTION ( 'NONE',  ( 0.000000000000000000, 0.000000000000000000, 1.000000000000000000 ) ) ;
#332 = CALENDAR_DATE ( 2022, 8, 7 ) ;
#333 = LOCAL_TIME ( 17, 41, 45.00000000000000000, #61 ) ;
#334 = CC_DESIGN_PERSON_AND_ORGANIZATION_ASSIGNMENT ( #126, #88, ( #195 ) ) ;
#335 = DIRECTION ( 'NONE',  ( -0.000000000000000000, -0.000000000000000000, -1.000000000000000000 ) ) ;
#336 = DATE_AND_TIME ( #95, #243 ) ;
#337 = LINE ( 'NONE', #44, #345 ) ;
#338 = DIRECTION ( 'NONE',  ( 1.000000000000000000, 0.000000000000000000, 0.000000000000000000 ) ) ;
#339 = EDGE_CURVE ( 'NONE', #227, #171, #166, .T. ) ;
#340 = AXIS2_PLACEMENT_3D ( 'NONE', #2, #8, #96 ) ;
#341 = CYLINDRICAL_SURFACE ( 'NONE', #109, 5.000000000000000000 ) ;
#342 = CC_DESIGN_DATE_AND_TIME_ASSIGNMENT ( #207, #35, ( #78 ) ) ;
#343 = DIRECTION ( 'NONE',  ( 0.000000000000000000, 0.000000000000000000, 1.000000000000000000 ) ) ;
#344 = ORIENTED_EDGE ( 'NONE', *, *, #240, .T. ) ;
#345 = VECTOR ( 'NONE', #127, 1000.000000000000000 ) ;
#346 = CARTESIAN_POINT ( 'NONE',  ( 0.000000000000000000, 0.000000000000000000, 303.0000000000000000 ) ) ;
#347 = AXIS2_PLACEMENT_3D ( 'NONE', #276, #63, #365 ) ;
#348 = DIRECTION ( 'NONE',  ( 1.000000000000000000, 0.000000000000000000, -0.000000000000000000 ) ) ;
#349 = ORIENTED_EDGE ( 'NONE', *, *, #251, .F. ) ;
#350 = ADVANCED_FACE ( 'NONE', ( #291, #260 ), #75, .T. ) ;
#351 = APPROVAL_ROLE ( '' ) ;
#352 = CIRCLE ( 'NONE', #206, 2.799999999999999822 ) ;
#353 = VERTEX_POINT ( 'NONE', #319 ) ;
#354 = DATE_TIME_ROLE ( 'creation_date' ) ;
#355 = ORIENTED_EDGE ( 'NONE', *, *, #280, .F. ) ;
#356 = ORIENTED_EDGE ( 'NONE', *, *, #240, .F. ) ;
#357 = PRODUCT ( '9df9', '9df9', '', ( #69 ) ) ;
#358 = ORIENTED_EDGE ( 'NONE', *, *, #106, .F. ) ;
#359 = APPROVAL ( #236, 'NEURÈENÝ' ) ;
#360 = AXIS2_PLACEMENT_3D ( 'NONE', #232, #288, #22 ) ;
#361 = ORIENTED_EDGE ( 'NONE', *, *, #124, .F. ) ;
#362 = ADVANCED_FACE ( 'NONE', ( #20 ), #202, .T. ) ;
#363 = COORDINATED_UNIVERSAL_TIME_OFFSET ( 1, 0, .AHEAD. ) ;
#364 = ORIENTED_EDGE ( 'NONE', *, *, #274, .T. ) ;
#365 = DIRECTION ( 'NONE',  ( 1.000000000000000000, 0.000000000000000000, 0.000000000000000000 ) ) ;
#366 = APPROVAL_DATE_TIME ( #9, #371 ) ;
#367 = FACE_OUTER_BOUND ( 'NONE', #142, .T. ) ;
#368 = DIRECTION ( 'NONE',  ( 1.000000000000000000, 0.000000000000000000, 0.000000000000000000 ) ) ;
#369 = CIRCLE ( 'NONE', #254, 0.2999999999999999334 ) ;
#370 = DIRECTION ( 'NONE',  ( -0.000000000000000000, -0.000000000000000000, -1.000000000000000000 ) ) ;
#371 = APPROVAL ( #66, 'NEURÈENÝ' ) ;
#372 = AXIS2_PLACEMENT_3D ( 'NONE', #38, #40, #130 ) ;
#373 = DIRECTION ( 'NONE',  ( 0.000000000000000000, 0.000000000000000000, 1.000000000000000000 ) ) ;
#374 = ADVANCED_FACE ( 'NONE', ( #377 ), #53, .F. ) ;
#375 = DIRECTION ( 'NONE',  ( 0.000000000000000000, 0.000000000000000000, -1.000000000000000000 ) ) ;
#376 = DIRECTION ( 'NONE',  ( 1.224646799147353207E-16, 1.000000000000000000, -0.000000000000000000 ) ) ;
#377 = FACE_OUTER_BOUND ( 'NONE', #153, .T. ) ;
#378 = EDGE_LOOP ( 'NONE', ( #144, #121 ) ) ;
#379 = CARTESIAN_POINT ( 'NONE',  ( 0.000000000000000000, 0.000000000000000000, 0.000000000000000000 ) ) ;
#380 = ORIENTED_EDGE ( 'NONE', *, *, #117, .T. ) ;
#381 = ORIENTED_EDGE ( 'NONE', *, *, #315, .T. ) ;
ENDSEC;
END-ISO-10303-21;
