ISO-10303-21;
HEADER;
FILE_DESCRIPTION (( 'STEP AP203' ),
    '1' );
FILE_NAME ('dae1.STEP',
    '2022-07-08T15:32:10',
    ( '' ),
    ( '' ),
    'SwSTEP 2.0',
    'SolidWorks 2019',
    '' );
FILE_SCHEMA (( 'CONFIG_CONTROL_DESIGN' ));
ENDSEC;

DATA;
#1 = DIRECTION ( 'NONE',  ( 0.000000000000000000, 0.000000000000000000, -1.000000000000000000 ) ) ;
#2 = PERSON ( 'NEURÈENÝ', 'NEURÈENÝ', 'NEURÈENÝ', ('NEURÈENÝ'), ('NEURÈENÝ'), ('NEURÈENÝ') ) ;
#3 = EDGE_CURVE ( 'NONE', #288, #225, #84, .T. ) ;
#4 = CARTESIAN_POINT ( 'NONE',  ( -4.000000000000000000, 0.000000000000000000, 155.0000000000000000 ) ) ;
#5 = FACE_OUTER_BOUND ( 'NONE', #46, .T. ) ;
#6 = CC_DESIGN_APPROVAL ( #155, ( #79 ) ) ;
#7 = DIRECTION ( 'NONE',  ( 1.000000000000000000, 0.000000000000000000, 0.000000000000000000 ) ) ;
#8 = PLANE ( 'NONE',  #133 ) ;
#9 = PERSON_AND_ORGANIZATION_ROLE ( 'classification_officer' ) ;
#10 = EDGE_CURVE ( 'NONE', #80, #225, #67, .T. ) ;
#11 = AXIS2_PLACEMENT_3D ( 'NONE', #93, #177, #242 ) ;
#12 = LOCAL_TIME ( 17, 32, 10.00000000000000000, #72 ) ;
#13 = CALENDAR_DATE ( 2022, 8, 7 ) ;
#14 = PERSON_AND_ORGANIZATION ( #2, #164 ) ;
#15 = DATE_AND_TIME ( #247, #337 ) ;
#16 = EDGE_CURVE ( 'NONE', #81, #369, #29, .T. ) ;
#17 = AXIS2_PLACEMENT_3D ( 'NONE', #331, #30, #376 ) ;
#18 = CC_DESIGN_PERSON_AND_ORGANIZATION_ASSIGNMENT ( #278, #70, ( #196 ) ) ;
#19 = DIRECTION ( 'NONE',  ( 0.000000000000000000, 0.000000000000000000, -1.000000000000000000 ) ) ;
#20 = ORIENTED_EDGE ( 'NONE', *, *, #349, .F. ) ;
#21 = CIRCLE ( 'NONE', #163, 7.000000000000000000 ) ;
#22 = ORIENTED_EDGE ( 'NONE', *, *, #58, .T. ) ;
#23 = FACE_BOUND ( 'NONE', #113, .T. ) ;
#24 = ORIENTED_EDGE ( 'NONE', *, *, #221, .T. ) ;
#25 = CARTESIAN_POINT ( 'NONE',  ( 0.000000000000000000, 0.000000000000000000, 155.0000000000000000 ) ) ;
#26 = CARTESIAN_POINT ( 'NONE',  ( 0.000000000000000000, 0.000000000000000000, 5.000000000000000000 ) ) ;
#27 = CARTESIAN_POINT ( 'NONE',  ( 0.000000000000000000, 0.000000000000000000, 0.000000000000000000 ) ) ;
#28 = ORIENTED_EDGE ( 'NONE', *, *, #170, .F. ) ;
#29 = CIRCLE ( 'NONE', #11, 4.500000000000000888 ) ;
#30 = DIRECTION ( 'NONE',  ( -0.000000000000000000, -0.000000000000000000, -1.000000000000000000 ) ) ;
#31 = VERTEX_POINT ( 'NONE', #157 ) ;
#32 = CARTESIAN_POINT ( 'NONE',  ( 0.000000000000000000, 0.000000000000000000, 5.000000000000000000 ) ) ;
#33 = FACE_BOUND ( 'NONE', #165, .T. ) ;
#34 = CARTESIAN_POINT ( 'NONE',  ( 0.000000000000000000, 0.000000000000000000, 155.0000000000000000 ) ) ;
#35 = CARTESIAN_POINT ( 'NONE',  ( 2.000000000000000000, 2.449293598294706414E-16, 0.000000000000000000 ) ) ;
#36 = CARTESIAN_POINT ( 'NONE',  ( -4.000000000000000000, 0.000000000000000000, 5.500000000000005329 ) ) ;
#37 = DIRECTION ( 'NONE',  ( 0.000000000000000000, 0.000000000000000000, 1.000000000000000000 ) ) ;
#38 = AXIS2_PLACEMENT_3D ( 'NONE', #323, #60, #201 ) ;
#39 = APPROVAL_STATUS ( 'not_yet_approved' ) ;
#40 = ADVANCED_FACE ( 'NONE', ( #275 ), #43, .F. ) ;
#41 = DATE_AND_TIME ( #307, #135 ) ;
#42 = PERSON_AND_ORGANIZATION ( #2, #164 ) ;
#43 = TOROIDAL_SURFACE ( 'NONE', #271, 4.500000000000000888, 0.5000000000000000000 ) ;
#44 = CIRCLE ( 'NONE', #319, 2.000000000000000000 ) ;
#45 = MECHANICAL_CONTEXT ( 'NONE', #328, 'mechanical' ) ;
#46 = EDGE_LOOP ( 'NONE', ( #223, #257, #145, #54 ) ) ;
#47 = VECTOR ( 'NONE', #149, 1000.000000000000000 ) ;
#48 = EDGE_CURVE ( 'NONE', #202, #80, #330, .T. ) ;
#49 = ORIENTED_EDGE ( 'NONE', *, *, #338, .T. ) ;
#50 = EDGE_LOOP ( 'NONE', ( #169, #139, #122, #343 ) ) ;
#51 = VERTEX_POINT ( 'NONE', #304 ) ;
#52 = ORIENTED_EDGE ( 'NONE', *, *, #244, .F. ) ;
#53 = FACE_OUTER_BOUND ( 'NONE', #285, .T. ) ;
#54 = ORIENTED_EDGE ( 'NONE', *, *, #338, .F. ) ;
#55 = CIRCLE ( 'NONE', #277, 0.5000000000000004441 ) ;
#56 = LINE ( 'NONE', #150, #287 ) ;
#57 = CARTESIAN_POINT ( 'NONE',  ( 0.000000000000000000, 0.000000000000000000, 0.000000000000000000 ) ) ;
#58 = EDGE_CURVE ( 'NONE', #340, #51, #104, .T. ) ;
#59 = CARTESIAN_POINT ( 'NONE',  ( 4.000000000000000000, 4.898587196589412829E-16, 5.500000000000005329 ) ) ;
#60 = DIRECTION ( 'NONE',  ( -0.000000000000000000, -0.000000000000000000, -1.000000000000000000 ) ) ;
#61 = DIRECTION ( 'NONE',  ( 1.000000000000000000, 0.000000000000000000, 0.000000000000000000 ) ) ;
#62 = FACE_OUTER_BOUND ( 'NONE', #380, .T. ) ;
#63 = CARTESIAN_POINT ( 'NONE',  ( 0.000000000000000000, 0.000000000000000000, 5.000000000000000000 ) ) ;
#64 = DIRECTION ( 'NONE',  ( -0.000000000000000000, -0.000000000000000000, -1.000000000000000000 ) ) ;
#65 = EDGE_CURVE ( 'NONE', #340, #372, #302, .T. ) ;
#66 = CARTESIAN_POINT ( 'NONE',  ( 4.000000000000000000, 4.898587196589412829E-16, 155.0000000000000000 ) ) ;
#67 = CIRCLE ( 'NONE', #154, 2.000000000000000000 ) ;
#68 = APPROVAL_ROLE ( '' ) ;
#69 = DIRECTION ( 'NONE',  ( 0.000000000000000000, 0.000000000000000000, 1.000000000000000000 ) ) ;
#70 = PERSON_AND_ORGANIZATION_ROLE ( 'creator' ) ;
#71 = CIRCLE ( 'NONE', #251, 0.5000000000000004441 ) ;
#72 = COORDINATED_UNIVERSAL_TIME_OFFSET ( 1, 0, .AHEAD. ) ;
#73 = DATE_TIME_ROLE ( 'creation_date' ) ;
#74 = ORIENTED_EDGE ( 'NONE', *, *, #221, .F. ) ;
#75 = CC_DESIGN_PERSON_AND_ORGANIZATION_ASSIGNMENT ( #361, #162, ( #236 ) ) ;
#76 = ORIENTED_EDGE ( 'NONE', *, *, #170, .T. ) ;
#77 = DIRECTION ( 'NONE',  ( -0.000000000000000000, -0.000000000000000000, -1.000000000000000000 ) ) ;
#78 = TOROIDAL_SURFACE ( 'NONE', #309, 4.500000000000000888, 0.5000000000000000000 ) ;
#79 = SECURITY_CLASSIFICATION ( '', '', #188 ) ;
#80 = VERTEX_POINT ( 'NONE', #35 ) ;
#81 = VERTEX_POINT ( 'NONE', #181 ) ;
#82 = ADVANCED_FACE ( 'NONE', ( #5 ), #78, .F. ) ;
#83 = DIRECTION ( 'NONE',  ( 0.000000000000000000, 0.000000000000000000, 1.000000000000000000 ) ) ;
#84 = LINE ( 'NONE', #295, #206 ) ;
#85 = APPROVAL ( #99, 'NEURÈENÝ' ) ;
#86 = DIRECTION ( 'NONE',  ( 0.000000000000000000, 0.000000000000000000, 1.000000000000000000 ) ) ;
#87 = ORIENTED_EDGE ( 'NONE', *, *, #282, .T. ) ;
#88 = DIRECTION ( 'NONE',  ( 0.000000000000000000, 0.000000000000000000, -1.000000000000000000 ) ) ;
#89 = CIRCLE ( 'NONE', #220, 2.000000000000000000 ) ;
#91 = CARTESIAN_POINT ( 'NONE',  ( -7.000000000000000000, 0.000000000000000000, 5.000000000000000000 ) ) ;
#90 = AXIS2_PLACEMENT_3D ( 'NONE', #32, #146, #350 ) ;
#92 = FACE_BOUND ( 'NONE', #371, .T. ) ;
#93 = CARTESIAN_POINT ( 'NONE',  ( 0.000000000000000000, 0.000000000000000000, 5.000000000000000000 ) ) ;
#94 = DIRECTION ( 'NONE',  ( 0.000000000000000000, 0.000000000000000000, 1.000000000000000000 ) ) ;
#95 = CARTESIAN_POINT ( 'NONE',  ( 0.000000000000000000, 0.000000000000000000, 5.500000000000005329 ) ) ;
#96 = ADVANCED_FACE ( 'NONE', ( #33, #359 ), #205, .F. ) ;
#97 = CYLINDRICAL_SURFACE ( 'NONE', #90, 7.000000000000000000 ) ;
#98 = MANIFOLD_SOLID_BREP ( 'Odebrat vysunutím3', #194 ) ;
#99 = APPROVAL_STATUS ( 'not_yet_approved' ) ;
#100 = CALENDAR_DATE ( 2022, 8, 7 ) ;
#101 = COORDINATED_UNIVERSAL_TIME_OFFSET ( 1, 0, .AHEAD. ) ;
#102 = CC_DESIGN_PERSON_AND_ORGANIZATION_ASSIGNMENT ( #248, #276, ( #174 ) ) ;
#103 = DIRECTION ( 'NONE',  ( 1.000000000000000000, 0.000000000000000000, -0.000000000000000000 ) ) ;
#104 = CIRCLE ( 'NONE', #186, 4.000000000000000000 ) ;
#105 = CIRCLE ( 'NONE', #272, 4.000000000000000000 ) ;
#106 = DATE_AND_TIME ( #132, #182 ) ;
#107 = EDGE_CURVE ( 'NONE', #225, #80, #89, .T. ) ;
#108 = CYLINDRICAL_SURFACE ( 'NONE', #347, 2.000000000000000000 ) ;
#109 = ORIENTED_EDGE ( 'NONE', *, *, #65, .T. ) ;
#110 = AXIS2_PLACEMENT_3D ( 'NONE', #25, #373, #116 ) ;
#111 = EDGE_LOOP ( 'NONE', ( #22, #198 ) ) ;
#112 = ADVANCED_FACE ( 'NONE', ( #92, #241 ), #8, .T. ) ;
#113 = EDGE_LOOP ( 'NONE', ( #28, #20 ) ) ;
#114 = ORIENTED_EDGE ( 'NONE', *, *, #368, .F. ) ;
#115 = CIRCLE ( 'NONE', #367, 4.000000000000000000 ) ;
#116 = DIRECTION ( 'NONE',  ( 1.000000000000000000, 0.000000000000000000, -0.000000000000000000 ) ) ;
#117 = DIRECTION ( 'NONE',  ( 1.000000000000000000, 0.000000000000000000, 0.000000000000000000 ) ) ;
#118 = ORIENTED_EDGE ( 'NONE', *, *, #134, .F. ) ;
#119 = ADVANCED_FACE ( 'NONE', ( #293 ), #227, .T. ) ;
#120 = DIRECTION ( 'NONE',  ( 0.000000000000000000, -1.000000000000000000, 0.000000000000000000 ) ) ;
#121 = CARTESIAN_POINT ( 'NONE',  ( 0.000000000000000000, 0.000000000000000000, 5.000000000000000000 ) ) ;
#122 = ORIENTED_EDGE ( 'NONE', *, *, #3, .T. ) ;
#123 = CARTESIAN_POINT ( 'NONE',  ( 0.000000000000000000, 0.000000000000000000, 155.0000000000000000 ) ) ;
#124 = DIRECTION ( 'NONE',  ( 1.000000000000000000, 0.000000000000000000, 0.000000000000000000 ) ) ;
#125 = CIRCLE ( 'NONE', #305, 4.000000000000000000 ) ;
#126 = CARTESIAN_POINT ( 'NONE',  ( 7.000000000000000000, 8.572527594031473190E-16, 0.000000000000000000 ) ) ;
#127 = DIRECTION ( 'NONE',  ( 0.000000000000000000, 0.000000000000000000, 1.000000000000000000 ) ) ;
#128 = PRODUCT_RELATED_PRODUCT_CATEGORY ( 'detail', '', ( #236 ) ) ;
#129 = APPLICATION_PROTOCOL_DEFINITION ( 'international standard', 'config_control_design', 1994, #328 ) ;
#130 = DIRECTION ( 'NONE',  ( 1.000000000000000000, 0.000000000000000000, 0.000000000000000000 ) ) ;
#131 = CC_DESIGN_PERSON_AND_ORGANIZATION_ASSIGNMENT ( #218, #158, ( #174 ) ) ;
#132 = CALENDAR_DATE ( 2022, 8, 7 ) ;
#133 = AXIS2_PLACEMENT_3D ( 'NONE', #63, #69, #103 ) ;
#134 = EDGE_CURVE ( 'NONE', #138, #81, #71, .T. ) ;
#135 = LOCAL_TIME ( 17, 32, 10.00000000000000000, #184 ) ;
#136 = ORIENTED_EDGE ( 'NONE', *, *, #363, .F. ) ;
#137 = SHAPE_DEFINITION_REPRESENTATION ( #204, #189 ) ;
#138 = VERTEX_POINT ( 'NONE', #59 ) ;
#139 = ORIENTED_EDGE ( 'NONE', *, *, #349, .T. ) ;
#140 = DIRECTION ( 'NONE',  ( 0.000000000000000000, 0.000000000000000000, 1.000000000000000000 ) ) ;
#141 = AXIS2_PLACEMENT_3D ( 'NONE', #57, #217, #334 ) ;
#142 = EDGE_CURVE ( 'NONE', #372, #369, #55, .T. ) ;
#143 = EDGE_LOOP ( 'NONE', ( #52, #252 ) ) ;
#144 = FACE_OUTER_BOUND ( 'NONE', #111, .T. ) ;
#145 = ORIENTED_EDGE ( 'NONE', *, *, #134, .T. ) ;
#146 = DIRECTION ( 'NONE',  ( -0.000000000000000000, -0.000000000000000000, -1.000000000000000000 ) ) ;
#147 = EDGE_LOOP ( 'NONE', ( #321, #344, #109, #193 ) ) ;
#148 = ADVANCED_FACE ( 'NONE', ( #23, #144 ), #226, .T. ) ;
#149 = DIRECTION ( 'NONE',  ( -0.000000000000000000, -0.000000000000000000, -1.000000000000000000 ) ) ;
#150 = CARTESIAN_POINT ( 'NONE',  ( 7.000000000000000000, 8.572527594031473190E-16, 5.000000000000000000 ) ) ;
#151 = CARTESIAN_POINT ( 'NONE',  ( 2.000000000000000000, 2.449293598294706414E-16, 155.0000000000000000 ) ) ;
#152 = DIRECTION ( 'NONE',  ( -0.000000000000000000, -0.000000000000000000, -1.000000000000000000 ) ) ;
#153 = DIRECTION ( 'NONE',  ( 1.000000000000000000, 0.000000000000000000, 0.000000000000000000 ) ) ;
#154 = AXIS2_PLACEMENT_3D ( 'NONE', #237, #64, #153 ) ;
#155 = APPROVAL ( #332, 'NEURÈENÝ' ) ;
#156 = CARTESIAN_POINT ( 'NONE',  ( 0.000000000000000000, 0.000000000000000000, 0.000000000000000000 ) ) ;
#157 = CARTESIAN_POINT ( 'NONE',  ( 7.000000000000000000, 8.572527594031473190E-16, 5.000000000000000000 ) ) ;
#158 = PERSON_AND_ORGANIZATION_ROLE ( 'creator' ) ;
#159 =( NAMED_UNIT ( * ) PLANE_ANGLE_UNIT ( ) SI_UNIT ( $, .RADIAN. ) );
#160 = DATE_AND_TIME ( #100, #12 ) ;
#161 = CIRCLE ( 'NONE', #280, 2.000000000000000000 ) ;
#162 = PERSON_AND_ORGANIZATION_ROLE ( 'design_owner' ) ;
#163 = AXIS2_PLACEMENT_3D ( 'NONE', #121, #240, #117 ) ;
#164 = ORGANIZATION ( 'NEURÈENÝ', 'NEURÈENÝ', '' ) ;
#165 = EDGE_LOOP ( 'NONE', ( #313, #260 ) ) ;
#166 = ORIENTED_EDGE ( 'NONE', *, *, #259, .F. ) ;
#167 = CC_DESIGN_DATE_AND_TIME_ASSIGNMENT ( #15, #73, ( #196 ) ) ;
#168 = AXIS2_PLACEMENT_3D ( 'NONE', #210, #273, #264 ) ;
#169 = ORIENTED_EDGE ( 'NONE', *, *, #48, .F. ) ;
#170 = EDGE_CURVE ( 'NONE', #288, #202, #161, .T. ) ;
#171 = ORIENTED_EDGE ( 'NONE', *, *, #48, .T. ) ;
#172 = FACE_OUTER_BOUND ( 'NONE', #147, .T. ) ;
#173 = ORIENTED_EDGE ( 'NONE', *, *, #244, .T. ) ;
#174 = PRODUCT_DEFINITION_FORMATION_WITH_SPECIFIED_SOURCE ( 'LIBOVOLNÝ', '', #236, .NOT_KNOWN. ) ;
#175 = CARTESIAN_POINT ( 'NONE',  ( 4.500000000000000888, 0.000000000000000000, 5.500000000000005329 ) ) ;
#176 = DIRECTION ( 'NONE',  ( 1.000000000000000000, 0.000000000000000000, 0.000000000000000000 ) ) ;
#177 = DIRECTION ( 'NONE',  ( -0.000000000000000000, -0.000000000000000000, -1.000000000000000000 ) ) ;
#178 = CARTESIAN_POINT ( 'NONE',  ( -2.000000000000000000, 0.000000000000000000, 155.0000000000000000 ) ) ;
#179 = DIRECTION ( 'NONE',  ( 0.000000000000000000, 0.000000000000000000, -1.000000000000000000 ) ) ;
#180 = CARTESIAN_POINT ( 'NONE',  ( -4.500000000000000888, 5.510910596163088569E-16, 5.000000000000002665 ) ) ;
#181 = CARTESIAN_POINT ( 'NONE',  ( 4.500000000000000888, 0.000000000000000000, 5.000000000000002665 ) ) ;
#182 = LOCAL_TIME ( 17, 32, 10.00000000000000000, #366 ) ;
#183 = DIRECTION ( 'NONE',  ( 0.000000000000000000, 0.000000000000000000, 1.000000000000000000 ) ) ;
#184 = COORDINATED_UNIVERSAL_TIME_OFFSET ( 1, 0, .AHEAD. ) ;
#185 = APPLICATION_PROTOCOL_DEFINITION ( 'international standard', 'config_control_design', 1994, #345 ) ;
#186 = AXIS2_PLACEMENT_3D ( 'NONE', #208, #326, #61 ) ;
#187 = APPROVAL_ROLE ( '' ) ;
#188 = SECURITY_CLASSIFICATION_LEVEL ( 'unclassified' ) ;
#189 = ADVANCED_BREP_SHAPE_REPRESENTATION ( 'dae1', ( #98, #281 ), #357 ) ;
#190 = EDGE_LOOP ( 'NONE', ( #114, #324, #316, #118 ) ) ;
#191 = ADVANCED_FACE ( 'NONE', ( #315 ), #108, .F. ) ;
#192 = APPROVAL_DATE_TIME ( #41, #155 ) ;
#193 = ORIENTED_EDGE ( 'NONE', *, *, #368, .T. ) ;
#194 = CLOSED_SHELL ( 'NONE', ( #296, #40, #274, #318, #119, #112, #96, #200, #148, #82, #191 ) ) ;
#195 = DIRECTION ( 'NONE',  ( 1.000000000000000000, 0.000000000000000000, 0.000000000000000000 ) ) ;
#196 = PRODUCT_DEFINITION ( 'NEZNÁMÝ', '', #174, #352 ) ;
#197 = VERTEX_POINT ( 'NONE', #222 ) ;
#198 = ORIENTED_EDGE ( 'NONE', *, *, #333, .T. ) ;
#199 = AXIS2_PLACEMENT_3D ( 'NONE', #26, #378, #374 ) ;
#200 = ADVANCED_FACE ( 'NONE', ( #172 ), #355, .T. ) ;
#201 = DIRECTION ( 'NONE',  ( 1.000000000000000000, 0.000000000000000000, 0.000000000000000000 ) ) ;
#202 = VERTEX_POINT ( 'NONE', #212 ) ;
#203 = DIRECTION ( 'NONE',  ( 0.000000000000000000, 0.000000000000000000, -1.000000000000000000 ) ) ;
#204 = PRODUCT_DEFINITION_SHAPE ( 'NONE', 'NONE',  #196 ) ;
#205 = PLANE ( 'NONE',  #141 ) ;
#206 = VECTOR ( 'NONE', #179, 1000.000000000000000 ) ;
#207 = DIRECTION ( 'NONE',  ( 1.000000000000000000, 0.000000000000000000, 0.000000000000000000 ) ) ;
#208 = CARTESIAN_POINT ( 'NONE',  ( 0.000000000000000000, 0.000000000000000000, 155.0000000000000000 ) ) ;
#209 = EDGE_CURVE ( 'NONE', #51, #138, #267, .T. ) ;
#210 = CARTESIAN_POINT ( 'NONE',  ( 0.000000000000000000, 0.000000000000000000, 155.0000000000000000 ) ) ;
#211 = DIRECTION ( 'NONE',  ( 1.000000000000000000, 0.000000000000000000, 0.000000000000000000 ) ) ;
#212 = CARTESIAN_POINT ( 'NONE',  ( 2.000000000000000000, 2.449293598294706414E-16, 155.0000000000000000 ) ) ;
#213 = CIRCLE ( 'NONE', #255, 7.000000000000000000 ) ;
#214 = EDGE_CURVE ( 'NONE', #138, #372, #115, .T. ) ;
#215 = LOCAL_TIME ( 17, 32, 10.00000000000000000, #312 ) ;
#216 = PERSON_AND_ORGANIZATION ( #2, #164 ) ;
#217 = DIRECTION ( 'NONE',  ( 0.000000000000000000, 0.000000000000000000, 1.000000000000000000 ) ) ;
#218 = PERSON_AND_ORGANIZATION ( #2, #164 ) ;
#219 = APPROVAL_DATE_TIME ( #160, #266 ) ;
#220 = AXIS2_PLACEMENT_3D ( 'NONE', #300, #77, #195 ) ;
#221 = EDGE_CURVE ( 'NONE', #31, #253, #21, .T. ) ;
#222 = CARTESIAN_POINT ( 'NONE',  ( -7.000000000000000000, 0.000000000000000000, 0.000000000000000000 ) ) ;
#223 = ORIENTED_EDGE ( 'NONE', *, *, #142, .F. ) ;
#224 = ORIENTED_EDGE ( 'NONE', *, *, #363, .T. ) ;
#225 = VERTEX_POINT ( 'NONE', #231 ) ;
#226 = PLANE ( 'NONE',  #110 ) ;
#227 = CYLINDRICAL_SURFACE ( 'NONE', #199, 7.000000000000000000 ) ;
#228 = ORIENTED_EDGE ( 'NONE', *, *, #333, .F. ) ;
#229 = AXIS2_PLACEMENT_3D ( 'NONE', #329, #203, #327 ) ;
#230 = CARTESIAN_POINT ( 'NONE',  ( 0.000000000000000000, 0.000000000000000000, 155.0000000000000000 ) ) ;
#231 = CARTESIAN_POINT ( 'NONE',  ( -2.000000000000000000, 0.000000000000000000, 0.000000000000000000 ) ) ;
#232 = EDGE_LOOP ( 'NONE', ( #136, #262, #283, #173 ) ) ;
#233 = FACE_OUTER_BOUND ( 'NONE', #320, .T. ) ;
#234 = EDGE_CURVE ( 'NONE', #354, #197, #375, .T. ) ;
#235 = DIRECTION ( 'NONE',  ( 1.000000000000000000, 0.000000000000000000, 0.000000000000000000 ) ) ;
#236 = PRODUCT ( 'dae1', 'dae1', '', ( #45 ) ) ;
#237 = CARTESIAN_POINT ( 'NONE',  ( 0.000000000000000000, 0.000000000000000000, 0.000000000000000000 ) ) ;
#238 = VECTOR ( 'NONE', #152, 1000.000000000000000 ) ;
#239 = AXIS2_PLACEMENT_3D ( 'NONE', #381, #86, #7 ) ;
#240 = DIRECTION ( 'NONE',  ( 0.000000000000000000, 0.000000000000000000, 1.000000000000000000 ) ) ;
#241 = FACE_OUTER_BOUND ( 'NONE', #291, .T. ) ;
#242 = DIRECTION ( 'NONE',  ( 1.000000000000000000, 0.000000000000000000, 0.000000000000000000 ) ) ;
#243 = CARTESIAN_POINT ( 'NONE',  ( -7.000000000000000000, 0.000000000000000000, 5.000000000000000000 ) ) ;
#244 = EDGE_CURVE ( 'NONE', #197, #354, #213, .T. ) ;
#245 = DATE_AND_TIME ( #13, #215 ) ;
#246 = VECTOR ( 'NONE', #1, 1000.000000000000000 ) ;
#247 = CALENDAR_DATE ( 2022, 8, 7 ) ;
#248 = PERSON_AND_ORGANIZATION ( #2, #164 ) ;
#249 =( LENGTH_UNIT ( ) NAMED_UNIT ( * ) SI_UNIT ( .MILLI., .METRE. ) );
#250 = CC_DESIGN_PERSON_AND_ORGANIZATION_ASSIGNMENT ( #335, #9, ( #79 ) ) ;
#251 = AXIS2_PLACEMENT_3D ( 'NONE', #175, #120, #88 ) ;
#252 = ORIENTED_EDGE ( 'NONE', *, *, #234, .F. ) ;
#253 = VERTEX_POINT ( 'NONE', #91 ) ;
#254 = DIRECTION ( 'NONE',  ( -1.000000000000000000, 0.000000000000000000, 0.000000000000000000 ) ) ;
#255 = AXIS2_PLACEMENT_3D ( 'NONE', #27, #94, #207 ) ;
#256 = CIRCLE ( 'NONE', #38, 4.500000000000000888 ) ;
#257 = ORIENTED_EDGE ( 'NONE', *, *, #214, .F. ) ;
#258 = ORIENTED_EDGE ( 'NONE', *, *, #16, .T. ) ;
#259 = EDGE_CURVE ( 'NONE', #253, #197, #353, .T. ) ;
#260 = ORIENTED_EDGE ( 'NONE', *, *, #10, .F. ) ;
#261 = CYLINDRICAL_SURFACE ( 'NONE', #168, 4.000000000000000000 ) ;
#262 = ORIENTED_EDGE ( 'NONE', *, *, #282, .F. ) ;
#263 = CC_DESIGN_SECURITY_CLASSIFICATION ( #79, ( #174 ) ) ;
#264 = DIRECTION ( 'NONE',  ( -1.000000000000000000, 0.000000000000000000, 0.000000000000000000 ) ) ;
#265 = ORIENTED_EDGE ( 'NONE', *, *, #65, .F. ) ;
#266 = APPROVAL ( #39, 'NEURÈENÝ' ) ;
#267 = LINE ( 'NONE', #66, #238 ) ;
#268 = CARTESIAN_POINT ( 'NONE',  ( 0.000000000000000000, 0.000000000000000000, 5.500000000000005329 ) ) ;
#269 = DIRECTION ( 'NONE',  ( 1.000000000000000000, 0.000000000000000000, 0.000000000000000000 ) ) ;
#270 = DIRECTION ( 'NONE',  ( -0.000000000000000000, -0.000000000000000000, -1.000000000000000000 ) ) ;
#271 = AXIS2_PLACEMENT_3D ( 'NONE', #268, #356, #124 ) ;
#272 = AXIS2_PLACEMENT_3D ( 'NONE', #34, #83, #269 ) ;
#273 = DIRECTION ( 'NONE',  ( -0.000000000000000000, -0.000000000000000000, -1.000000000000000000 ) ) ;
#274 = ADVANCED_FACE ( 'NONE', ( #53 ), #261, .T. ) ;
#275 = FACE_OUTER_BOUND ( 'NONE', #190, .T. ) ;
#276 = PERSON_AND_ORGANIZATION_ROLE ( 'design_supplier' ) ;
#277 = AXIS2_PLACEMENT_3D ( 'NONE', #370, #314, #289 ) ;
#278 = PERSON_AND_ORGANIZATION ( #2, #164 ) ;
#279 = DATE_TIME_ROLE ( 'classification_date' ) ;
#280 = AXIS2_PLACEMENT_3D ( 'NONE', #230, #140, #341 ) ;
#281 = AXIS2_PLACEMENT_3D ( 'NONE', #364, #308, #130 ) ;
#282 = EDGE_CURVE ( 'NONE', #253, #31, #336, .T. ) ;
#283 = ORIENTED_EDGE ( 'NONE', *, *, #259, .T. ) ;
#284 = CARTESIAN_POINT ( 'NONE',  ( 0.000000000000000000, 0.000000000000000000, 155.0000000000000000 ) ) ;
#285 = EDGE_LOOP ( 'NONE', ( #228, #351, #292, #265 ) ) ;
#286 = AXIS2_PLACEMENT_3D ( 'NONE', #156, #183, #176 ) ;
#287 = VECTOR ( 'NONE', #298, 1000.000000000000000 ) ;
#288 = VERTEX_POINT ( 'NONE', #178 ) ;
#289 = DIRECTION ( 'NONE',  ( -1.000000000000000000, 1.224646799147351482E-16, 0.000000000000000000 ) ) ;
#290 = CC_DESIGN_DATE_AND_TIME_ASSIGNMENT ( #245, #279, ( #79 ) ) ;
#291 = EDGE_LOOP ( 'NONE', ( #87, #24 ) ) ;
#292 = ORIENTED_EDGE ( 'NONE', *, *, #214, .T. ) ;
#293 = FACE_OUTER_BOUND ( 'NONE', #232, .T. ) ;
#294 = DIRECTION ( 'NONE',  ( 0.000000000000000000, 0.000000000000000000, 1.000000000000000000 ) ) ;
#295 = CARTESIAN_POINT ( 'NONE',  ( -2.000000000000000000, 0.000000000000000000, 155.0000000000000000 ) ) ;
#296 = ADVANCED_FACE ( 'NONE', ( #233 ), #360, .F. ) ;
#297 = APPROVAL_PERSON_ORGANIZATION ( #42, #266, #311 ) ;
#298 = DIRECTION ( 'NONE',  ( -0.000000000000000000, -0.000000000000000000, -1.000000000000000000 ) ) ;
#299 = CARTESIAN_POINT ( 'NONE',  ( -4.000000000000000000, 0.000000000000000000, 155.0000000000000000 ) ) ;
#300 = CARTESIAN_POINT ( 'NONE',  ( 0.000000000000000000, 0.000000000000000000, 0.000000000000000000 ) ) ;
#301 = CARTESIAN_POINT ( 'NONE',  ( 0.000000000000000000, 0.000000000000000000, 5.500000000000005329 ) ) ;
#302 = LINE ( 'NONE', #299, #365 ) ;
#303 = CARTESIAN_POINT ( 'NONE',  ( 0.000000000000000000, 0.000000000000000000, 5.500000000000005329 ) ) ;
#304 = CARTESIAN_POINT ( 'NONE',  ( 4.000000000000000000, 4.898587196589412829E-16, 155.0000000000000000 ) ) ;
#305 = AXIS2_PLACEMENT_3D ( 'NONE', #301, #127, #358 ) ;
#306 =( NAMED_UNIT ( * ) SI_UNIT ( $, .STERADIAN. ) SOLID_ANGLE_UNIT ( ) );
#307 = CALENDAR_DATE ( 2022, 8, 7 ) ;
#308 = DIRECTION ( 'NONE',  ( 0.000000000000000000, 0.000000000000000000, 1.000000000000000000 ) ) ;
#309 = AXIS2_PLACEMENT_3D ( 'NONE', #95, #37, #211 ) ;
#310 = CC_DESIGN_APPROVAL ( #266, ( #174 ) ) ;
#311 = APPROVAL_ROLE ( '' ) ;
#312 = COORDINATED_UNIVERSAL_TIME_OFFSET ( 1, 0, .AHEAD. ) ;
#313 = ORIENTED_EDGE ( 'NONE', *, *, #107, .F. ) ;
#314 = DIRECTION ( 'NONE',  ( 1.224646799147353207E-16, 1.000000000000000000, -0.000000000000000000 ) ) ;
#315 = FACE_OUTER_BOUND ( 'NONE', #50, .T. ) ;
#316 = ORIENTED_EDGE ( 'NONE', *, *, #16, .F. ) ;
#317 = ORIENTED_EDGE ( 'NONE', *, *, #3, .F. ) ;
#318 = ADVANCED_FACE ( 'NONE', ( #62 ), #97, .T. ) ;
#319 = AXIS2_PLACEMENT_3D ( 'NONE', #123, #325, #235 ) ;
#320 = EDGE_LOOP ( 'NONE', ( #76, #171, #346, #317 ) ) ;
#321 = ORIENTED_EDGE ( 'NONE', *, *, #209, .F. ) ;
#322 = UNCERTAINTY_MEASURE_WITH_UNIT (LENGTH_MEASURE( 1.000000000000000082E-05 ), #249, 'distance_accuracy_value', 'NONE');
#323 = CARTESIAN_POINT ( 'NONE',  ( 0.000000000000000000, 0.000000000000000000, 5.000000000000000000 ) ) ;
#324 = ORIENTED_EDGE ( 'NONE', *, *, #142, .T. ) ;
#325 = DIRECTION ( 'NONE',  ( 0.000000000000000000, 0.000000000000000000, 1.000000000000000000 ) ) ;
#326 = DIRECTION ( 'NONE',  ( 0.000000000000000000, 0.000000000000000000, 1.000000000000000000 ) ) ;
#327 = DIRECTION ( 'NONE',  ( -1.000000000000000000, 0.000000000000000000, 0.000000000000000000 ) ) ;
#328 = APPLICATION_CONTEXT ( 'configuration controlled 3d designs of mechanical parts and assemblies' ) ;
#329 = CARTESIAN_POINT ( 'NONE',  ( 0.000000000000000000, 0.000000000000000000, 155.0000000000000000 ) ) ;
#330 = LINE ( 'NONE', #151, #246 ) ;
#331 = CARTESIAN_POINT ( 'NONE',  ( 0.000000000000000000, 0.000000000000000000, 155.0000000000000000 ) ) ;
#332 = APPROVAL_STATUS ( 'not_yet_approved' ) ;
#333 = EDGE_CURVE ( 'NONE', #51, #340, #105, .T. ) ;
#334 = DIRECTION ( 'NONE',  ( 1.000000000000000000, 0.000000000000000000, -0.000000000000000000 ) ) ;
#335 = PERSON_AND_ORGANIZATION ( #2, #164 ) ;
#336 = CIRCLE ( 'NONE', #239, 7.000000000000000000 ) ;
#337 = LOCAL_TIME ( 17, 32, 10.00000000000000000, #101 ) ;
#338 = EDGE_CURVE ( 'NONE', #369, #81, #256, .T. ) ;
#339 = APPROVAL_DATE_TIME ( #106, #85 ) ;
#340 = VERTEX_POINT ( 'NONE', #4 ) ;
#341 = DIRECTION ( 'NONE',  ( 1.000000000000000000, 0.000000000000000000, 0.000000000000000000 ) ) ;
#342 = CC_DESIGN_APPROVAL ( #85, ( #196 ) ) ;
#343 = ORIENTED_EDGE ( 'NONE', *, *, #107, .T. ) ;
#344 = ORIENTED_EDGE ( 'NONE', *, *, #58, .F. ) ;
#345 = APPLICATION_CONTEXT ( 'configuration controlled 3d designs of mechanical parts and assemblies' ) ;
#346 = ORIENTED_EDGE ( 'NONE', *, *, #10, .T. ) ;
#347 = AXIS2_PLACEMENT_3D ( 'NONE', #284, #19, #254 ) ;
#348 = APPROVAL_PERSON_ORGANIZATION ( #216, #155, #68 ) ;
#349 = EDGE_CURVE ( 'NONE', #202, #288, #44, .T. ) ;
#350 = DIRECTION ( 'NONE',  ( -1.000000000000000000, 0.000000000000000000, 0.000000000000000000 ) ) ;
#351 = ORIENTED_EDGE ( 'NONE', *, *, #209, .T. ) ;
#352 = DESIGN_CONTEXT ( 'detailed design', #345, 'design' ) ;
#353 = LINE ( 'NONE', #243, #47 ) ;
#354 = VERTEX_POINT ( 'NONE', #126 ) ;
#355 = CYLINDRICAL_SURFACE ( 'NONE', #17, 4.000000000000000000 ) ;
#356 = DIRECTION ( 'NONE',  ( 0.000000000000000000, 0.000000000000000000, 1.000000000000000000 ) ) ;
#357 =( GEOMETRIC_REPRESENTATION_CONTEXT ( 3 ) GLOBAL_UNCERTAINTY_ASSIGNED_CONTEXT ( ( #322 ) ) GLOBAL_UNIT_ASSIGNED_CONTEXT ( ( #249, #159, #306 ) ) REPRESENTATION_CONTEXT ( 'NONE', 'WORKASPACE' ) );
#358 = DIRECTION ( 'NONE',  ( 1.000000000000000000, 0.000000000000000000, 0.000000000000000000 ) ) ;
#359 = FACE_OUTER_BOUND ( 'NONE', #143, .T. ) ;
#360 = CYLINDRICAL_SURFACE ( 'NONE', #229, 2.000000000000000000 ) ;
#361 = PERSON_AND_ORGANIZATION ( #2, #164 ) ;
#362 = APPROVAL_PERSON_ORGANIZATION ( #14, #85, #187 ) ;
#363 = EDGE_CURVE ( 'NONE', #31, #354, #56, .T. ) ;
#364 = CARTESIAN_POINT ( 'NONE',  ( 0.000000000000000000, 0.000000000000000000, 0.000000000000000000 ) ) ;
#365 = VECTOR ( 'NONE', #270, 1000.000000000000000 ) ;
#366 = COORDINATED_UNIVERSAL_TIME_OFFSET ( 1, 0, .AHEAD. ) ;
#367 = AXIS2_PLACEMENT_3D ( 'NONE', #303, #294, #379 ) ;
#368 = EDGE_CURVE ( 'NONE', #372, #138, #125, .T. ) ;
#369 = VERTEX_POINT ( 'NONE', #180 ) ;
#370 = CARTESIAN_POINT ( 'NONE',  ( -4.500000000000000888, 5.510910596163089556E-16, 5.500000000000005329 ) ) ;
#371 = EDGE_LOOP ( 'NONE', ( #258, #49 ) ) ;
#372 = VERTEX_POINT ( 'NONE', #36 ) ;
#373 = DIRECTION ( 'NONE',  ( 0.000000000000000000, 0.000000000000000000, 1.000000000000000000 ) ) ;
#374 = DIRECTION ( 'NONE',  ( -1.000000000000000000, 0.000000000000000000, 0.000000000000000000 ) ) ;
#375 = CIRCLE ( 'NONE', #286, 7.000000000000000000 ) ;
#376 = DIRECTION ( 'NONE',  ( -1.000000000000000000, 0.000000000000000000, 0.000000000000000000 ) ) ;
#377 = ORIENTED_EDGE ( 'NONE', *, *, #234, .T. ) ;
#378 = DIRECTION ( 'NONE',  ( -0.000000000000000000, -0.000000000000000000, -1.000000000000000000 ) ) ;
#379 = DIRECTION ( 'NONE',  ( 1.000000000000000000, 0.000000000000000000, 0.000000000000000000 ) ) ;
#380 = EDGE_LOOP ( 'NONE', ( #74, #224, #377, #166 ) ) ;
#381 = CARTESIAN_POINT ( 'NONE',  ( 0.000000000000000000, 0.000000000000000000, 5.000000000000000000 ) ) ;
ENDSEC;
END-ISO-10303-21;
