ISO-10303-21;
HEADER;
FILE_DESCRIPTION (( 'STEP AP203' ),
    '1' );
FILE_NAME ('edda.STEP',
    '2022-07-08T15:04:15',
    ( '' ),
    ( '' ),
    'SwSTEP 2.0',
    'SolidWorks 2019',
    '' );
FILE_SCHEMA (( 'CONFIG_CONTROL_DESIGN' ));
ENDSEC;

DATA;
#1 = DIRECTION ( 'NONE',  ( 1.000000000000000000, 0.000000000000000000, -0.000000000000000000 ) ) ;
#2 = VERTEX_POINT ( 'NONE', #211 ) ;
#3 = DIRECTION ( 'NONE',  ( -1.000000000000000000, 0.000000000000000000, 0.000000000000000000 ) ) ;
#4 = ORIENTED_EDGE ( 'NONE', *, *, #37, .F. ) ;
#5 = EDGE_CURVE ( 'NONE', #298, #264, #11, .T. ) ;
#6 = DIRECTION ( 'NONE',  ( 1.000000000000000000, 0.000000000000000000, 0.000000000000000000 ) ) ;
#7 = VERTEX_POINT ( 'NONE', #324 ) ;
#8 = CIRCLE ( 'NONE', #134, 0.5000000000000004441 ) ;
#9 = PERSON_AND_ORGANIZATION ( #364, #325 ) ;
#10 = EDGE_LOOP ( 'NONE', ( #39, #259, #377, #4 ) ) ;
#11 = CIRCLE ( 'NONE', #216, 5.000000000000000000 ) ;
#12 = SECURITY_CLASSIFICATION_LEVEL ( 'unclassified' ) ;
#13 = EDGE_CURVE ( 'NONE', #94, #7, #69, .T. ) ;
#14 = APPLICATION_PROTOCOL_DEFINITION ( 'international standard', 'config_control_design', 1994, #330 ) ;
#15 = EDGE_CURVE ( 'NONE', #60, #2, #57, .T. ) ;
#16 = CYLINDRICAL_SURFACE ( 'NONE', #190, 5.000000000000000000 ) ;
#17 = CIRCLE ( 'NONE', #162, 5.000000000000000000 ) ;
#18 = DIRECTION ( 'NONE',  ( 1.000000000000000000, 0.000000000000000000, 0.000000000000000000 ) ) ;
#19 = PERSON_AND_ORGANIZATION ( #364, #325 ) ;
#20 = CIRCLE ( 'NONE', #172, 5.000000000000000000 ) ;
#21 = DIRECTION ( 'NONE',  ( 0.000000000000000000, 0.000000000000000000, 1.000000000000000000 ) ) ;
#22 = DIRECTION ( 'NONE',  ( 0.000000000000000000, 0.000000000000000000, 1.000000000000000000 ) ) ;
#23 = APPROVAL_ROLE ( '' ) ;
#24 = CIRCLE ( 'NONE', #75, 8.000000000000000000 ) ;
#25 = FACE_BOUND ( 'NONE', #381, .T. ) ;
#26 = PRODUCT_DEFINITION_SHAPE ( 'NONE', 'NONE',  #316 ) ;
#27 = CARTESIAN_POINT ( 'NONE',  ( 0.000000000000000000, 0.000000000000000000, 5.000000000000000000 ) ) ;
#28 = SHAPE_DEFINITION_REPRESENTATION ( #26, #371 ) ;
#29 = EDGE_CURVE ( 'NONE', #327, #298, #158, .T. ) ;
#30 = DIRECTION ( 'NONE',  ( 0.000000000000000000, 0.000000000000000000, 1.000000000000000000 ) ) ;
#31 = PLANE ( 'NONE',  #63 ) ;
#32 = AXIS2_PLACEMENT_3D ( 'NONE', #160, #283, #18 ) ;
#33 = ORIENTED_EDGE ( 'NONE', *, *, #212, .T. ) ;
#34 = DIRECTION ( 'NONE',  ( 0.000000000000000000, 0.000000000000000000, 1.000000000000000000 ) ) ;
#35 = AXIS2_PLACEMENT_3D ( 'NONE', #342, #305, #306 ) ;
#36 = ORIENTED_EDGE ( 'NONE', *, *, #5, .F. ) ;
#37 = EDGE_CURVE ( 'NONE', #149, #145, #187, .T. ) ;
#38 = CARTESIAN_POINT ( 'NONE',  ( 0.000000000000000000, 0.000000000000000000, 5.000000000000000000 ) ) ;
#39 = ORIENTED_EDGE ( 'NONE', *, *, #92, .F. ) ;
#40 = UNCERTAINTY_MEASURE_WITH_UNIT (LENGTH_MEASURE( 1.000000000000000082E-05 ), #368, 'distance_accuracy_value', 'NONE');
#41 = COORDINATED_UNIVERSAL_TIME_OFFSET ( 1, 0, .AHEAD. ) ;
#42 = CLOSED_SHELL ( 'NONE', ( #295, #287, #205, #338, #273, #256, #68, #78, #328, #362, #323 ) ) ;
#43 = DATE_TIME_ROLE ( 'classification_date' ) ;
#44 = PERSON_AND_ORGANIZATION ( #364, #325 ) ;
#45 = AXIS2_PLACEMENT_3D ( 'NONE', #314, #139, #261 ) ;
#46 = EDGE_LOOP ( 'NONE', ( #318, #183 ) ) ;
#47 = ORIENTED_EDGE ( 'NONE', *, *, #15, .F. ) ;
#48 = DIRECTION ( 'NONE',  ( -0.000000000000000000, -0.000000000000000000, -1.000000000000000000 ) ) ;
#49 = COORDINATED_UNIVERSAL_TIME_OFFSET ( 1, 0, .AHEAD. ) ;
#50 = AXIS2_PLACEMENT_3D ( 'NONE', #231, #227, #228 ) ;
#51 = FACE_OUTER_BOUND ( 'NONE', #301, .T. ) ;
#52 = CARTESIAN_POINT ( 'NONE',  ( -2.750000000000000000, 0.000000000000000000, 455.0000000000000000 ) ) ;
#53 = CARTESIAN_POINT ( 'NONE',  ( 0.000000000000000000, 0.000000000000000000, 455.0000000000000000 ) ) ;
#54 = FACE_OUTER_BOUND ( 'NONE', #127, .T. ) ;
#55 = EDGE_CURVE ( 'NONE', #145, #7, #114, .T. ) ;
#56 = PLANE ( 'NONE',  #350 ) ;
#57 = CIRCLE ( 'NONE', #313, 2.750000000000000000 ) ;
#58 = ORIENTED_EDGE ( 'NONE', *, *, #5, .T. ) ;
#59 = DIRECTION ( 'NONE',  ( -1.000000000000000000, 0.000000000000000000, 0.000000000000000000 ) ) ;
#60 = VERTEX_POINT ( 'NONE', #194 ) ;
#61 = EDGE_CURVE ( 'NONE', #327, #97, #20, .T. ) ;
#62 = DIRECTION ( 'NONE',  ( 0.000000000000000000, 0.000000000000000000, -1.000000000000000000 ) ) ;
#63 = AXIS2_PLACEMENT_3D ( 'NONE', #258, #144, #1 ) ;
#64 = ORIENTED_EDGE ( 'NONE', *, *, #138, .T. ) ;
#65 = CARTESIAN_POINT ( 'NONE',  ( -5.500000000000000000, 6.735557395310442023E-16, 5.500000000000005329 ) ) ;
#66 = PERSON_AND_ORGANIZATION_ROLE ( 'creator' ) ;
#67 = EDGE_LOOP ( 'NONE', ( #235, #125, #291, #174 ) ) ;
#68 = ADVANCED_FACE ( 'NONE', ( #25, #222 ), #131, .F. ) ;
#69 = LINE ( 'NONE', #278, #307 ) ;
#70 = AXIS2_PLACEMENT_3D ( 'NONE', #89, #289, #59 ) ;
#71 = CC_DESIGN_DATE_AND_TIME_ASSIGNMENT ( #355, #43, ( #343 ) ) ;
#72 = ORIENTED_EDGE ( 'NONE', *, *, #104, .T. ) ;
#73 = APPLICATION_PROTOCOL_DEFINITION ( 'international standard', 'config_control_design', 1994, #341 ) ;
#74 = EDGE_LOOP ( 'NONE', ( #238, #166, #266, #274 ) ) ;
#75 = AXIS2_PLACEMENT_3D ( 'NONE', #223, #236, #269 ) ;
#76 = ORIENTED_EDGE ( 'NONE', *, *, #276, .F. ) ;
#77 = CARTESIAN_POINT ( 'NONE',  ( -8.000000000000000000, 0.000000000000000000, 0.000000000000000000 ) ) ;
#78 = ADVANCED_FACE ( 'NONE', ( #51 ), #16, .T. ) ;
#79 = PERSON_AND_ORGANIZATION_ROLE ( 'creator' ) ;
#80 = DIRECTION ( 'NONE',  ( -0.000000000000000000, -0.000000000000000000, -1.000000000000000000 ) ) ;
#81 = CIRCLE ( 'NONE', #45, 2.750000000000000000 ) ;
#82 = LOCAL_TIME ( 17, 4, 15.00000000000000000, #297 ) ;
#83 = DIRECTION ( 'NONE',  ( 0.000000000000000000, 0.000000000000000000, 1.000000000000000000 ) ) ;
#84 = AXIS2_PLACEMENT_3D ( 'NONE', #189, #363, #369 ) ;
#85 = DIRECTION ( 'NONE',  ( -0.000000000000000000, -0.000000000000000000, -1.000000000000000000 ) ) ;
#86 = PRODUCT ( 'edda', 'edda', '', ( #99 ) ) ;
#87 = DIRECTION ( 'NONE',  ( 1.000000000000000000, 0.000000000000000000, 0.000000000000000000 ) ) ;
#88 = EDGE_CURVE ( 'NONE', #116, #361, #360, .T. ) ;
#89 = CARTESIAN_POINT ( 'NONE',  ( 0.000000000000000000, 0.000000000000000000, 455.0000000000000000 ) ) ;
#90 = EDGE_LOOP ( 'NONE', ( #208, #103 ) ) ;
#91 = CARTESIAN_POINT ( 'NONE',  ( -5.000000000000000000, 0.000000000000000000, 5.500000000000005329 ) ) ;
#92 = EDGE_CURVE ( 'NONE', #94, #149, #241, .T. ) ;
#93 = CARTESIAN_POINT ( 'NONE',  ( 5.500000000000000000, 0.000000000000000000, 5.500000000000005329 ) ) ;
#94 = VERTEX_POINT ( 'NONE', #130 ) ;
#95 = FACE_BOUND ( 'NONE', #90, .T. ) ;
#96 = AXIS2_PLACEMENT_3D ( 'NONE', #102, #148, #178 ) ;
#97 = VERTEX_POINT ( 'NONE', #106 ) ;
#98 = DIRECTION ( 'NONE',  ( 1.000000000000000000, 0.000000000000000000, 0.000000000000000000 ) ) ;
#99 = MECHANICAL_CONTEXT ( 'NONE', #341, 'mechanical' ) ;
#100 = DIRECTION ( 'NONE',  ( 1.000000000000000000, 0.000000000000000000, 0.000000000000000000 ) ) ;
#101 = LOCAL_TIME ( 17, 4, 15.00000000000000000, #225 ) ;
#102 = CARTESIAN_POINT ( 'NONE',  ( 0.000000000000000000, 0.000000000000000000, 5.500000000000005329 ) ) ;
#103 = ORIENTED_EDGE ( 'NONE', *, *, #88, .T. ) ;
#104 = EDGE_CURVE ( 'NONE', #232, #2, #275, .T. ) ;
#105 = ORIENTED_EDGE ( 'NONE', *, *, #215, .T. ) ;
#106 = CARTESIAN_POINT ( 'NONE',  ( 5.000000000000000000, 6.123233995736766282E-16, 455.0000000000000000 ) ) ;
#107 = CARTESIAN_POINT ( 'NONE',  ( 5.000000000000000000, 6.123233995736766282E-16, 455.0000000000000000 ) ) ;
#108 = DIRECTION ( 'NONE',  ( 1.000000000000000000, 0.000000000000000000, 0.000000000000000000 ) ) ;
#109 = CARTESIAN_POINT ( 'NONE',  ( -8.000000000000000000, 0.000000000000000000, 5.000000000000000000 ) ) ;
#110 = DIRECTION ( 'NONE',  ( -0.000000000000000000, -0.000000000000000000, -1.000000000000000000 ) ) ;
#111 = CYLINDRICAL_SURFACE ( 'NONE', #70, 2.750000000000000000 ) ;
#112 = ORIENTED_EDGE ( 'NONE', *, *, #128, .F. ) ;
#113 = FACE_OUTER_BOUND ( 'NONE', #10, .T. ) ;
#114 = CIRCLE ( 'NONE', #247, 8.000000000000000000 ) ;
#115 = CARTESIAN_POINT ( 'NONE',  ( -2.750000000000000000, 0.000000000000000000, 455.0000000000000000 ) ) ;
#116 = VERTEX_POINT ( 'NONE', #129 ) ;
#117 = CARTESIAN_POINT ( 'NONE',  ( 5.500000000000000000, 0.000000000000000000, 5.000000000000002665 ) ) ;
#118 = FACE_OUTER_BOUND ( 'NONE', #315, .T. ) ;
#119 = APPROVAL_PERSON_ORGANIZATION ( #245, #374, #268 ) ;
#120 = ORIENTED_EDGE ( 'NONE', *, *, #164, .T. ) ;
#121 = PERSON_AND_ORGANIZATION_ROLE ( 'classification_officer' ) ;
#122 = ORIENTED_EDGE ( 'NONE', *, *, #29, .T. ) ;
#123 = CALENDAR_DATE ( 2022, 8, 7 ) ;
#124 = APPROVAL_DATE_TIME ( #296, #280 ) ;
#125 = ORIENTED_EDGE ( 'NONE', *, *, #128, .T. ) ;
#126 = ORIENTED_EDGE ( 'NONE', *, *, #61, .F. ) ;
#127 = EDGE_LOOP ( 'NONE', ( #36, #352, #332, #76 ) ) ;
#128 = EDGE_CURVE ( 'NONE', #329, #60, #159, .T. ) ;
#129 = CARTESIAN_POINT ( 'NONE',  ( -5.500000000000000000, 6.735557395310442023E-16, 5.000000000000002665 ) ) ;
#130 = CARTESIAN_POINT ( 'NONE',  ( 8.000000000000000000, 9.797174393178825657E-16, 5.000000000000000000 ) ) ;
#131 = PLANE ( 'NONE',  #210 ) ;
#132 = AXIS2_PLACEMENT_3D ( 'NONE', #249, #22, #108 ) ;
#133 = CALENDAR_DATE ( 2022, 8, 7 ) ;
#134 = AXIS2_PLACEMENT_3D ( 'NONE', #93, #317, #203 ) ;
#135 = CARTESIAN_POINT ( 'NONE',  ( 2.750000000000000000, 3.367778697655220519E-16, 455.0000000000000000 ) ) ;
#136 = PRODUCT_RELATED_PRODUCT_CATEGORY ( 'detail', '', ( #86 ) ) ;
#137 = DIRECTION ( 'NONE',  ( -0.000000000000000000, -0.000000000000000000, -1.000000000000000000 ) ) ;
#138 = EDGE_CURVE ( 'NONE', #149, #94, #372, .T. ) ;
#139 = DIRECTION ( 'NONE',  ( 0.000000000000000000, 0.000000000000000000, 1.000000000000000000 ) ) ;
#140 = ORIENTED_EDGE ( 'NONE', *, *, #370, .F. ) ;
#141 = CC_DESIGN_APPROVAL ( #280, ( #316 ) ) ;
#142 = FACE_BOUND ( 'NONE', #286, .T. ) ;
#143 = ORIENTED_EDGE ( 'NONE', *, *, #55, .F. ) ;
#144 = DIRECTION ( 'NONE',  ( 0.000000000000000000, 0.000000000000000000, 1.000000000000000000 ) ) ;
#145 = VERTEX_POINT ( 'NONE', #77 ) ;
#146 = CARTESIAN_POINT ( 'NONE',  ( 0.000000000000000000, 0.000000000000000000, 5.000000000000000000 ) ) ;
#147 = AXIS2_PLACEMENT_3D ( 'NONE', #378, #62, #170 ) ;
#148 = DIRECTION ( 'NONE',  ( 0.000000000000000000, 0.000000000000000000, 1.000000000000000000 ) ) ;
#149 = VERTEX_POINT ( 'NONE', #109 ) ;
#150 = DATE_AND_TIME ( #177, #300 ) ;
#151 = VECTOR ( 'NONE', #85, 1000.000000000000000 ) ;
#152 = PERSON_AND_ORGANIZATION ( #364, #325 ) ;
#153 = PERSON_AND_ORGANIZATION ( #364, #325 ) ;
#154 = CIRCLE ( 'NONE', #331, 2.750000000000000000 ) ;
#155 = DIRECTION ( 'NONE',  ( -0.000000000000000000, -0.000000000000000000, -1.000000000000000000 ) ) ;
#156 = FACE_OUTER_BOUND ( 'NONE', #171, .T. ) ;
#157 = COORDINATED_UNIVERSAL_TIME_OFFSET ( 1, 0, .AHEAD. ) ;
#158 = LINE ( 'NONE', #336, #151 ) ;
#159 = LINE ( 'NONE', #135, #358 ) ;
#160 = CARTESIAN_POINT ( 'NONE',  ( 0.000000000000000000, 0.000000000000000000, 0.000000000000000000 ) ) ;
#161 = CC_DESIGN_PERSON_AND_ORGANIZATION_ASSIGNMENT ( #9, #186, ( #220 ) ) ;
#162 = AXIS2_PLACEMENT_3D ( 'NONE', #173, #34, #351 ) ;
#163 = FACE_OUTER_BOUND ( 'NONE', #46, .T. ) ;
#164 = EDGE_CURVE ( 'NONE', #329, #232, #154, .T. ) ;
#165 = FACE_OUTER_BOUND ( 'NONE', #356, .T. ) ;
#166 = ORIENTED_EDGE ( 'NONE', *, *, #138, .F. ) ;
#167 = CARTESIAN_POINT ( 'NONE',  ( -5.000000000000000000, 0.000000000000000000, 455.0000000000000000 ) ) ;
#168 = TOROIDAL_SURFACE ( 'NONE', #260, 5.500000000000000000, 0.5000000000000000000 ) ;
#169 = AXIS2_PLACEMENT_3D ( 'NONE', #209, #326, #321 ) ;
#170 = DIRECTION ( 'NONE',  ( -1.000000000000000000, 0.000000000000000000, 0.000000000000000000 ) ) ;
#171 = EDGE_LOOP ( 'NONE', ( #344, #33, #105, #213 ) ) ;
#172 = AXIS2_PLACEMENT_3D ( 'NONE', #214, #309, #333 ) ;
#173 = CARTESIAN_POINT ( 'NONE',  ( 0.000000000000000000, 0.000000000000000000, 455.0000000000000000 ) ) ;
#174 = ORIENTED_EDGE ( 'NONE', *, *, #104, .F. ) ;
#175 = CALENDAR_DATE ( 2022, 8, 7 ) ;
#176 = AXIS2_PLACEMENT_3D ( 'NONE', #265, #198, #98 ) ;
#177 = CALENDAR_DATE ( 2022, 8, 7 ) ;
#178 = DIRECTION ( 'NONE',  ( 1.000000000000000000, 0.000000000000000000, 0.000000000000000000 ) ) ;
#179 = APPROVAL ( #191, 'NEURÈENÝ' ) ;
#180 = APPROVAL_ROLE ( '' ) ;
#181 = ORIENTED_EDGE ( 'NONE', *, *, #276, .T. ) ;
#182 = CC_DESIGN_APPROVAL ( #179, ( #343 ) ) ;
#183 = ORIENTED_EDGE ( 'NONE', *, *, #230, .T. ) ;
#184 = EDGE_CURVE ( 'NONE', #2, #60, #379, .T. ) ;
#185 = CARTESIAN_POINT ( 'NONE',  ( 0.000000000000000000, 0.000000000000000000, 455.0000000000000000 ) ) ;
#186 = PERSON_AND_ORGANIZATION_ROLE ( 'design_supplier' ) ;
#187 = LINE ( 'NONE', #255, #292 ) ;
#188 = APPROVAL_PERSON_ORGANIZATION ( #152, #179, #23 ) ;
#189 = CARTESIAN_POINT ( 'NONE',  ( 0.000000000000000000, 0.000000000000000000, 5.000000000000000000 ) ) ;
#190 = AXIS2_PLACEMENT_3D ( 'NONE', #53, #155, #192 ) ;
#191 = APPROVAL_STATUS ( 'not_yet_approved' ) ;
#192 = DIRECTION ( 'NONE',  ( -1.000000000000000000, 0.000000000000000000, 0.000000000000000000 ) ) ;
#193 = DATE_AND_TIME ( #133, #101 ) ;
#194 = CARTESIAN_POINT ( 'NONE',  ( 2.750000000000000000, 3.367778697655220519E-16, 0.000000000000000000 ) ) ;
#195 = DIRECTION ( 'NONE',  ( -1.000000000000000000, 0.000000000000000000, 0.000000000000000000 ) ) ;
#196 = EDGE_LOOP ( 'NONE', ( #262, #200, #181, #348 ) ) ;
#197 = CC_DESIGN_PERSON_AND_ORGANIZATION_ASSIGNMENT ( #153, #66, ( #316 ) ) ;
#198 = DIRECTION ( 'NONE',  ( 0.000000000000000000, 0.000000000000000000, 1.000000000000000000 ) ) ;
#199 = CARTESIAN_POINT ( 'NONE',  ( 5.000000000000000000, 6.123233995736766282E-16, 5.500000000000005329 ) ) ;
#200 = ORIENTED_EDGE ( 'NONE', *, *, #215, .F. ) ;
#201 = CYLINDRICAL_SURFACE ( 'NONE', #252, 8.000000000000000000 ) ;
#202 = DESIGN_CONTEXT ( 'detailed design', #330, 'design' ) ;
#203 = DIRECTION ( 'NONE',  ( 0.000000000000000000, 0.000000000000000000, -1.000000000000000000 ) ) ;
#204 = CALENDAR_DATE ( 2022, 8, 7 ) ;
#205 = ADVANCED_FACE ( 'NONE', ( #156 ), #221, .T. ) ;
#206 = CIRCLE ( 'NONE', #50, 5.500000000000000000 ) ;
#207 =( NAMED_UNIT ( * ) SI_UNIT ( $, .STERADIAN. ) SOLID_ANGLE_UNIT ( ) );
#208 = ORIENTED_EDGE ( 'NONE', *, *, #243, .T. ) ;
#209 = CARTESIAN_POINT ( 'NONE',  ( 0.000000000000000000, 0.000000000000000000, 0.000000000000000000 ) ) ;
#210 = AXIS2_PLACEMENT_3D ( 'NONE', #251, #244, #373 ) ;
#211 = CARTESIAN_POINT ( 'NONE',  ( -2.750000000000000000, 0.000000000000000000, 0.000000000000000000 ) ) ;
#212 = EDGE_CURVE ( 'NONE', #97, #264, #366, .T. ) ;
#213 = ORIENTED_EDGE ( 'NONE', *, *, #29, .F. ) ;
#214 = CARTESIAN_POINT ( 'NONE',  ( 0.000000000000000000, 0.000000000000000000, 455.0000000000000000 ) ) ;
#215 = EDGE_CURVE ( 'NONE', #264, #298, #267, .T. ) ;
#216 = AXIS2_PLACEMENT_3D ( 'NONE', #242, #354, #100 ) ;
#217 = APPROVAL_DATE_TIME ( #279, #374 ) ;
#218 = DIRECTION ( 'NONE',  ( -0.000000000000000000, -0.000000000000000000, -1.000000000000000000 ) ) ;
#219 = DIRECTION ( 'NONE',  ( 1.000000000000000000, 0.000000000000000000, 0.000000000000000000 ) ) ;
#220 = PRODUCT_DEFINITION_FORMATION_WITH_SPECIFIED_SOURCE ( 'LIBOVOLNÝ', '', #86, .NOT_KNOWN. ) ;
#221 = CYLINDRICAL_SURFACE ( 'NONE', #277, 5.000000000000000000 ) ;
#222 = FACE_OUTER_BOUND ( 'NONE', #320, .T. ) ;
#223 = CARTESIAN_POINT ( 'NONE',  ( 0.000000000000000000, 0.000000000000000000, 0.000000000000000000 ) ) ;
#224 = CIRCLE ( 'NONE', #299, 0.5000000000000004441 ) ;
#225 = COORDINATED_UNIVERSAL_TIME_OFFSET ( 1, 0, .AHEAD. ) ;
#226 = CC_DESIGN_SECURITY_CLASSIFICATION ( #343, ( #220 ) ) ;
#227 = DIRECTION ( 'NONE',  ( -0.000000000000000000, -0.000000000000000000, -1.000000000000000000 ) ) ;
#228 = DIRECTION ( 'NONE',  ( 1.000000000000000000, 0.000000000000000000, 0.000000000000000000 ) ) ;
#229 = ORIENTED_EDGE ( 'NONE', *, *, #164, .F. ) ;
#230 = EDGE_CURVE ( 'NONE', #97, #327, #17, .T. ) ;
#231 = CARTESIAN_POINT ( 'NONE',  ( 0.000000000000000000, 0.000000000000000000, 5.000000000000000000 ) ) ;
#232 = VERTEX_POINT ( 'NONE', #115 ) ;
#233 = CC_DESIGN_APPROVAL ( #374, ( #220 ) ) ;
#234 = DIRECTION ( 'NONE',  ( -1.000000000000000000, 1.224646799147351482E-16, 0.000000000000000000 ) ) ;
#235 = ORIENTED_EDGE ( 'NONE', *, *, #302, .T. ) ;
#236 = DIRECTION ( 'NONE',  ( 0.000000000000000000, 0.000000000000000000, 1.000000000000000000 ) ) ;
#237 = EDGE_CURVE ( 'NONE', #298, #116, #224, .T. ) ;
#238 = ORIENTED_EDGE ( 'NONE', *, *, #13, .F. ) ;
#239 =( NAMED_UNIT ( * ) PLANE_ANGLE_UNIT ( ) SI_UNIT ( $, .RADIAN. ) );
#240 = VECTOR ( 'NONE', #218, 1000.000000000000000 ) ;
#241 = CIRCLE ( 'NONE', #84, 8.000000000000000000 ) ;
#242 = CARTESIAN_POINT ( 'NONE',  ( 0.000000000000000000, 0.000000000000000000, 5.500000000000005329 ) ) ;
#243 = EDGE_CURVE ( 'NONE', #361, #116, #206, .T. ) ;
#244 = DIRECTION ( 'NONE',  ( 0.000000000000000000, 0.000000000000000000, 1.000000000000000000 ) ) ;
#245 = PERSON_AND_ORGANIZATION ( #364, #325 ) ;
#246 = DIRECTION ( 'NONE',  ( -1.000000000000000000, 0.000000000000000000, 0.000000000000000000 ) ) ;
#247 = AXIS2_PLACEMENT_3D ( 'NONE', #308, #83, #87 ) ;
#248 = PERSON_AND_ORGANIZATION_ROLE ( 'design_owner' ) ;
#249 = CARTESIAN_POINT ( 'NONE',  ( 0.000000000000000000, 0.000000000000000000, 5.000000000000000000 ) ) ;
#250 = CC_DESIGN_PERSON_AND_ORGANIZATION_ASSIGNMENT ( #304, #121, ( #343 ) ) ;
#251 = CARTESIAN_POINT ( 'NONE',  ( 0.000000000000000000, 0.000000000000000000, 0.000000000000000000 ) ) ;
#252 = AXIS2_PLACEMENT_3D ( 'NONE', #146, #347, #195 ) ;
#253 = APPROVAL_PERSON_ORGANIZATION ( #19, #280, #180 ) ;
#254 = APPROVAL_DATE_TIME ( #193, #179 ) ;
#255 = CARTESIAN_POINT ( 'NONE',  ( -8.000000000000000000, 0.000000000000000000, 5.000000000000000000 ) ) ;
#256 = ADVANCED_FACE ( 'NONE', ( #95, #165 ), #56, .T. ) ;
#257 = CC_DESIGN_DATE_AND_TIME_ASSIGNMENT ( #150, #271, ( #316 ) ) ;
#258 = CARTESIAN_POINT ( 'NONE',  ( 0.000000000000000000, 0.000000000000000000, 455.0000000000000000 ) ) ;
#259 = ORIENTED_EDGE ( 'NONE', *, *, #13, .T. ) ;
#260 = AXIS2_PLACEMENT_3D ( 'NONE', #349, #30, #6 ) ;
#261 = DIRECTION ( 'NONE',  ( 1.000000000000000000, 0.000000000000000000, 0.000000000000000000 ) ) ;
#262 = ORIENTED_EDGE ( 'NONE', *, *, #237, .F. ) ;
#263 = CYLINDRICAL_SURFACE ( 'NONE', #270, 8.000000000000000000 ) ;
#264 = VERTEX_POINT ( 'NONE', #199 ) ;
#265 = CARTESIAN_POINT ( 'NONE',  ( 0.000000000000000000, 0.000000000000000000, 5.500000000000005329 ) ) ;
#266 = ORIENTED_EDGE ( 'NONE', *, *, #37, .T. ) ;
#267 = CIRCLE ( 'NONE', #176, 5.000000000000000000 ) ;
#268 = APPROVAL_ROLE ( '' ) ;
#269 = DIRECTION ( 'NONE',  ( 1.000000000000000000, 0.000000000000000000, 0.000000000000000000 ) ) ;
#270 = AXIS2_PLACEMENT_3D ( 'NONE', #27, #137, #3 ) ;
#271 = DATE_TIME_ROLE ( 'creation_date' ) ;
#272 = ORIENTED_EDGE ( 'NONE', *, *, #184, .F. ) ;
#273 = ADVANCED_FACE ( 'NONE', ( #285 ), #201, .T. ) ;
#274 = ORIENTED_EDGE ( 'NONE', *, *, #55, .T. ) ;
#275 = LINE ( 'NONE', #52, #340 ) ;
#276 = EDGE_CURVE ( 'NONE', #264, #361, #8, .T. ) ;
#277 = AXIS2_PLACEMENT_3D ( 'NONE', #375, #110, #246 ) ;
#278 = CARTESIAN_POINT ( 'NONE',  ( 8.000000000000000000, 9.797174393178825657E-16, 5.000000000000000000 ) ) ;
#279 = DATE_AND_TIME ( #175, #380 ) ;
#280 = APPROVAL ( #353, 'NEURÈENÝ' ) ;
#281 = DIRECTION ( 'NONE',  ( 0.000000000000000000, 0.000000000000000000, -1.000000000000000000 ) ) ;
#282 = DIRECTION ( 'NONE',  ( 0.000000000000000000, 0.000000000000000000, -1.000000000000000000 ) ) ;
#283 = DIRECTION ( 'NONE',  ( -0.000000000000000000, -0.000000000000000000, -1.000000000000000000 ) ) ;
#284 = CARTESIAN_POINT ( 'NONE',  ( 2.750000000000000000, 3.367778697655220519E-16, 455.0000000000000000 ) ) ;
#285 = FACE_OUTER_BOUND ( 'NONE', #74, .T. ) ;
#286 = EDGE_LOOP ( 'NONE', ( #346, #229 ) ) ;
#287 = ADVANCED_FACE ( 'NONE', ( #54 ), #168, .F. ) ;
#288 = CYLINDRICAL_SURFACE ( 'NONE', #147, 2.750000000000000000 ) ;
#289 = DIRECTION ( 'NONE',  ( 0.000000000000000000, 0.000000000000000000, -1.000000000000000000 ) ) ;
#290 = CC_DESIGN_PERSON_AND_ORGANIZATION_ASSIGNMENT ( #294, #79, ( #220 ) ) ;
#291 = ORIENTED_EDGE ( 'NONE', *, *, #15, .T. ) ;
#292 = VECTOR ( 'NONE', #48, 1000.000000000000000 ) ;
#293 = DIRECTION ( 'NONE',  ( 1.224646799147353207E-16, 1.000000000000000000, -0.000000000000000000 ) ) ;
#294 = PERSON_AND_ORGANIZATION ( #364, #325 ) ;
#295 = ADVANCED_FACE ( 'NONE', ( #345 ), #288, .F. ) ;
#296 = DATE_AND_TIME ( #204, #337 ) ;
#297 = COORDINATED_UNIVERSAL_TIME_OFFSET ( 1, 0, .AHEAD. ) ;
#298 = VERTEX_POINT ( 'NONE', #91 ) ;
#299 = AXIS2_PLACEMENT_3D ( 'NONE', #65, #293, #234 ) ;
#300 = LOCAL_TIME ( 17, 4, 15.00000000000000000, #41 ) ;
#301 = EDGE_LOOP ( 'NONE', ( #322, #126, #122, #58 ) ) ;
#302 = EDGE_CURVE ( 'NONE', #232, #329, #81, .T. ) ;
#303 = DIRECTION ( 'NONE',  ( 1.000000000000000000, 0.000000000000000000, 0.000000000000000000 ) ) ;
#304 = PERSON_AND_ORGANIZATION ( #364, #325 ) ;
#305 = DIRECTION ( 'NONE',  ( -0.000000000000000000, -0.000000000000000000, -1.000000000000000000 ) ) ;
#306 = DIRECTION ( 'NONE',  ( 1.000000000000000000, 0.000000000000000000, 0.000000000000000000 ) ) ;
#307 = VECTOR ( 'NONE', #334, 1000.000000000000000 ) ;
#308 = CARTESIAN_POINT ( 'NONE',  ( 0.000000000000000000, 0.000000000000000000, 0.000000000000000000 ) ) ;
#309 = DIRECTION ( 'NONE',  ( 0.000000000000000000, 0.000000000000000000, 1.000000000000000000 ) ) ;
#310 =( GEOMETRIC_REPRESENTATION_CONTEXT ( 3 ) GLOBAL_UNCERTAINTY_ASSIGNED_CONTEXT ( ( #40 ) ) GLOBAL_UNIT_ASSIGNED_CONTEXT ( ( #368, #239, #207 ) ) REPRESENTATION_CONTEXT ( 'NONE', 'WORKASPACE' ) );
#311 = DIRECTION ( 'NONE',  ( 1.000000000000000000, 0.000000000000000000, -0.000000000000000000 ) ) ;
#312 = ORIENTED_EDGE ( 'NONE', *, *, #92, .T. ) ;
#313 = AXIS2_PLACEMENT_3D ( 'NONE', #339, #80, #219 ) ;
#314 = CARTESIAN_POINT ( 'NONE',  ( 0.000000000000000000, 0.000000000000000000, 455.0000000000000000 ) ) ;
#315 = EDGE_LOOP ( 'NONE', ( #112, #120, #72, #359 ) ) ;
#316 = PRODUCT_DEFINITION ( 'NEZNÁMÝ', '', #220, #202 ) ;
#317 = DIRECTION ( 'NONE',  ( 0.000000000000000000, -1.000000000000000000, 0.000000000000000000 ) ) ;
#318 = ORIENTED_EDGE ( 'NONE', *, *, #61, .T. ) ;
#319 = FACE_OUTER_BOUND ( 'NONE', #196, .T. ) ;
#320 = EDGE_LOOP ( 'NONE', ( #143, #140 ) ) ;
#321 = DIRECTION ( 'NONE',  ( 1.000000000000000000, 0.000000000000000000, 0.000000000000000000 ) ) ;
#322 = ORIENTED_EDGE ( 'NONE', *, *, #212, .F. ) ;
#323 = ADVANCED_FACE ( 'NONE', ( #118 ), #111, .F. ) ;
#324 = CARTESIAN_POINT ( 'NONE',  ( 8.000000000000000000, 9.797174393178825657E-16, 0.000000000000000000 ) ) ;
#325 = ORGANIZATION ( 'NEURÈENÝ', 'NEURÈENÝ', '' ) ;
#326 = DIRECTION ( 'NONE',  ( 0.000000000000000000, 0.000000000000000000, 1.000000000000000000 ) ) ;
#327 = VERTEX_POINT ( 'NONE', #167 ) ;
#328 = ADVANCED_FACE ( 'NONE', ( #142, #163 ), #31, .T. ) ;
#329 = VERTEX_POINT ( 'NONE', #284 ) ;
#330 = APPLICATION_CONTEXT ( 'configuration controlled 3d designs of mechanical parts and assemblies' ) ;
#331 = AXIS2_PLACEMENT_3D ( 'NONE', #185, #21, #303 ) ;
#332 = ORIENTED_EDGE ( 'NONE', *, *, #243, .F. ) ;
#333 = DIRECTION ( 'NONE',  ( 1.000000000000000000, 0.000000000000000000, 0.000000000000000000 ) ) ;
#334 = DIRECTION ( 'NONE',  ( -0.000000000000000000, -0.000000000000000000, -1.000000000000000000 ) ) ;
#335 = TOROIDAL_SURFACE ( 'NONE', #96, 5.500000000000000000, 0.5000000000000000000 ) ;
#336 = CARTESIAN_POINT ( 'NONE',  ( -5.000000000000000000, 0.000000000000000000, 455.0000000000000000 ) ) ;
#337 = LOCAL_TIME ( 17, 4, 15.00000000000000000, #157 ) ;
#338 = ADVANCED_FACE ( 'NONE', ( #113 ), #263, .T. ) ;
#339 = CARTESIAN_POINT ( 'NONE',  ( 0.000000000000000000, 0.000000000000000000, 0.000000000000000000 ) ) ;
#340 = VECTOR ( 'NONE', #281, 1000.000000000000000 ) ;
#341 = APPLICATION_CONTEXT ( 'configuration controlled 3d designs of mechanical parts and assemblies' ) ;
#342 = CARTESIAN_POINT ( 'NONE',  ( 0.000000000000000000, 0.000000000000000000, 5.000000000000000000 ) ) ;
#343 = SECURITY_CLASSIFICATION ( '', '', #12 ) ;
#344 = ORIENTED_EDGE ( 'NONE', *, *, #230, .F. ) ;
#345 = FACE_OUTER_BOUND ( 'NONE', #67, .T. ) ;
#346 = ORIENTED_EDGE ( 'NONE', *, *, #302, .F. ) ;
#347 = DIRECTION ( 'NONE',  ( -0.000000000000000000, -0.000000000000000000, -1.000000000000000000 ) ) ;
#348 = ORIENTED_EDGE ( 'NONE', *, *, #88, .F. ) ;
#349 = CARTESIAN_POINT ( 'NONE',  ( 0.000000000000000000, 0.000000000000000000, 5.500000000000005329 ) ) ;
#350 = AXIS2_PLACEMENT_3D ( 'NONE', #38, #376, #311 ) ;
#351 = DIRECTION ( 'NONE',  ( 1.000000000000000000, 0.000000000000000000, 0.000000000000000000 ) ) ;
#352 = ORIENTED_EDGE ( 'NONE', *, *, #237, .T. ) ;
#353 = APPROVAL_STATUS ( 'not_yet_approved' ) ;
#354 = DIRECTION ( 'NONE',  ( 0.000000000000000000, 0.000000000000000000, 1.000000000000000000 ) ) ;
#355 = DATE_AND_TIME ( #123, #82 ) ;
#356 = EDGE_LOOP ( 'NONE', ( #64, #312 ) ) ;
#357 = MANIFOLD_SOLID_BREP ( 'Odebrat vysunutím3', #42 ) ;
#358 = VECTOR ( 'NONE', #282, 1000.000000000000000 ) ;
#359 = ORIENTED_EDGE ( 'NONE', *, *, #184, .T. ) ;
#360 = CIRCLE ( 'NONE', #35, 5.500000000000000000 ) ;
#361 = VERTEX_POINT ( 'NONE', #117 ) ;
#362 = ADVANCED_FACE ( 'NONE', ( #319 ), #335, .F. ) ;
#363 = DIRECTION ( 'NONE',  ( 0.000000000000000000, 0.000000000000000000, 1.000000000000000000 ) ) ;
#364 = PERSON ( 'NEURÈENÝ', 'NEURÈENÝ', 'NEURÈENÝ', ('NEURÈENÝ'), ('NEURÈENÝ'), ('NEURÈENÝ') ) ;
#365 = APPROVAL_STATUS ( 'not_yet_approved' ) ;
#366 = LINE ( 'NONE', #107, #240 ) ;
#367 = CC_DESIGN_PERSON_AND_ORGANIZATION_ASSIGNMENT ( #44, #248, ( #86 ) ) ;
#368 =( LENGTH_UNIT ( ) NAMED_UNIT ( * ) SI_UNIT ( .MILLI., .METRE. ) );
#369 = DIRECTION ( 'NONE',  ( 1.000000000000000000, 0.000000000000000000, 0.000000000000000000 ) ) ;
#370 = EDGE_CURVE ( 'NONE', #7, #145, #24, .T. ) ;
#371 = ADVANCED_BREP_SHAPE_REPRESENTATION ( 'edda', ( #357, #169 ), #310 ) ;
#372 = CIRCLE ( 'NONE', #132, 8.000000000000000000 ) ;
#373 = DIRECTION ( 'NONE',  ( 1.000000000000000000, 0.000000000000000000, -0.000000000000000000 ) ) ;
#374 = APPROVAL ( #365, 'NEURÈENÝ' ) ;
#375 = CARTESIAN_POINT ( 'NONE',  ( 0.000000000000000000, 0.000000000000000000, 455.0000000000000000 ) ) ;
#376 = DIRECTION ( 'NONE',  ( 0.000000000000000000, 0.000000000000000000, 1.000000000000000000 ) ) ;
#377 = ORIENTED_EDGE ( 'NONE', *, *, #370, .T. ) ;
#378 = CARTESIAN_POINT ( 'NONE',  ( 0.000000000000000000, 0.000000000000000000, 455.0000000000000000 ) ) ;
#379 = CIRCLE ( 'NONE', #32, 2.750000000000000000 ) ;
#380 = LOCAL_TIME ( 17, 4, 15.00000000000000000, #49 ) ;
#381 = EDGE_LOOP ( 'NONE', ( #272, #47 ) ) ;
ENDSEC;
END-ISO-10303-21;
