ISO-10303-21;
HEADER;
FILE_DESCRIPTION (( 'STEP AP203' ),
    '1' );
FILE_NAME ('a67f.STEP',
    '2022-07-08T14:31:10',
    ( '' ),
    ( '' ),
    'SwSTEP 2.0',
    'SolidWorks 2019',
    '' );
FILE_SCHEMA (( 'CONFIG_CONTROL_DESIGN' ));
ENDSEC;

DATA;
#1 = ORIENTED_EDGE ( 'NONE', *, *, #246, .T. ) ;
#2 = DIRECTION ( 'NONE',  ( 1.000000000000000000, 0.000000000000000000, 0.000000000000000000 ) ) ;
#3 = EDGE_CURVE ( 'NONE', #256, #235, #104, .T. ) ;
#4 = PERSON_AND_ORGANIZATION_ROLE ( 'creator' ) ;
#5 = CIRCLE ( 'NONE', #220, 10.00000000000000000 ) ;
#6 = AXIS2_PLACEMENT_3D ( 'NONE', #236, #87, #210 ) ;
#7 = PERSON_AND_ORGANIZATION ( #30, #34 ) ;
#8 = ORIENTED_EDGE ( 'NONE', *, *, #246, .F. ) ;
#9 = EDGE_CURVE ( 'NONE', #38, #143, #68, .T. ) ;
#10 = DATE_AND_TIME ( #157, #165 ) ;
#11 = EDGE_LOOP ( 'NONE', ( #63, #213 ) ) ;
#12 = CARTESIAN_POINT ( 'NONE',  ( 0.000000000000000000, 0.000000000000000000, 7.000000000000000000 ) ) ;
#13 = EDGE_CURVE ( 'NONE', #261, #171, #284, .T. ) ;
#14 = AXIS2_PLACEMENT_3D ( 'NONE', #298, #181, #325 ) ;
#15 = FACE_OUTER_BOUND ( 'NONE', #88, .T. ) ;
#16 = CC_DESIGN_PERSON_AND_ORGANIZATION_ASSIGNMENT ( #264, #233, ( #277 ) ) ;
#17 = CYLINDRICAL_SURFACE ( 'NONE', #45, 6.000000000000000888 ) ;
#18 = CARTESIAN_POINT ( 'NONE',  ( 10.00000000000000000, 1.224646799147353256E-15, 7.000000000000000000 ) ) ;
#19 = AXIS2_PLACEMENT_3D ( 'NONE', #174, #343, #166 ) ;
#20 = CARTESIAN_POINT ( 'NONE',  ( 0.000000000000000000, 0.000000000000000000, 207.0000000000000284 ) ) ;
#21 = ADVANCED_FACE ( 'NONE', ( #219 ), #17, .T. ) ;
#22 = CARTESIAN_POINT ( 'NONE',  ( -6.000000000000000888, 0.000000000000000000, 7.700000000000012612 ) ) ;
#23 = FACE_OUTER_BOUND ( 'NONE', #177, .T. ) ;
#24 = EDGE_CURVE ( 'NONE', #171, #379, #117, .T. ) ;
#25 = CARTESIAN_POINT ( 'NONE',  ( -6.000000000000000888, 0.000000000000000000, 207.0000000000000284 ) ) ;
#26 = ORIENTED_EDGE ( 'NONE', *, *, #320, .F. ) ;
#27 = FACE_OUTER_BOUND ( 'NONE', #53, .T. ) ;
#28 = ORIENTED_EDGE ( 'NONE', *, *, #381, .F. ) ;
#29 = AXIS2_PLACEMENT_3D ( 'NONE', #128, #40, #221 ) ;
#30 = PERSON ( 'NEURÈENÝ', 'NEURÈENÝ', 'NEURÈENÝ', ('NEURÈENÝ'), ('NEURÈENÝ'), ('NEURÈENÝ') ) ;
#31 = PLANE ( 'NONE',  #368 ) ;
#32 = ORIENTED_EDGE ( 'NONE', *, *, #67, .F. ) ;
#33 = APPLICATION_PROTOCOL_DEFINITION ( 'international standard', 'config_control_design', 1994, #75 ) ;
#34 = ORGANIZATION ( 'NEURÈENÝ', 'NEURÈENÝ', '' ) ;
#35 = DATE_AND_TIME ( #270, #330 ) ;
#36 = AXIS2_PLACEMENT_3D ( 'NONE', #196, #226, #255 ) ;
#37 = APPROVAL ( #57, 'NEURÈENÝ' ) ;
#38 = VERTEX_POINT ( 'NONE', #250 ) ;
#39 = ADVANCED_FACE ( 'NONE', ( #245 ), #302, .F. ) ;
#40 = DIRECTION ( 'NONE',  ( 0.000000000000000000, 0.000000000000000000, -1.000000000000000000 ) ) ;
#41 = CALENDAR_DATE ( 2022, 8, 7 ) ;
#42 = CC_DESIGN_PERSON_AND_ORGANIZATION_ASSIGNMENT ( #306, #188, ( #141 ) ) ;
#43 = PLANE ( 'NONE',  #172 ) ;
#44 = DIRECTION ( 'NONE',  ( -1.000000000000000000, 0.000000000000000000, 0.000000000000000000 ) ) ;
#45 = AXIS2_PLACEMENT_3D ( 'NONE', #160, #276, #44 ) ;
#46 = DESIGN_CONTEXT ( 'detailed design', #228, 'design' ) ;
#47 = DIRECTION ( 'NONE',  ( 1.000000000000000000, 0.000000000000000000, 0.000000000000000000 ) ) ;
#48 = ORIENTED_EDGE ( 'NONE', *, *, #64, .T. ) ;
#49 = LINE ( 'NONE', #109, #316 ) ;
#50 = CARTESIAN_POINT ( 'NONE',  ( -4.250000000000000000, 0.000000000000000000, 0.000000000000000000 ) ) ;
#51 = CIRCLE ( 'NONE', #99, 10.00000000000000000 ) ;
#52 = CARTESIAN_POINT ( 'NONE',  ( 6.000000000000000888, 7.347880794884120722E-16, 7.700000000000012612 ) ) ;
#53 = EDGE_LOOP ( 'NONE', ( #182, #301, #377, #312 ) ) ;
#54 = DIRECTION ( 'NONE',  ( 1.000000000000000000, 0.000000000000000000, 0.000000000000000000 ) ) ;
#55 = EDGE_LOOP ( 'NONE', ( #154, #147 ) ) ;
#56 =( LENGTH_UNIT ( ) NAMED_UNIT ( * ) SI_UNIT ( .MILLI., .METRE. ) );
#57 = APPROVAL_STATUS ( 'not_yet_approved' ) ;
#58 = AXIS2_PLACEMENT_3D ( 'NONE', #151, #355, #62 ) ;
#59 = CIRCLE ( 'NONE', #257, 6.700000000000001066 ) ;
#60 = EDGE_LOOP ( 'NONE', ( #269, #8 ) ) ;
#61 = EDGE_CURVE ( 'NONE', #38, #126, #97, .T. ) ;
#62 = DIRECTION ( 'NONE',  ( 1.000000000000000000, 0.000000000000000000, 0.000000000000000000 ) ) ;
#63 = ORIENTED_EDGE ( 'NONE', *, *, #64, .F. ) ;
#64 = EDGE_CURVE ( 'NONE', #158, #126, #132, .T. ) ;
#65 = APPROVAL_ROLE ( '' ) ;
#66 = CARTESIAN_POINT ( 'NONE',  ( 0.000000000000000000, 0.000000000000000000, 207.0000000000000284 ) ) ;
#67 = EDGE_CURVE ( 'NONE', #379, #171, #59, .T. ) ;
#68 = CIRCLE ( 'NONE', #303, 10.00000000000000000 ) ;
#69 = CARTESIAN_POINT ( 'NONE',  ( 0.000000000000000000, 0.000000000000000000, 0.000000000000000000 ) ) ;
#70 = CARTESIAN_POINT ( 'NONE',  ( 6.000000000000000888, 7.347880794884120722E-16, 207.0000000000000284 ) ) ;
#71 = PERSON_AND_ORGANIZATION ( #30, #34 ) ;
#72 = CARTESIAN_POINT ( 'NONE',  ( 0.000000000000000000, 0.000000000000000000, 7.700000000000012612 ) ) ;
#73 = DIRECTION ( 'NONE',  ( 0.000000000000000000, -1.000000000000000000, 0.000000000000000000 ) ) ;
#74 = FACE_OUTER_BOUND ( 'NONE', #360, .T. ) ;
#75 = APPLICATION_CONTEXT ( 'configuration controlled 3d designs of mechanical parts and assemblies' ) ;
#76 = ORIENTED_EDGE ( 'NONE', *, *, #199, .F. ) ;
#77 = CIRCLE ( 'NONE', #6, 6.000000000000000888 ) ;
#78 = DIRECTION ( 'NONE',  ( -1.000000000000000000, 0.000000000000000000, 0.000000000000000000 ) ) ;
#79 = DIRECTION ( 'NONE',  ( -0.000000000000000000, -0.000000000000000000, -1.000000000000000000 ) ) ;
#80 = DIRECTION ( 'NONE',  ( 1.000000000000000000, 0.000000000000000000, 0.000000000000000000 ) ) ;
#81 = VERTEX_POINT ( 'NONE', #335 ) ;
#82 = EDGE_LOOP ( 'NONE', ( #293, #28, #175, #32 ) ) ;
#83 = DATE_TIME_ROLE ( 'creation_date' ) ;
#84 = CLOSED_SHELL ( 'NONE', ( #361, #310, #21, #294, #273, #322, #187, #265, #137, #131, #39 ) ) ;
#85 = CC_DESIGN_APPROVAL ( #347, ( #141 ) ) ;
#86 = PRODUCT_DEFINITION ( 'NEZNÁMÝ', '', #277, #46 ) ;
#87 = DIRECTION ( 'NONE',  ( 0.000000000000000000, 0.000000000000000000, 1.000000000000000000 ) ) ;
#88 = EDGE_LOOP ( 'NONE', ( #207, #214 ) ) ;
#89 = AXIS2_PLACEMENT_3D ( 'NONE', #305, #73, #309 ) ;
#90 = APPLICATION_PROTOCOL_DEFINITION ( 'international standard', 'config_control_design', 1994, #228 ) ;
#91 = ORIENTED_EDGE ( 'NONE', *, *, #203, .T. ) ;
#92 = ORIENTED_EDGE ( 'NONE', *, *, #352, .T. ) ;
#93 = APPROVAL_PERSON_ORGANIZATION ( #336, #347, #65 ) ;
#94 = CARTESIAN_POINT ( 'NONE',  ( -10.00000000000000000, 0.000000000000000000, 0.000000000000000000 ) ) ;
#95 = COORDINATED_UNIVERSAL_TIME_OFFSET ( 1, 0, .AHEAD. ) ;
#96 = VECTOR ( 'NONE', #130, 1000.000000000000000 ) ;
#97 = LINE ( 'NONE', #18, #96 ) ;
#98 = FACE_OUTER_BOUND ( 'NONE', #82, .T. ) ;
#99 = AXIS2_PLACEMENT_3D ( 'NONE', #146, #372, #80 ) ;
#100 = AXIS2_PLACEMENT_3D ( 'NONE', #311, #79, #110 ) ;
#101 = CC_DESIGN_PERSON_AND_ORGANIZATION_ASSIGNMENT ( #71, #272, ( #277 ) ) ;
#102 = DIRECTION ( 'NONE',  ( 0.000000000000000000, 0.000000000000000000, 1.000000000000000000 ) ) ;
#103 = DIRECTION ( 'NONE',  ( 0.000000000000000000, 0.000000000000000000, 1.000000000000000000 ) ) ;
#104 = CIRCLE ( 'NONE', #353, 6.000000000000000888 ) ;
#105 = EDGE_LOOP ( 'NONE', ( #373, #111, #327, #321 ) ) ;
#106 = CARTESIAN_POINT ( 'NONE',  ( 6.000000000000000888, 7.347880794884120722E-16, 207.0000000000000284 ) ) ;
#107 = ORIENTED_EDGE ( 'NONE', *, *, #279, .T. ) ;
#108 = APPROVAL_PERSON_ORGANIZATION ( #212, #178, #300 ) ;
#109 = CARTESIAN_POINT ( 'NONE',  ( 4.250000000000000000, 5.204748896376249713E-16, 207.0000000000000284 ) ) ;
#110 = DIRECTION ( 'NONE',  ( -1.000000000000000000, 0.000000000000000000, 0.000000000000000000 ) ) ;
#111 = ORIENTED_EDGE ( 'NONE', *, *, #116, .T. ) ;
#112 = DIRECTION ( 'NONE',  ( 0.000000000000000000, 0.000000000000000000, 1.000000000000000000 ) ) ;
#113 = ORIENTED_EDGE ( 'NONE', *, *, #67, .T. ) ;
#114 = DIRECTION ( 'NONE',  ( 0.000000000000000000, 0.000000000000000000, 1.000000000000000000 ) ) ;
#115 = CC_DESIGN_DATE_AND_TIME_ASSIGNMENT ( #234, #83, ( #86 ) ) ;
#116 = EDGE_CURVE ( 'NONE', #235, #261, #163, .T. ) ;
#117 = CIRCLE ( 'NONE', #334, 6.700000000000001066 ) ;
#118 =( NAMED_UNIT ( * ) SI_UNIT ( $, .STERADIAN. ) SOLID_ANGLE_UNIT ( ) );
#119 = CC_DESIGN_DATE_AND_TIME_ASSIGNMENT ( #331, #190, ( #141 ) ) ;
#120 = CARTESIAN_POINT ( 'NONE',  ( 0.000000000000000000, 0.000000000000000000, 207.0000000000000284 ) ) ;
#121 = AXIS2_PLACEMENT_3D ( 'NONE', #304, #217, #247 ) ;
#122 = ORIENTED_EDGE ( 'NONE', *, *, #9, .F. ) ;
#123 = AXIS2_PLACEMENT_3D ( 'NONE', #72, #103, #307 ) ;
#124 = TOROIDAL_SURFACE ( 'NONE', #129, 6.700000000000001066, 0.6999999999999999556 ) ;
#125 = CALENDAR_DATE ( 2022, 8, 7 ) ;
#126 = VERTEX_POINT ( 'NONE', #338 ) ;
#127 = EDGE_LOOP ( 'NONE', ( #122, #291, #259, #26 ) ) ;
#128 = CARTESIAN_POINT ( 'NONE',  ( 0.000000000000000000, 0.000000000000000000, 207.0000000000000284 ) ) ;
#129 = AXIS2_PLACEMENT_3D ( 'NONE', #144, #314, #139 ) ;
#130 = DIRECTION ( 'NONE',  ( -0.000000000000000000, -0.000000000000000000, -1.000000000000000000 ) ) ;
#131 = ADVANCED_FACE ( 'NONE', ( #98 ), #152, .F. ) ;
#132 = CIRCLE ( 'NONE', #150, 10.00000000000000000 ) ;
#133 = DIRECTION ( 'NONE',  ( 1.000000000000000000, 0.000000000000000000, 0.000000000000000000 ) ) ;
#134 = APPROVAL_DATE_TIME ( #218, #347 ) ;
#135 = DIRECTION ( 'NONE',  ( 1.000000000000000000, 0.000000000000000000, 0.000000000000000000 ) ) ;
#136 = APPROVAL_PERSON_ORGANIZATION ( #323, #37, #266 ) ;
#137 = ADVANCED_FACE ( 'NONE', ( #363, #15 ), #216, .T. ) ;
#138 = DIRECTION ( 'NONE',  ( -0.000000000000000000, -0.000000000000000000, -1.000000000000000000 ) ) ;
#139 = DIRECTION ( 'NONE',  ( 1.000000000000000000, 0.000000000000000000, 0.000000000000000000 ) ) ;
#140 = CYLINDRICAL_SURFACE ( 'NONE', #289, 4.250000000000000000 ) ;
#141 = SECURITY_CLASSIFICATION ( '', '', #238 ) ;
#142 = DIRECTION ( 'NONE',  ( 0.000000000000000000, 0.000000000000000000, -1.000000000000000000 ) ) ;
#143 = VERTEX_POINT ( 'NONE', #365 ) ;
#144 = CARTESIAN_POINT ( 'NONE',  ( 0.000000000000000000, 0.000000000000000000, 7.700000000000012612 ) ) ;
#145 = VERTEX_POINT ( 'NONE', #161 ) ;
#146 = CARTESIAN_POINT ( 'NONE',  ( 0.000000000000000000, 0.000000000000000000, 7.000000000000000000 ) ) ;
#147 = ORIENTED_EDGE ( 'NONE', *, *, #279, .F. ) ;
#148 = VECTOR ( 'NONE', #258, 1000.000000000000000 ) ;
#149 = COORDINATED_UNIVERSAL_TIME_OFFSET ( 1, 0, .AHEAD. ) ;
#150 = AXIS2_PLACEMENT_3D ( 'NONE', #278, #366, #164 ) ;
#151 = CARTESIAN_POINT ( 'NONE',  ( 0.000000000000000000, 0.000000000000000000, 7.700000000000012612 ) ) ;
#152 = TOROIDAL_SURFACE ( 'NONE', #123, 6.700000000000001066, 0.6999999999999999556 ) ;
#153 = VECTOR ( 'NONE', #223, 1000.000000000000000 ) ;
#154 = ORIENTED_EDGE ( 'NONE', *, *, #170, .F. ) ;
#155 =( GEOMETRIC_REPRESENTATION_CONTEXT ( 3 ) GLOBAL_UNCERTAINTY_ASSIGNED_CONTEXT ( ( #156 ) ) GLOBAL_UNIT_ASSIGNED_CONTEXT ( ( #56, #358, #118 ) ) REPRESENTATION_CONTEXT ( 'NONE', 'WORKASPACE' ) );
#156 = UNCERTAINTY_MEASURE_WITH_UNIT (LENGTH_MEASURE( 1.000000000000000082E-05 ), #56, 'distance_accuracy_value', 'NONE');
#157 = CALENDAR_DATE ( 2022, 8, 7 ) ;
#158 = VERTEX_POINT ( 'NONE', #94 ) ;
#159 = DIRECTION ( 'NONE',  ( 0.000000000000000000, 0.000000000000000000, 1.000000000000000000 ) ) ;
#160 = CARTESIAN_POINT ( 'NONE',  ( 0.000000000000000000, 0.000000000000000000, 207.0000000000000284 ) ) ;
#161 = CARTESIAN_POINT ( 'NONE',  ( 4.250000000000000000, 5.204748896376249713E-16, 0.000000000000000000 ) ) ;
#162 = CC_DESIGN_PERSON_AND_ORGANIZATION_ASSIGNMENT ( #232, #209, ( #183 ) ) ;
#163 = LINE ( 'NONE', #70, #308 ) ;
#164 = DIRECTION ( 'NONE',  ( 1.000000000000000000, 0.000000000000000000, 0.000000000000000000 ) ) ;
#165 = LOCAL_TIME ( 16, 31, 10.00000000000000000, #149 ) ;
#166 = DIRECTION ( 'NONE',  ( 1.000000000000000000, 0.000000000000000000, 0.000000000000000000 ) ) ;
#167 = ORIENTED_EDGE ( 'NONE', *, *, #324, .F. ) ;
#168 = LINE ( 'NONE', #285, #295 ) ;
#169 = LINE ( 'NONE', #202, #153 ) ;
#170 = EDGE_CURVE ( 'NONE', #332, #145, #287, .T. ) ;
#171 = VERTEX_POINT ( 'NONE', #339 ) ;
#172 = AXIS2_PLACEMENT_3D ( 'NONE', #242, #159, #333 ) ;
#173 = CIRCLE ( 'NONE', #14, 6.000000000000000888 ) ;
#174 = CARTESIAN_POINT ( 'NONE',  ( 0.000000000000000000, 0.000000000000000000, 207.0000000000000284 ) ) ;
#175 = ORIENTED_EDGE ( 'NONE', *, *, #13, .T. ) ;
#176 = CYLINDRICAL_SURFACE ( 'NONE', #267, 10.00000000000000000 ) ;
#177 = EDGE_LOOP ( 'NONE', ( #92, #91, #107, #167 ) ) ;
#178 = APPROVAL ( #328, 'NEURÈENÝ' ) ;
#179 = DIRECTION ( 'NONE',  ( -1.000000000000000000, 0.000000000000000000, 0.000000000000000000 ) ) ;
#180 = CC_DESIGN_APPROVAL ( #37, ( #86 ) ) ;
#181 = DIRECTION ( 'NONE',  ( 0.000000000000000000, 0.000000000000000000, 1.000000000000000000 ) ) ;
#182 = ORIENTED_EDGE ( 'NONE', *, *, #371, .F. ) ;
#183 = PRODUCT ( 'a67f', 'a67f', '', ( #263 ) ) ;
#184 = ADVANCED_BREP_SHAPE_REPRESENTATION ( 'a67f', ( #201, #248 ), #155 ) ;
#185 = CIRCLE ( 'NONE', #19, 4.250000000000000000 ) ;
#186 = ORIENTED_EDGE ( 'NONE', *, *, #203, .F. ) ;
#187 = ADVANCED_FACE ( 'NONE', ( #189, #369 ), #43, .F. ) ;
#188 = PERSON_AND_ORGANIZATION_ROLE ( 'classification_officer' ) ;
#189 = FACE_BOUND ( 'NONE', #55, .T. ) ;
#190 = DATE_TIME_ROLE ( 'classification_date' ) ;
#191 = DIRECTION ( 'NONE',  ( 0.000000000000000000, 0.000000000000000000, 1.000000000000000000 ) ) ;
#192 = EDGE_CURVE ( 'NONE', #126, #158, #5, .T. ) ;
#193 = CARTESIAN_POINT ( 'NONE',  ( 0.000000000000000000, 0.000000000000000000, 7.000000000000000000 ) ) ;
#194 = DIRECTION ( 'NONE',  ( 0.000000000000000000, 0.000000000000000000, 1.000000000000000000 ) ) ;
#195 = DIRECTION ( 'NONE',  ( 1.000000000000000000, 0.000000000000000000, 0.000000000000000000 ) ) ;
#196 = CARTESIAN_POINT ( 'NONE',  ( -6.700000000000001066, 8.205133554287267548E-16, 7.700000000000012612 ) ) ;
#197 = ORIENTED_EDGE ( 'NONE', *, *, #225, .T. ) ;
#198 = CARTESIAN_POINT ( 'NONE',  ( -10.00000000000000000, 0.000000000000000000, 7.000000000000000000 ) ) ;
#199 = EDGE_CURVE ( 'NONE', #143, #38, #51, .T. ) ;
#200 = DIRECTION ( 'NONE',  ( -0.000000000000000000, -0.000000000000000000, -1.000000000000000000 ) ) ;
#201 = MANIFOLD_SOLID_BREP ( 'Odebrat vysunutím3', #84 ) ;
#202 = CARTESIAN_POINT ( 'NONE',  ( -6.000000000000000888, 0.000000000000000000, 207.0000000000000284 ) ) ;
#203 = EDGE_CURVE ( 'NONE', #251, #145, #49, .T. ) ;
#204 = ORIENTED_EDGE ( 'NONE', *, *, #371, .T. ) ;
#205 = CC_DESIGN_SECURITY_CLASSIFICATION ( #141, ( #277 ) ) ;
#206 = CYLINDRICAL_SURFACE ( 'NONE', #100, 10.00000000000000000 ) ;
#207 = ORIENTED_EDGE ( 'NONE', *, *, #3, .T. ) ;
#208 = APPROVAL_DATE_TIME ( #10, #178 ) ;
#209 = PERSON_AND_ORGANIZATION_ROLE ( 'design_owner' ) ;
#210 = DIRECTION ( 'NONE',  ( 1.000000000000000000, 0.000000000000000000, 0.000000000000000000 ) ) ;
#211 = ORIENTED_EDGE ( 'NONE', *, *, #116, .F. ) ;
#212 = PERSON_AND_ORGANIZATION ( #30, #34 ) ;
#213 = ORIENTED_EDGE ( 'NONE', *, *, #192, .F. ) ;
#214 = ORIENTED_EDGE ( 'NONE', *, *, #375, .T. ) ;
#215 = COORDINATED_UNIVERSAL_TIME_OFFSET ( 1, 0, .AHEAD. ) ;
#216 = PLANE ( 'NONE',  #348 ) ;
#217 = DIRECTION ( 'NONE',  ( -0.000000000000000000, -0.000000000000000000, -1.000000000000000000 ) ) ;
#218 = DATE_AND_TIME ( #41, #262 ) ;
#219 = FACE_OUTER_BOUND ( 'NONE', #105, .T. ) ;
#220 = AXIS2_PLACEMENT_3D ( 'NONE', #69, #191, #344 ) ;
#221 = DIRECTION ( 'NONE',  ( -1.000000000000000000, 0.000000000000000000, 0.000000000000000000 ) ) ;
#222 = DIRECTION ( 'NONE',  ( -0.000000000000000000, -0.000000000000000000, -1.000000000000000000 ) ) ;
#223 = DIRECTION ( 'NONE',  ( -0.000000000000000000, -0.000000000000000000, -1.000000000000000000 ) ) ;
#224 = CIRCLE ( 'NONE', #58, 6.000000000000000888 ) ;
#225 = EDGE_CURVE ( 'NONE', #256, #282, #169, .T. ) ;
#226 = DIRECTION ( 'NONE',  ( 1.224646799147353207E-16, 1.000000000000000000, -0.000000000000000000 ) ) ;
#227 = FACE_BOUND ( 'NONE', #239, .T. ) ;
#228 = APPLICATION_CONTEXT ( 'configuration controlled 3d designs of mechanical parts and assemblies' ) ;
#229 = DIRECTION ( 'NONE',  ( 1.000000000000000000, 0.000000000000000000, -0.000000000000000000 ) ) ;
#230 = ORIENTED_EDGE ( 'NONE', *, *, #24, .T. ) ;
#231 = AXIS2_PLACEMENT_3D ( 'NONE', #319, #376, #78 ) ;
#232 = PERSON_AND_ORGANIZATION ( #30, #34 ) ;
#233 = PERSON_AND_ORGANIZATION_ROLE ( 'creator' ) ;
#234 = DATE_AND_TIME ( #125, #243 ) ;
#235 = VERTEX_POINT ( 'NONE', #106 ) ;
#236 = CARTESIAN_POINT ( 'NONE',  ( 0.000000000000000000, 0.000000000000000000, 7.700000000000012612 ) ) ;
#237 = EDGE_LOOP ( 'NONE', ( #186, #1, #329, #359 ) ) ;
#238 = SECURITY_CLASSIFICATION_LEVEL ( 'unclassified' ) ;
#239 = EDGE_LOOP ( 'NONE', ( #230, #113 ) ) ;
#240 = EDGE_CURVE ( 'NONE', #282, #379, #367, .T. ) ;
#241 = APPROVAL_STATUS ( 'not_yet_approved' ) ;
#242 = CARTESIAN_POINT ( 'NONE',  ( 0.000000000000000000, 0.000000000000000000, 0.000000000000000000 ) ) ;
#243 = LOCAL_TIME ( 16, 31, 10.00000000000000000, #351 ) ;
#244 = DIRECTION ( 'NONE',  ( 1.000000000000000000, 0.000000000000000000, -0.000000000000000000 ) ) ;
#245 = FACE_OUTER_BOUND ( 'NONE', #237, .T. ) ;
#246 = EDGE_CURVE ( 'NONE', #251, #81, #185, .T. ) ;
#247 = DIRECTION ( 'NONE',  ( 1.000000000000000000, 0.000000000000000000, 0.000000000000000000 ) ) ;
#248 = AXIS2_PLACEMENT_3D ( 'NONE', #297, #354, #2 ) ;
#249 = CC_DESIGN_PERSON_AND_ORGANIZATION_ASSIGNMENT ( #7, #4, ( #86 ) ) ;
#250 = CARTESIAN_POINT ( 'NONE',  ( 10.00000000000000000, 1.224646799147353256E-15, 7.000000000000000000 ) ) ;
#251 = VERTEX_POINT ( 'NONE', #315 ) ;
#252 = LINE ( 'NONE', #198, #148 ) ;
#253 = CYLINDRICAL_SURFACE ( 'NONE', #231, 6.000000000000000888 ) ;
#254 = CC_DESIGN_APPROVAL ( #178, ( #277 ) ) ;
#255 = DIRECTION ( 'NONE',  ( -1.000000000000000000, 1.224646799147353454E-16, 0.000000000000000000 ) ) ;
#256 = VERTEX_POINT ( 'NONE', #25 ) ;
#257 = AXIS2_PLACEMENT_3D ( 'NONE', #370, #274, #133 ) ;
#258 = DIRECTION ( 'NONE',  ( -0.000000000000000000, -0.000000000000000000, -1.000000000000000000 ) ) ;
#259 = ORIENTED_EDGE ( 'NONE', *, *, #192, .T. ) ;
#260 = DIRECTION ( 'NONE',  ( -1.000000000000000000, 0.000000000000000000, 0.000000000000000000 ) ) ;
#261 = VERTEX_POINT ( 'NONE', #52 ) ;
#262 = LOCAL_TIME ( 16, 31, 10.00000000000000000, #215 ) ;
#263 = MECHANICAL_CONTEXT ( 'NONE', #75, 'mechanical' ) ;
#264 = PERSON_AND_ORGANIZATION ( #30, #34 ) ;
#265 = ADVANCED_FACE ( 'NONE', ( #74 ), #253, .T. ) ;
#266 = APPROVAL_ROLE ( '' ) ;
#267 = AXIS2_PLACEMENT_3D ( 'NONE', #290, #374, #260 ) ;
#268 = CARTESIAN_POINT ( 'NONE',  ( -6.700000000000001066, 8.205133554287267548E-16, 7.000000000000006217 ) ) ;
#269 = ORIENTED_EDGE ( 'NONE', *, *, #352, .F. ) ;
#270 = CALENDAR_DATE ( 2022, 8, 7 ) ;
#271 = ORIENTED_EDGE ( 'NONE', *, *, #199, .T. ) ;
#272 = PERSON_AND_ORGANIZATION_ROLE ( 'design_supplier' ) ;
#273 = ADVANCED_FACE ( 'NONE', ( #283 ), #176, .T. ) ;
#274 = DIRECTION ( 'NONE',  ( -0.000000000000000000, -0.000000000000000000, -1.000000000000000000 ) ) ;
#275 = CALENDAR_DATE ( 2022, 8, 7 ) ;
#276 = DIRECTION ( 'NONE',  ( -0.000000000000000000, -0.000000000000000000, -1.000000000000000000 ) ) ;
#277 = PRODUCT_DEFINITION_FORMATION_WITH_SPECIFIED_SOURCE ( 'LIBOVOLNÝ', '', #183, .NOT_KNOWN. ) ;
#278 = CARTESIAN_POINT ( 'NONE',  ( 0.000000000000000000, 0.000000000000000000, 0.000000000000000000 ) ) ;
#279 = EDGE_CURVE ( 'NONE', #145, #332, #342, .T. ) ;
#280 = SHAPE_DEFINITION_REPRESENTATION ( #364, #184 ) ;
#281 = DIRECTION ( 'NONE',  ( 0.000000000000000000, 0.000000000000000000, 1.000000000000000000 ) ) ;
#282 = VERTEX_POINT ( 'NONE', #22 ) ;
#283 = FACE_OUTER_BOUND ( 'NONE', #299, .T. ) ;
#284 = CIRCLE ( 'NONE', #89, 0.7000000000000000666 ) ;
#285 = CARTESIAN_POINT ( 'NONE',  ( -4.250000000000000000, 0.000000000000000000, 207.0000000000000284 ) ) ;
#286 = PRODUCT_RELATED_PRODUCT_CATEGORY ( 'detail', '', ( #183 ) ) ;
#287 = CIRCLE ( 'NONE', #121, 4.250000000000000000 ) ;
#288 = ORIENTED_EDGE ( 'NONE', *, *, #320, .T. ) ;
#289 = AXIS2_PLACEMENT_3D ( 'NONE', #120, #356, #179 ) ;
#290 = CARTESIAN_POINT ( 'NONE',  ( 0.000000000000000000, 0.000000000000000000, 7.000000000000000000 ) ) ;
#291 = ORIENTED_EDGE ( 'NONE', *, *, #61, .T. ) ;
#292 = FACE_OUTER_BOUND ( 'NONE', #127, .T. ) ;
#293 = ORIENTED_EDGE ( 'NONE', *, *, #240, .F. ) ;
#294 = ADVANCED_FACE ( 'NONE', ( #292 ), #206, .T. ) ;
#295 = VECTOR ( 'NONE', #346, 1000.000000000000000 ) ;
#296 = COORDINATED_UNIVERSAL_TIME_OFFSET ( 1, 0, .AHEAD. ) ;
#297 = CARTESIAN_POINT ( 'NONE',  ( 0.000000000000000000, 0.000000000000000000, 0.000000000000000000 ) ) ;
#298 = CARTESIAN_POINT ( 'NONE',  ( 0.000000000000000000, 0.000000000000000000, 207.0000000000000284 ) ) ;
#299 = EDGE_LOOP ( 'NONE', ( #357, #76, #288, #48 ) ) ;
#300 = APPROVAL_ROLE ( '' ) ;
#301 = ORIENTED_EDGE ( 'NONE', *, *, #240, .T. ) ;
#302 = CYLINDRICAL_SURFACE ( 'NONE', #29, 4.250000000000000000 ) ;
#303 = AXIS2_PLACEMENT_3D ( 'NONE', #12, #102, #135 ) ;
#304 = CARTESIAN_POINT ( 'NONE',  ( 0.000000000000000000, 0.000000000000000000, 0.000000000000000000 ) ) ;
#305 = CARTESIAN_POINT ( 'NONE',  ( 6.700000000000001066, 0.000000000000000000, 7.700000000000012612 ) ) ;
#306 = PERSON_AND_ORGANIZATION ( #30, #34 ) ;
#307 = DIRECTION ( 'NONE',  ( 1.000000000000000000, 0.000000000000000000, 0.000000000000000000 ) ) ;
#308 = VECTOR ( 'NONE', #222, 1000.000000000000000 ) ;
#309 = DIRECTION ( 'NONE',  ( 0.000000000000000000, 0.000000000000000000, -1.000000000000000000 ) ) ;
#310 = ADVANCED_FACE ( 'NONE', ( #27 ), #124, .F. ) ;
#311 = CARTESIAN_POINT ( 'NONE',  ( 0.000000000000000000, 0.000000000000000000, 7.000000000000000000 ) ) ;
#312 = ORIENTED_EDGE ( 'NONE', *, *, #13, .F. ) ;
#313 = CARTESIAN_POINT ( 'NONE',  ( 0.000000000000000000, 0.000000000000000000, 7.000000000000000000 ) ) ;
#314 = DIRECTION ( 'NONE',  ( 0.000000000000000000, 0.000000000000000000, 1.000000000000000000 ) ) ;
#315 = CARTESIAN_POINT ( 'NONE',  ( 4.250000000000000000, 5.204748896376249713E-16, 207.0000000000000284 ) ) ;
#316 = VECTOR ( 'NONE', #142, 1000.000000000000000 ) ;
#317 = AXIS2_PLACEMENT_3D ( 'NONE', #380, #114, #340 ) ;
#318 = ORIENTED_EDGE ( 'NONE', *, *, #3, .F. ) ;
#319 = CARTESIAN_POINT ( 'NONE',  ( 0.000000000000000000, 0.000000000000000000, 207.0000000000000284 ) ) ;
#320 = EDGE_CURVE ( 'NONE', #143, #158, #252, .T. ) ;
#321 = ORIENTED_EDGE ( 'NONE', *, *, #225, .F. ) ;
#322 = ADVANCED_FACE ( 'NONE', ( #227, #378 ), #31, .T. ) ;
#323 = PERSON_AND_ORGANIZATION ( #30, #34 ) ;
#324 = EDGE_CURVE ( 'NONE', #81, #332, #168, .T. ) ;
#325 = DIRECTION ( 'NONE',  ( 1.000000000000000000, 0.000000000000000000, 0.000000000000000000 ) ) ;
#326 = APPROVAL_DATE_TIME ( #35, #37 ) ;
#327 = ORIENTED_EDGE ( 'NONE', *, *, #381, .T. ) ;
#328 = APPROVAL_STATUS ( 'not_yet_approved' ) ;
#329 = ORIENTED_EDGE ( 'NONE', *, *, #324, .T. ) ;
#330 = LOCAL_TIME ( 16, 31, 10.00000000000000000, #296 ) ;
#331 = DATE_AND_TIME ( #275, #349 ) ;
#332 = VERTEX_POINT ( 'NONE', #50 ) ;
#333 = DIRECTION ( 'NONE',  ( 1.000000000000000000, 0.000000000000000000, -0.000000000000000000 ) ) ;
#334 = AXIS2_PLACEMENT_3D ( 'NONE', #193, #138, #47 ) ;
#335 = CARTESIAN_POINT ( 'NONE',  ( -4.250000000000000000, 0.000000000000000000, 207.0000000000000284 ) ) ;
#336 = PERSON_AND_ORGANIZATION ( #30, #34 ) ;
#337 = CIRCLE ( 'NONE', #317, 4.250000000000000000 ) ;
#338 = CARTESIAN_POINT ( 'NONE',  ( 10.00000000000000000, 1.224646799147353256E-15, 0.000000000000000000 ) ) ;
#339 = CARTESIAN_POINT ( 'NONE',  ( 6.700000000000001066, 0.000000000000000000, 7.000000000000006217 ) ) ;
#340 = DIRECTION ( 'NONE',  ( 1.000000000000000000, 0.000000000000000000, 0.000000000000000000 ) ) ;
#341 = CARTESIAN_POINT ( 'NONE',  ( 0.000000000000000000, 0.000000000000000000, 0.000000000000000000 ) ) ;
#342 = CIRCLE ( 'NONE', #362, 4.250000000000000000 ) ;
#343 = DIRECTION ( 'NONE',  ( 0.000000000000000000, 0.000000000000000000, 1.000000000000000000 ) ) ;
#344 = DIRECTION ( 'NONE',  ( 1.000000000000000000, 0.000000000000000000, 0.000000000000000000 ) ) ;
#345 = ORIENTED_EDGE ( 'NONE', *, *, #9, .T. ) ;
#346 = DIRECTION ( 'NONE',  ( 0.000000000000000000, 0.000000000000000000, -1.000000000000000000 ) ) ;
#347 = APPROVAL ( #241, 'NEURÈENÝ' ) ;
#348 = AXIS2_PLACEMENT_3D ( 'NONE', #66, #281, #244 ) ;
#349 = LOCAL_TIME ( 16, 31, 10.00000000000000000, #95 ) ;
#350 = EDGE_LOOP ( 'NONE', ( #271, #345 ) ) ;
#351 = COORDINATED_UNIVERSAL_TIME_OFFSET ( 1, 0, .AHEAD. ) ;
#352 = EDGE_CURVE ( 'NONE', #81, #251, #337, .T. ) ;
#353 = AXIS2_PLACEMENT_3D ( 'NONE', #20, #194, #195 ) ;
#354 = DIRECTION ( 'NONE',  ( 0.000000000000000000, 0.000000000000000000, 1.000000000000000000 ) ) ;
#355 = DIRECTION ( 'NONE',  ( 0.000000000000000000, 0.000000000000000000, 1.000000000000000000 ) ) ;
#356 = DIRECTION ( 'NONE',  ( 0.000000000000000000, 0.000000000000000000, -1.000000000000000000 ) ) ;
#357 = ORIENTED_EDGE ( 'NONE', *, *, #61, .F. ) ;
#358 =( NAMED_UNIT ( * ) PLANE_ANGLE_UNIT ( ) SI_UNIT ( $, .RADIAN. ) );
#359 = ORIENTED_EDGE ( 'NONE', *, *, #170, .T. ) ;
#360 = EDGE_LOOP ( 'NONE', ( #211, #318, #197, #204 ) ) ;
#361 = ADVANCED_FACE ( 'NONE', ( #23 ), #140, .F. ) ;
#362 = AXIS2_PLACEMENT_3D ( 'NONE', #341, #200, #54 ) ;
#363 = FACE_BOUND ( 'NONE', #60, .T. ) ;
#364 = PRODUCT_DEFINITION_SHAPE ( 'NONE', 'NONE',  #86 ) ;
#365 = CARTESIAN_POINT ( 'NONE',  ( -10.00000000000000000, 0.000000000000000000, 7.000000000000000000 ) ) ;
#366 = DIRECTION ( 'NONE',  ( 0.000000000000000000, 0.000000000000000000, 1.000000000000000000 ) ) ;
#367 = CIRCLE ( 'NONE', #36, 0.7000000000000000666 ) ;
#368 = AXIS2_PLACEMENT_3D ( 'NONE', #313, #112, #229 ) ;
#369 = FACE_OUTER_BOUND ( 'NONE', #11, .T. ) ;
#370 = CARTESIAN_POINT ( 'NONE',  ( 0.000000000000000000, 0.000000000000000000, 7.000000000000000000 ) ) ;
#371 = EDGE_CURVE ( 'NONE', #282, #261, #77, .T. ) ;
#372 = DIRECTION ( 'NONE',  ( 0.000000000000000000, 0.000000000000000000, 1.000000000000000000 ) ) ;
#373 = ORIENTED_EDGE ( 'NONE', *, *, #375, .F. ) ;
#374 = DIRECTION ( 'NONE',  ( -0.000000000000000000, -0.000000000000000000, -1.000000000000000000 ) ) ;
#375 = EDGE_CURVE ( 'NONE', #235, #256, #173, .T. ) ;
#376 = DIRECTION ( 'NONE',  ( -0.000000000000000000, -0.000000000000000000, -1.000000000000000000 ) ) ;
#377 = ORIENTED_EDGE ( 'NONE', *, *, #24, .F. ) ;
#378 = FACE_OUTER_BOUND ( 'NONE', #350, .T. ) ;
#379 = VERTEX_POINT ( 'NONE', #268 ) ;
#380 = CARTESIAN_POINT ( 'NONE',  ( 0.000000000000000000, 0.000000000000000000, 207.0000000000000284 ) ) ;
#381 = EDGE_CURVE ( 'NONE', #261, #282, #224, .T. ) ;
ENDSEC;
END-ISO-10303-21;
