ISO-10303-21;
HEADER;
FILE_DESCRIPTION (( 'STEP AP203' ),
    '1' );
FILE_NAME ('3364.STEP',
    '2022-07-08T15:38:41',
    ( '' ),
    ( '' ),
    'SwSTEP 2.0',
    'SolidWorks 2019',
    '' );
FILE_SCHEMA (( 'CONFIG_CONTROL_DESIGN' ));
ENDSEC;

DATA;
#1 = DIRECTION ( 'NONE',  ( 1.000000000000000000, 0.000000000000000000, 0.000000000000000000 ) ) ;
#2 = ADVANCED_FACE ( 'NONE', ( #375, #346 ), #24, .T. ) ;
#3 = CARTESIAN_POINT ( 'NONE',  ( -1.750000000000000000, 0.000000000000000000, 0.000000000000000000 ) ) ;
#4 = AXIS2_PLACEMENT_3D ( 'NONE', #83, #363, #57 ) ;
#5 = CARTESIAN_POINT ( 'NONE',  ( 0.000000000000000000, 0.000000000000000000, 0.000000000000000000 ) ) ;
#6 = DIRECTION ( 'NONE',  ( 0.000000000000000000, -1.000000000000000000, 0.000000000000000000 ) ) ;
#7 = FACE_OUTER_BOUND ( 'NONE', #340, .T. ) ;
#8 = DIRECTION ( 'NONE',  ( 0.000000000000000000, 0.000000000000000000, -1.000000000000000000 ) ) ;
#9 = AXIS2_PLACEMENT_3D ( 'NONE', #235, #80, #205 ) ;
#10 = VERTEX_POINT ( 'NONE', #71 ) ;
#11 = CALENDAR_DATE ( 2022, 8, 7 ) ;
#12 = APPROVAL_ROLE ( '' ) ;
#13 = ORIENTED_EDGE ( 'NONE', *, *, #60, .F. ) ;
#14 = APPLICATION_PROTOCOL_DEFINITION ( 'international standard', 'config_control_design', 1994, #289 ) ;
#15 = VERTEX_POINT ( 'NONE', #291 ) ;
#16 = APPROVAL_STATUS ( 'not_yet_approved' ) ;
#17 = EDGE_LOOP ( 'NONE', ( #67, #253, #224, #13 ) ) ;
#18 = CALENDAR_DATE ( 2022, 8, 7 ) ;
#19 = CARTESIAN_POINT ( 'NONE',  ( -3.000000000000000444, 0.000000000000000000, 5.500000000000005329 ) ) ;
#20 = VECTOR ( 'NONE', #267, 1000.000000000000000 ) ;
#21 = CARTESIAN_POINT ( 'NONE',  ( 1.750000000000000000, 2.143131898507868297E-16, 255.0000000000000000 ) ) ;
#22 = VERTEX_POINT ( 'NONE', #27 ) ;
#23 = PRODUCT_DEFINITION ( 'NEZNÁMÝ', '', #35, #297 ) ;
#24 = PLANE ( 'NONE',  #112 ) ;
#25 = CARTESIAN_POINT ( 'NONE',  ( 0.000000000000000000, 0.000000000000000000, 5.000000000000000000 ) ) ;
#26 = EDGE_CURVE ( 'NONE', #141, #331, #197, .T. ) ;
#27 = CARTESIAN_POINT ( 'NONE',  ( 6.000000000000000888, 7.347880794884120722E-16, 5.000000000000000000 ) ) ;
#28 = LOCAL_TIME ( 17, 38, 41.00000000000000000, #66 ) ;
#29 = CARTESIAN_POINT ( 'NONE',  ( 0.000000000000000000, 0.000000000000000000, 255.0000000000000000 ) ) ;
#30 = FACE_OUTER_BOUND ( 'NONE', #91, .T. ) ;
#31 = EDGE_CURVE ( 'NONE', #68, #160, #33, .T. ) ;
#32 = CIRCLE ( 'NONE', #96, 1.750000000000000000 ) ;
#33 = CIRCLE ( 'NONE', #161, 0.4999999999999995559 ) ;
#34 = ORIENTED_EDGE ( 'NONE', *, *, #31, .T. ) ;
#35 = PRODUCT_DEFINITION_FORMATION_WITH_SPECIFIED_SOURCE ( 'LIBOVOLNÝ', '', #94, .NOT_KNOWN. ) ;
#36 = DIRECTION ( 'NONE',  ( 0.000000000000000000, 0.000000000000000000, -1.000000000000000000 ) ) ;
#37 = ORIENTED_EDGE ( 'NONE', *, *, #60, .T. ) ;
#38 = APPROVAL_ROLE ( '' ) ;
#39 = ORIENTED_EDGE ( 'NONE', *, *, #31, .F. ) ;
#40 = PERSON_AND_ORGANIZATION ( #53, #378 ) ;
#41 = CC_DESIGN_PERSON_AND_ORGANIZATION_ASSIGNMENT ( #248, #105, ( #35 ) ) ;
#42 = ORIENTED_EDGE ( 'NONE', *, *, #328, .T. ) ;
#43 = CIRCLE ( 'NONE', #350, 3.000000000000000444 ) ;
#44 = PERSON_AND_ORGANIZATION ( #53, #378 ) ;
#45 = ORIENTED_EDGE ( 'NONE', *, *, #351, .F. ) ;
#46 = ORIENTED_EDGE ( 'NONE', *, *, #329, .T. ) ;
#47 = DIRECTION ( 'NONE',  ( 0.000000000000000000, 0.000000000000000000, 1.000000000000000000 ) ) ;
#48 = CIRCLE ( 'NONE', #281, 1.750000000000000000 ) ;
#49 = DIRECTION ( 'NONE',  ( 1.000000000000000000, 0.000000000000000000, 0.000000000000000000 ) ) ;
#50 = CARTESIAN_POINT ( 'NONE',  ( -1.750000000000000000, 0.000000000000000000, 255.0000000000000000 ) ) ;
#51 = CARTESIAN_POINT ( 'NONE',  ( 0.000000000000000000, 0.000000000000000000, 5.500000000000005329 ) ) ;
#52 = DIRECTION ( 'NONE',  ( 0.000000000000000000, 0.000000000000000000, -1.000000000000000000 ) ) ;
#53 = PERSON ( 'NEURÈENÝ', 'NEURÈENÝ', 'NEURÈENÝ', ('NEURÈENÝ'), ('NEURÈENÝ'), ('NEURÈENÝ') ) ;
#54 = LOCAL_TIME ( 17, 38, 41.00000000000000000, #63 ) ;
#55 = DIRECTION ( 'NONE',  ( -0.000000000000000000, -0.000000000000000000, -1.000000000000000000 ) ) ;
#56 = CARTESIAN_POINT ( 'NONE',  ( 0.000000000000000000, 0.000000000000000000, 255.0000000000000000 ) ) ;
#57 = DIRECTION ( 'NONE',  ( 1.000000000000000000, 0.000000000000000000, 0.000000000000000000 ) ) ;
#58 = TOROIDAL_SURFACE ( 'NONE', #282, 3.500000000000000444, 0.5000000000000000000 ) ;
#59 = CYLINDRICAL_SURFACE ( 'NONE', #81, 3.000000000000000444 ) ;
#60 = EDGE_CURVE ( 'NONE', #93, #331, #194, .T. ) ;
#61 = DIRECTION ( 'NONE',  ( 0.000000000000000000, 0.000000000000000000, -1.000000000000000000 ) ) ;
#62 = ORIENTED_EDGE ( 'NONE', *, *, #150, .F. ) ;
#63 = COORDINATED_UNIVERSAL_TIME_OFFSET ( 1, 0, .AHEAD. ) ;
#64 = ORIENTED_EDGE ( 'NONE', *, *, #150, .T. ) ;
#65 = CC_DESIGN_PERSON_AND_ORGANIZATION_ASSIGNMENT ( #164, #128, ( #35 ) ) ;
#66 = COORDINATED_UNIVERSAL_TIME_OFFSET ( 1, 0, .AHEAD. ) ;
#67 = ORIENTED_EDGE ( 'NONE', *, *, #174, .T. ) ;
#68 = VERTEX_POINT ( 'NONE', #19 ) ;
#69 = AXIS2_PLACEMENT_3D ( 'NONE', #87, #6, #8 ) ;
#70 = CC_DESIGN_APPROVAL ( #209, ( #35 ) ) ;
#71 = CARTESIAN_POINT ( 'NONE',  ( -6.000000000000000888, 0.000000000000000000, 5.000000000000000000 ) ) ;
#72 = ORIENTED_EDGE ( 'NONE', *, *, #143, .T. ) ;
#73 = EDGE_CURVE ( 'NONE', #160, #362, #377, .T. ) ;
#74 = DIRECTION ( 'NONE',  ( -0.000000000000000000, -0.000000000000000000, -1.000000000000000000 ) ) ;
#75 = AXIS2_PLACEMENT_3D ( 'NONE', #120, #202, #206 ) ;
#76 = AXIS2_PLACEMENT_3D ( 'NONE', #51, #78, #107 ) ;
#77 = DIRECTION ( 'NONE',  ( 1.000000000000000000, 0.000000000000000000, 0.000000000000000000 ) ) ;
#78 = DIRECTION ( 'NONE',  ( 0.000000000000000000, 0.000000000000000000, 1.000000000000000000 ) ) ;
#79 = PLANE ( 'NONE',  #75 ) ;
#80 = DIRECTION ( 'NONE',  ( -0.000000000000000000, -0.000000000000000000, -1.000000000000000000 ) ) ;
#81 = AXIS2_PLACEMENT_3D ( 'NONE', #29, #180, #357 ) ;
#82 = CIRCLE ( 'NONE', #4, 3.000000000000000444 ) ;
#83 = CARTESIAN_POINT ( 'NONE',  ( 0.000000000000000000, 0.000000000000000000, 5.500000000000005329 ) ) ;
#84 = ADVANCED_FACE ( 'NONE', ( #380 ), #258, .F. ) ;
#85 = FACE_BOUND ( 'NONE', #134, .T. ) ;
#86 = EDGE_CURVE ( 'NONE', #331, #141, #48, .T. ) ;
#87 = CARTESIAN_POINT ( 'NONE',  ( 3.500000000000000444, 0.000000000000000000, 5.500000000000005329 ) ) ;
#88 = CIRCLE ( 'NONE', #241, 3.500000000000000444 ) ;
#89 = CARTESIAN_POINT ( 'NONE',  ( 0.000000000000000000, 0.000000000000000000, 255.0000000000000000 ) ) ;
#90 = APPLICATION_CONTEXT ( 'configuration controlled 3d designs of mechanical parts and assemblies' ) ;
#91 = EDGE_LOOP ( 'NONE', ( #371, #232, #125, #190 ) ) ;
#92 = CARTESIAN_POINT ( 'NONE',  ( 6.000000000000000888, 7.347880794884120722E-16, 5.000000000000000000 ) ) ;
#93 = VERTEX_POINT ( 'NONE', #50 ) ;
#94 = PRODUCT ( '3364', '3364', '', ( #271 ) ) ;
#95 = CC_DESIGN_DATE_AND_TIME_ASSIGNMENT ( #136, #256, ( #23 ) ) ;
#96 = AXIS2_PLACEMENT_3D ( 'NONE', #56, #117, #184 ) ;
#97 = ORIENTED_EDGE ( 'NONE', *, *, #329, .F. ) ;
#98 = APPROVAL_PERSON_ORGANIZATION ( #40, #209, #12 ) ;
#99 = CALENDAR_DATE ( 2022, 8, 7 ) ;
#100 = ORIENTED_EDGE ( 'NONE', *, *, #26, .F. ) ;
#101 = PERSON_AND_ORGANIZATION ( #53, #378 ) ;
#102 = ORIENTED_EDGE ( 'NONE', *, *, #255, .F. ) ;
#103 = DIRECTION ( 'NONE',  ( -0.000000000000000000, -0.000000000000000000, -1.000000000000000000 ) ) ;
#104 = AXIS2_PLACEMENT_3D ( 'NONE', #138, #259, #199 ) ;
#105 = PERSON_AND_ORGANIZATION_ROLE ( 'design_supplier' ) ;
#106 = DIRECTION ( 'NONE',  ( 0.000000000000000000, 0.000000000000000000, 1.000000000000000000 ) ) ;
#107 = DIRECTION ( 'NONE',  ( 1.000000000000000000, 0.000000000000000000, 0.000000000000000000 ) ) ;
#108 = EDGE_CURVE ( 'NONE', #245, #283, #144, .T. ) ;
#109 = CARTESIAN_POINT ( 'NONE',  ( 0.000000000000000000, 0.000000000000000000, 5.500000000000005329 ) ) ;
#110 = CARTESIAN_POINT ( 'NONE',  ( 3.000000000000000444, 3.673940397442060361E-16, 255.0000000000000000 ) ) ;
#111 = AXIS2_PLACEMENT_3D ( 'NONE', #300, #292, #322 ) ;
#112 = AXIS2_PLACEMENT_3D ( 'NONE', #228, #47, #178 ) ;
#113 = DIRECTION ( 'NONE',  ( 0.000000000000000000, 0.000000000000000000, 1.000000000000000000 ) ) ;
#114 = ORIENTED_EDGE ( 'NONE', *, *, #108, .F. ) ;
#115 = DIRECTION ( 'NONE',  ( 0.000000000000000000, 0.000000000000000000, 1.000000000000000000 ) ) ;
#116 = FACE_OUTER_BOUND ( 'NONE', #315, .T. ) ;
#117 = DIRECTION ( 'NONE',  ( 0.000000000000000000, 0.000000000000000000, 1.000000000000000000 ) ) ;
#118 = ADVANCED_FACE ( 'NONE', ( #321, #146 ), #79, .F. ) ;
#119 = VECTOR ( 'NONE', #326, 1000.000000000000000 ) ;
#120 = CARTESIAN_POINT ( 'NONE',  ( 0.000000000000000000, 0.000000000000000000, 0.000000000000000000 ) ) ;
#121 = ADVANCED_FACE ( 'NONE', ( #30 ), #234, .T. ) ;
#122 = CARTESIAN_POINT ( 'NONE',  ( 0.000000000000000000, 0.000000000000000000, 255.0000000000000000 ) ) ;
#123 = AXIS2_PLACEMENT_3D ( 'NONE', #122, #239, #236 ) ;
#124 = LOCAL_TIME ( 17, 38, 41.00000000000000000, #341 ) ;
#125 = ORIENTED_EDGE ( 'NONE', *, *, #299, .T. ) ;
#126 = EDGE_LOOP ( 'NONE', ( #42, #345 ) ) ;
#127 = ORIENTED_EDGE ( 'NONE', *, *, #157, .F. ) ;
#128 = PERSON_AND_ORGANIZATION_ROLE ( 'creator' ) ;
#129 = AXIS2_PLACEMENT_3D ( 'NONE', #240, #210, #185 ) ;
#130 = ORIENTED_EDGE ( 'NONE', *, *, #183, .F. ) ;
#131 = CIRCLE ( 'NONE', #354, 6.000000000000000888 ) ;
#132 = DATE_AND_TIME ( #99, #370 ) ;
#133 = ADVANCED_FACE ( 'NONE', ( #325 ), #59, .T. ) ;
#134 = EDGE_LOOP ( 'NONE', ( #64, #305 ) ) ;
#135 = COORDINATED_UNIVERSAL_TIME_OFFSET ( 1, 0, .AHEAD. ) ;
#136 = DATE_AND_TIME ( #366, #54 ) ;
#137 = DIRECTION ( 'NONE',  ( 1.000000000000000000, 0.000000000000000000, 0.000000000000000000 ) ) ;
#138 = CARTESIAN_POINT ( 'NONE',  ( 0.000000000000000000, 0.000000000000000000, 5.000000000000000000 ) ) ;
#139 = AXIS2_PLACEMENT_3D ( 'NONE', #172, #103, #77 ) ;
#140 = CC_DESIGN_APPROVAL ( #290, ( #154 ) ) ;
#141 = VERTEX_POINT ( 'NONE', #358 ) ;
#142 = CARTESIAN_POINT ( 'NONE',  ( 3.000000000000000444, 3.673940397442060361E-16, 5.500000000000005329 ) ) ;
#143 = EDGE_CURVE ( 'NONE', #15, #68, #149, .T. ) ;
#144 = LINE ( 'NONE', #110, #211 ) ;
#145 = CARTESIAN_POINT ( 'NONE',  ( 0.000000000000000000, 0.000000000000000000, 255.0000000000000000 ) ) ;
#146 = FACE_OUTER_BOUND ( 'NONE', #277, .T. ) ;
#147 = LOCAL_TIME ( 17, 38, 41.00000000000000000, #284 ) ;
#148 = CYLINDRICAL_SURFACE ( 'NONE', #302, 6.000000000000000888 ) ;
#149 = LINE ( 'NONE', #353, #203 ) ;
#150 = EDGE_CURVE ( 'NONE', #362, #160, #88, .T. ) ;
#151 = LINE ( 'NONE', #158, #20 ) ;
#152 = CARTESIAN_POINT ( 'NONE',  ( 0.000000000000000000, 0.000000000000000000, 5.000000000000000000 ) ) ;
#153 = APPLICATION_PROTOCOL_DEFINITION ( 'international standard', 'config_control_design', 1994, #90 ) ;
#154 = SECURITY_CLASSIFICATION ( '', '', #369 ) ;
#155 = ADVANCED_FACE ( 'NONE', ( #85, #295 ), #296, .T. ) ;
#156 = EDGE_CURVE ( 'NONE', #10, #165, #151, .T. ) ;
#157 = EDGE_CURVE ( 'NONE', #283, #362, #312, .T. ) ;
#158 = CARTESIAN_POINT ( 'NONE',  ( -6.000000000000000888, 0.000000000000000000, 5.000000000000000000 ) ) ;
#159 = ADVANCED_BREP_SHAPE_REPRESENTATION ( '3364', ( #298, #286 ), #306 ) ;
#160 = VERTEX_POINT ( 'NONE', #208 ) ;
#161 = AXIS2_PLACEMENT_3D ( 'NONE', #226, #287, #260 ) ;
#162 = CIRCLE ( 'NONE', #233, 6.000000000000000888 ) ;
#163 = CC_DESIGN_PERSON_AND_ORGANIZATION_ASSIGNMENT ( #273, #316, ( #94 ) ) ;
#164 = PERSON_AND_ORGANIZATION ( #53, #378 ) ;
#165 = VERTEX_POINT ( 'NONE', #327 ) ;
#166 = APPROVAL_ROLE ( '' ) ;
#167 = ORIENTED_EDGE ( 'NONE', *, *, #324, .T. ) ;
#168 = AXIS2_PLACEMENT_3D ( 'NONE', #229, #262, #347 ) ;
#169 = LINE ( 'NONE', #257, #242 ) ;
#170 = CARTESIAN_POINT ( 'NONE',  ( -1.750000000000000000, 0.000000000000000000, 255.0000000000000000 ) ) ;
#171 = SHAPE_DEFINITION_REPRESENTATION ( #372, #159 ) ;
#172 = CARTESIAN_POINT ( 'NONE',  ( 0.000000000000000000, 0.000000000000000000, 0.000000000000000000 ) ) ;
#173 = AXIS2_PLACEMENT_3D ( 'NONE', #109, #106, #231 ) ;
#174 = EDGE_CURVE ( 'NONE', #93, #243, #32, .T. ) ;
#175 = ORIENTED_EDGE ( 'NONE', *, *, #367, .T. ) ;
#176 = DATE_AND_TIME ( #252, #124 ) ;
#177 = DIRECTION ( 'NONE',  ( 1.000000000000000000, 0.000000000000000000, 0.000000000000000000 ) ) ;
#178 = DIRECTION ( 'NONE',  ( 1.000000000000000000, 0.000000000000000000, -0.000000000000000000 ) ) ;
#179 = DIRECTION ( 'NONE',  ( -1.000000000000000000, 0.000000000000000000, 0.000000000000000000 ) ) ;
#180 = DIRECTION ( 'NONE',  ( -0.000000000000000000, -0.000000000000000000, -1.000000000000000000 ) ) ;
#181 = FACE_OUTER_BOUND ( 'NONE', #368, .T. ) ;
#182 = CARTESIAN_POINT ( 'NONE',  ( 0.000000000000000000, 0.000000000000000000, 5.000000000000000000 ) ) ;
#183 = EDGE_CURVE ( 'NONE', #243, #93, #249, .T. ) ;
#184 = DIRECTION ( 'NONE',  ( 1.000000000000000000, 0.000000000000000000, 0.000000000000000000 ) ) ;
#185 = DIRECTION ( 'NONE',  ( 1.000000000000000000, 0.000000000000000000, 0.000000000000000000 ) ) ;
#186 =( NAMED_UNIT ( * ) SI_UNIT ( $, .STERADIAN. ) SOLID_ANGLE_UNIT ( ) );
#187 = ORIENTED_EDGE ( 'NONE', *, *, #174, .F. ) ;
#188 = ORIENTED_EDGE ( 'NONE', *, *, #86, .F. ) ;
#189 = PERSON_AND_ORGANIZATION ( #53, #378 ) ;
#190 = ORIENTED_EDGE ( 'NONE', *, *, #143, .F. ) ;
#191 = CLOSED_SHELL ( 'NONE', ( #222, #84, #121, #261, #310, #155, #118, #133, #2, #230, #338 ) ) ;
#192 = CIRCLE ( 'NONE', #168, 6.000000000000000888 ) ;
#193 = ORIENTED_EDGE ( 'NONE', *, *, #156, .T. ) ;
#194 = LINE ( 'NONE', #170, #334 ) ;
#195 = PERSON_AND_ORGANIZATION ( #53, #378 ) ;
#196 = DIRECTION ( 'NONE',  ( 1.000000000000000000, 0.000000000000000000, 0.000000000000000000 ) ) ;
#197 = CIRCLE ( 'NONE', #139, 1.750000000000000000 ) ;
#198 = DIRECTION ( 'NONE',  ( 0.000000000000000000, 0.000000000000000000, 1.000000000000000000 ) ) ;
#199 = DIRECTION ( 'NONE',  ( 1.000000000000000000, 0.000000000000000000, 0.000000000000000000 ) ) ;
#200 = CARTESIAN_POINT ( 'NONE',  ( 0.000000000000000000, 0.000000000000000000, 0.000000000000000000 ) ) ;
#201 = PRODUCT_RELATED_PRODUCT_CATEGORY ( 'detail', '', ( #94 ) ) ;
#202 = DIRECTION ( 'NONE',  ( 0.000000000000000000, 0.000000000000000000, 1.000000000000000000 ) ) ;
#203 = VECTOR ( 'NONE', #55, 1000.000000000000000 ) ;
#204 = CIRCLE ( 'NONE', #319, 6.000000000000000888 ) ;
#205 = DIRECTION ( 'NONE',  ( -1.000000000000000000, 0.000000000000000000, 0.000000000000000000 ) ) ;
#206 = DIRECTION ( 'NONE',  ( 1.000000000000000000, 0.000000000000000000, -0.000000000000000000 ) ) ;
#207 = LINE ( 'NONE', #92, #119 ) ;
#208 = CARTESIAN_POINT ( 'NONE',  ( -3.500000000000000444, 4.286263797015737088E-16, 5.000000000000002665 ) ) ;
#209 = APPROVAL ( #227, 'NEURÈENÝ' ) ;
#210 = DIRECTION ( 'NONE',  ( 0.000000000000000000, 0.000000000000000000, 1.000000000000000000 ) ) ;
#211 = VECTOR ( 'NONE', #265, 1000.000000000000000 ) ;
#212 = CARTESIAN_POINT ( 'NONE',  ( 3.500000000000000444, 0.000000000000000000, 5.000000000000002665 ) ) ;
#213 = AXIS2_PLACEMENT_3D ( 'NONE', #356, #36, #330 ) ;
#214 = CARTESIAN_POINT ( 'NONE',  ( 3.000000000000000444, 3.673940397442060361E-16, 255.0000000000000000 ) ) ;
#215 = CYLINDRICAL_SURFACE ( 'NONE', #213, 1.750000000000000000 ) ;
#216 = ORIENTED_EDGE ( 'NONE', *, *, #156, .F. ) ;
#217 =( LENGTH_UNIT ( ) NAMED_UNIT ( * ) SI_UNIT ( .MILLI., .METRE. ) );
#218 = ORIENTED_EDGE ( 'NONE', *, *, #288, .T. ) ;
#219 = EDGE_CURVE ( 'NONE', #245, #15, #301, .T. ) ;
#220 = ORIENTED_EDGE ( 'NONE', *, *, #328, .F. ) ;
#221 = DATE_TIME_ROLE ( 'classification_date' ) ;
#222 = ADVANCED_FACE ( 'NONE', ( #304 ), #360, .F. ) ;
#223 = EDGE_LOOP ( 'NONE', ( #114, #97, #72, #336 ) ) ;
#224 = ORIENTED_EDGE ( 'NONE', *, *, #26, .T. ) ;
#225 = APPROVAL_STATUS ( 'not_yet_approved' ) ;
#226 = CARTESIAN_POINT ( 'NONE',  ( -3.500000000000000444, 4.286263797015737088E-16, 5.500000000000005329 ) ) ;
#227 = APPROVAL_STATUS ( 'not_yet_approved' ) ;
#228 = CARTESIAN_POINT ( 'NONE',  ( 0.000000000000000000, 0.000000000000000000, 255.0000000000000000 ) ) ;
#229 = CARTESIAN_POINT ( 'NONE',  ( 0.000000000000000000, 0.000000000000000000, 0.000000000000000000 ) ) ;
#230 = ADVANCED_FACE ( 'NONE', ( #244 ), #58, .F. ) ;
#231 = DIRECTION ( 'NONE',  ( 1.000000000000000000, 0.000000000000000000, 0.000000000000000000 ) ) ;
#232 = ORIENTED_EDGE ( 'NONE', *, *, #108, .T. ) ;
#233 = AXIS2_PLACEMENT_3D ( 'NONE', #268, #294, #49 ) ;
#234 = CYLINDRICAL_SURFACE ( 'NONE', #111, 3.000000000000000444 ) ;
#235 = CARTESIAN_POINT ( 'NONE',  ( 0.000000000000000000, 0.000000000000000000, 5.000000000000000000 ) ) ;
#236 = DIRECTION ( 'NONE',  ( 1.000000000000000000, 0.000000000000000000, 0.000000000000000000 ) ) ;
#237 = DIRECTION ( 'NONE',  ( 1.000000000000000000, 0.000000000000000000, 0.000000000000000000 ) ) ;
#238 = DIRECTION ( 'NONE',  ( 1.000000000000000000, 0.000000000000000000, 0.000000000000000000 ) ) ;
#239 = DIRECTION ( 'NONE',  ( 0.000000000000000000, 0.000000000000000000, 1.000000000000000000 ) ) ;
#240 = CARTESIAN_POINT ( 'NONE',  ( 0.000000000000000000, 0.000000000000000000, 255.0000000000000000 ) ) ;
#241 = AXIS2_PLACEMENT_3D ( 'NONE', #272, #266, #1 ) ;
#242 = VECTOR ( 'NONE', #61, 1000.000000000000000 ) ;
#243 = VERTEX_POINT ( 'NONE', #21 ) ;
#244 = FACE_OUTER_BOUND ( 'NONE', #309, .T. ) ;
#245 = VERTEX_POINT ( 'NONE', #214 ) ;
#246 = APPROVAL_DATE_TIME ( #374, #250 ) ;
#247 = ORIENTED_EDGE ( 'NONE', *, *, #279, .F. ) ;
#248 = PERSON_AND_ORGANIZATION ( #53, #378 ) ;
#249 = CIRCLE ( 'NONE', #123, 1.750000000000000000 ) ;
#250 = APPROVAL ( #16, 'NEURÈENÝ' ) ;
#251 = ORIENTED_EDGE ( 'NONE', *, *, #86, .T. ) ;
#252 = CALENDAR_DATE ( 2022, 8, 7 ) ;
#253 = ORIENTED_EDGE ( 'NONE', *, *, #255, .T. ) ;
#254 = EDGE_LOOP ( 'NONE', ( #46, #365 ) ) ;
#255 = EDGE_CURVE ( 'NONE', #243, #141, #169, .T. ) ;
#256 = DATE_TIME_ROLE ( 'creation_date' ) ;
#257 = CARTESIAN_POINT ( 'NONE',  ( 1.750000000000000000, 2.143131898507868297E-16, 255.0000000000000000 ) ) ;
#258 = TOROIDAL_SURFACE ( 'NONE', #173, 3.500000000000000444, 0.5000000000000000000 ) ;
#259 = DIRECTION ( 'NONE',  ( -0.000000000000000000, -0.000000000000000000, -1.000000000000000000 ) ) ;
#260 = DIRECTION ( 'NONE',  ( -1.000000000000000000, 1.224646799147354440E-16, 0.000000000000000000 ) ) ;
#261 = ADVANCED_FACE ( 'NONE', ( #181 ), #148, .T. ) ;
#262 = DIRECTION ( 'NONE',  ( 0.000000000000000000, 0.000000000000000000, 1.000000000000000000 ) ) ;
#263 = ORIENTED_EDGE ( 'NONE', *, *, #367, .F. ) ;
#264 = DIRECTION ( 'NONE',  ( 0.000000000000000000, 0.000000000000000000, 1.000000000000000000 ) ) ;
#265 = DIRECTION ( 'NONE',  ( -0.000000000000000000, -0.000000000000000000, -1.000000000000000000 ) ) ;
#266 = DIRECTION ( 'NONE',  ( -0.000000000000000000, -0.000000000000000000, -1.000000000000000000 ) ) ;
#267 = DIRECTION ( 'NONE',  ( -0.000000000000000000, -0.000000000000000000, -1.000000000000000000 ) ) ;
#268 = CARTESIAN_POINT ( 'NONE',  ( 0.000000000000000000, 0.000000000000000000, 5.000000000000000000 ) ) ;
#269 = AXIS2_PLACEMENT_3D ( 'NONE', #182, #115, #274 ) ;
#270 = APPROVAL_PERSON_ORGANIZATION ( #195, #250, #38 ) ;
#271 = MECHANICAL_CONTEXT ( 'NONE', #90, 'mechanical' ) ;
#272 = CARTESIAN_POINT ( 'NONE',  ( 0.000000000000000000, 0.000000000000000000, 5.000000000000000000 ) ) ;
#273 = PERSON_AND_ORGANIZATION ( #53, #378 ) ;
#274 = DIRECTION ( 'NONE',  ( 1.000000000000000000, 0.000000000000000000, -0.000000000000000000 ) ) ;
#275 = CARTESIAN_POINT ( 'NONE',  ( 6.000000000000000888, 7.347880794884120722E-16, 0.000000000000000000 ) ) ;
#276 = CC_DESIGN_DATE_AND_TIME_ASSIGNMENT ( #132, #221, ( #154 ) ) ;
#277 = EDGE_LOOP ( 'NONE', ( #280, #373 ) ) ;
#278 = ORIENTED_EDGE ( 'NONE', *, *, #157, .T. ) ;
#279 = EDGE_CURVE ( 'NONE', #22, #10, #162, .T. ) ;
#280 = ORIENTED_EDGE ( 'NONE', *, *, #288, .F. ) ;
#281 = AXIS2_PLACEMENT_3D ( 'NONE', #348, #74, #320 ) ;
#282 = AXIS2_PLACEMENT_3D ( 'NONE', #313, #364, #137 ) ;
#283 = VERTEX_POINT ( 'NONE', #142 ) ;
#284 = COORDINATED_UNIVERSAL_TIME_OFFSET ( 1, 0, .AHEAD. ) ;
#285 = DIRECTION ( 'NONE',  ( 0.000000000000000000, 0.000000000000000000, -1.000000000000000000 ) ) ;
#286 = AXIS2_PLACEMENT_3D ( 'NONE', #5, #303, #238 ) ;
#287 = DIRECTION ( 'NONE',  ( 1.224646799147353207E-16, 1.000000000000000000, -0.000000000000000000 ) ) ;
#288 = EDGE_CURVE ( 'NONE', #165, #333, #204, .T. ) ;
#289 = APPLICATION_CONTEXT ( 'configuration controlled 3d designs of mechanical parts and assemblies' ) ;
#290 = APPROVAL ( #225, 'NEURÈENÝ' ) ;
#291 = CARTESIAN_POINT ( 'NONE',  ( -3.000000000000000444, 0.000000000000000000, 255.0000000000000000 ) ) ;
#292 = DIRECTION ( 'NONE',  ( -0.000000000000000000, -0.000000000000000000, -1.000000000000000000 ) ) ;
#293 = APPROVAL_PERSON_ORGANIZATION ( #189, #290, #166 ) ;
#294 = DIRECTION ( 'NONE',  ( 0.000000000000000000, 0.000000000000000000, 1.000000000000000000 ) ) ;
#295 = FACE_OUTER_BOUND ( 'NONE', #126, .T. ) ;
#296 = PLANE ( 'NONE',  #269 ) ;
#297 = DESIGN_CONTEXT ( 'detailed design', #289, 'design' ) ;
#298 = MANIFOLD_SOLID_BREP ( 'Odebrat vysunutím3', #191 ) ;
#299 = EDGE_CURVE ( 'NONE', #283, #68, #361, .T. ) ;
#300 = CARTESIAN_POINT ( 'NONE',  ( 0.000000000000000000, 0.000000000000000000, 255.0000000000000000 ) ) ;
#301 = CIRCLE ( 'NONE', #129, 3.000000000000000444 ) ;
#302 = AXIS2_PLACEMENT_3D ( 'NONE', #152, #349, #323 ) ;
#303 = DIRECTION ( 'NONE',  ( 0.000000000000000000, 0.000000000000000000, 1.000000000000000000 ) ) ;
#304 = FACE_OUTER_BOUND ( 'NONE', #17, .T. ) ;
#305 = ORIENTED_EDGE ( 'NONE', *, *, #73, .T. ) ;
#306 =( GEOMETRIC_REPRESENTATION_CONTEXT ( 3 ) GLOBAL_UNCERTAINTY_ASSIGNED_CONTEXT ( ( #355 ) ) GLOBAL_UNIT_ASSIGNED_CONTEXT ( ( #217, #332, #186 ) ) REPRESENTATION_CONTEXT ( 'NONE', 'WORKASPACE' ) );
#307 = ORIENTED_EDGE ( 'NONE', *, *, #73, .F. ) ;
#308 = ORIENTED_EDGE ( 'NONE', *, *, #183, .T. ) ;
#309 = EDGE_LOOP ( 'NONE', ( #39, #317, #278, #307 ) ) ;
#310 = ADVANCED_FACE ( 'NONE', ( #116 ), #381, .T. ) ;
#311 = PERSON_AND_ORGANIZATION_ROLE ( 'classification_officer' ) ;
#312 = CIRCLE ( 'NONE', #69, 0.5000000000000004441 ) ;
#313 = CARTESIAN_POINT ( 'NONE',  ( 0.000000000000000000, 0.000000000000000000, 5.500000000000005329 ) ) ;
#314 = CC_DESIGN_APPROVAL ( #250, ( #23 ) ) ;
#315 = EDGE_LOOP ( 'NONE', ( #263, #220, #193, #218 ) ) ;
#316 = PERSON_AND_ORGANIZATION_ROLE ( 'design_owner' ) ;
#317 = ORIENTED_EDGE ( 'NONE', *, *, #299, .F. ) ;
#318 = EDGE_LOOP ( 'NONE', ( #45, #34, #62, #127 ) ) ;
#319 = AXIS2_PLACEMENT_3D ( 'NONE', #200, #264, #196 ) ;
#320 = DIRECTION ( 'NONE',  ( 1.000000000000000000, 0.000000000000000000, 0.000000000000000000 ) ) ;
#321 = FACE_BOUND ( 'NONE', #379, .T. ) ;
#322 = DIRECTION ( 'NONE',  ( -1.000000000000000000, 0.000000000000000000, 0.000000000000000000 ) ) ;
#323 = DIRECTION ( 'NONE',  ( -1.000000000000000000, 0.000000000000000000, 0.000000000000000000 ) ) ;
#324 = EDGE_CURVE ( 'NONE', #333, #165, #192, .T. ) ;
#325 = FACE_OUTER_BOUND ( 'NONE', #223, .T. ) ;
#326 = DIRECTION ( 'NONE',  ( -0.000000000000000000, -0.000000000000000000, -1.000000000000000000 ) ) ;
#327 = CARTESIAN_POINT ( 'NONE',  ( -6.000000000000000888, 0.000000000000000000, 0.000000000000000000 ) ) ;
#328 = EDGE_CURVE ( 'NONE', #10, #22, #131, .T. ) ;
#329 = EDGE_CURVE ( 'NONE', #15, #245, #43, .T. ) ;
#330 = DIRECTION ( 'NONE',  ( -1.000000000000000000, 0.000000000000000000, 0.000000000000000000 ) ) ;
#331 = VERTEX_POINT ( 'NONE', #3 ) ;
#332 =( NAMED_UNIT ( * ) PLANE_ANGLE_UNIT ( ) SI_UNIT ( $, .RADIAN. ) );
#333 = VERTEX_POINT ( 'NONE', #275 ) ;
#334 = VECTOR ( 'NONE', #285, 1000.000000000000000 ) ;
#335 = PERSON_AND_ORGANIZATION_ROLE ( 'creator' ) ;
#336 = ORIENTED_EDGE ( 'NONE', *, *, #351, .T. ) ;
#337 = DATE_AND_TIME ( #18, #147 ) ;
#338 = ADVANCED_FACE ( 'NONE', ( #7 ), #215, .F. ) ;
#339 = EDGE_LOOP ( 'NONE', ( #187, #130 ) ) ;
#340 = EDGE_LOOP ( 'NONE', ( #102, #308, #37, #251 ) ) ;
#341 = COORDINATED_UNIVERSAL_TIME_OFFSET ( 1, 0, .AHEAD. ) ;
#342 = CC_DESIGN_PERSON_AND_ORGANIZATION_ASSIGNMENT ( #44, #335, ( #23 ) ) ;
#343 = AXIS2_PLACEMENT_3D ( 'NONE', #89, #52, #179 ) ;
#344 = CC_DESIGN_SECURITY_CLASSIFICATION ( #154, ( #35 ) ) ;
#345 = ORIENTED_EDGE ( 'NONE', *, *, #279, .T. ) ;
#346 = FACE_OUTER_BOUND ( 'NONE', #254, .T. ) ;
#347 = DIRECTION ( 'NONE',  ( 1.000000000000000000, 0.000000000000000000, 0.000000000000000000 ) ) ;
#348 = CARTESIAN_POINT ( 'NONE',  ( 0.000000000000000000, 0.000000000000000000, 0.000000000000000000 ) ) ;
#349 = DIRECTION ( 'NONE',  ( -0.000000000000000000, -0.000000000000000000, -1.000000000000000000 ) ) ;
#350 = AXIS2_PLACEMENT_3D ( 'NONE', #145, #113, #237 ) ;
#351 = EDGE_CURVE ( 'NONE', #68, #283, #82, .T. ) ;
#352 = APPROVAL_DATE_TIME ( #176, #290 ) ;
#353 = CARTESIAN_POINT ( 'NONE',  ( -3.000000000000000444, 0.000000000000000000, 255.0000000000000000 ) ) ;
#354 = AXIS2_PLACEMENT_3D ( 'NONE', #25, #198, #177 ) ;
#355 = UNCERTAINTY_MEASURE_WITH_UNIT (LENGTH_MEASURE( 1.000000000000000082E-05 ), #217, 'distance_accuracy_value', 'NONE');
#356 = CARTESIAN_POINT ( 'NONE',  ( 0.000000000000000000, 0.000000000000000000, 255.0000000000000000 ) ) ;
#357 = DIRECTION ( 'NONE',  ( -1.000000000000000000, 0.000000000000000000, 0.000000000000000000 ) ) ;
#358 = CARTESIAN_POINT ( 'NONE',  ( 1.750000000000000000, 2.143131898507868297E-16, 0.000000000000000000 ) ) ;
#359 = CC_DESIGN_PERSON_AND_ORGANIZATION_ASSIGNMENT ( #101, #311, ( #154 ) ) ;
#360 = CYLINDRICAL_SURFACE ( 'NONE', #343, 1.750000000000000000 ) ;
#361 = CIRCLE ( 'NONE', #76, 3.000000000000000444 ) ;
#362 = VERTEX_POINT ( 'NONE', #212 ) ;
#363 = DIRECTION ( 'NONE',  ( 0.000000000000000000, 0.000000000000000000, 1.000000000000000000 ) ) ;
#364 = DIRECTION ( 'NONE',  ( 0.000000000000000000, 0.000000000000000000, 1.000000000000000000 ) ) ;
#365 = ORIENTED_EDGE ( 'NONE', *, *, #219, .T. ) ;
#366 = CALENDAR_DATE ( 2022, 8, 7 ) ;
#367 = EDGE_CURVE ( 'NONE', #22, #333, #207, .T. ) ;
#368 = EDGE_LOOP ( 'NONE', ( #247, #175, #167, #216 ) ) ;
#369 = SECURITY_CLASSIFICATION_LEVEL ( 'unclassified' ) ;
#370 = LOCAL_TIME ( 17, 38, 41.00000000000000000, #135 ) ;
#371 = ORIENTED_EDGE ( 'NONE', *, *, #219, .F. ) ;
#372 = PRODUCT_DEFINITION_SHAPE ( 'NONE', 'NONE',  #23 ) ;
#373 = ORIENTED_EDGE ( 'NONE', *, *, #324, .F. ) ;
#374 = DATE_AND_TIME ( #11, #28 ) ;
#375 = FACE_BOUND ( 'NONE', #339, .T. ) ;
#376 = APPROVAL_DATE_TIME ( #337, #209 ) ;
#377 = CIRCLE ( 'NONE', #104, 3.500000000000000444 ) ;
#378 = ORGANIZATION ( 'NEURÈENÝ', 'NEURÈENÝ', '' ) ;
#379 = EDGE_LOOP ( 'NONE', ( #188, #100 ) ) ;
#380 = FACE_OUTER_BOUND ( 'NONE', #318, .T. ) ;
#381 = CYLINDRICAL_SURFACE ( 'NONE', #9, 6.000000000000000888 ) ;
ENDSEC;
END-ISO-10303-21;
