ISO-10303-21;
HEADER;
FILE_DESCRIPTION (( 'STEP AP203' ),
    '1' );
FILE_NAME ('8f9b.STEP',
    '2022-07-08T14:33:50',
    ( '' ),
    ( '' ),
    'SwSTEP 2.0',
    'SolidWorks 2019',
    '' );
FILE_SCHEMA (( 'CONFIG_CONTROL_DESIGN' ));
ENDSEC;

DATA;
#1 = LINE ( 'NONE', #332, #82 ) ;
#2 = TOROIDAL_SURFACE ( 'NONE', #76, 6.700000000000001066, 0.6999999999999999556 ) ;
#3 = EDGE_CURVE ( 'NONE', #170, #352, #373, .T. ) ;
#4 = CARTESIAN_POINT ( 'NONE',  ( 4.099999999999999645, 5.021051876504147385E-16, 0.000000000000000000 ) ) ;
#5 = CARTESIAN_POINT ( 'NONE',  ( 6.700000000000001066, 0.000000000000000000, 6.999999999999992006 ) ) ;
#6 = DATE_TIME_ROLE ( 'classification_date' ) ;
#7 = CARTESIAN_POINT ( 'NONE',  ( -6.700000000000001066, 8.205133554287267548E-16, 7.699999999999985079 ) ) ;
#8 = ADVANCED_FACE ( 'NONE', ( #99, #336 ), #35, .T. ) ;
#9 = CIRCLE ( 'NONE', #97, 4.099999999999999645 ) ;
#10 = CC_DESIGN_APPROVAL ( #54, ( #339 ) ) ;
#11 = DIRECTION ( 'NONE',  ( 0.000000000000000000, 0.000000000000000000, 1.000000000000000000 ) ) ;
#12 = DIRECTION ( 'NONE',  ( -0.000000000000000000, -0.000000000000000000, -1.000000000000000000 ) ) ;
#13 = DIRECTION ( 'NONE',  ( 0.000000000000000000, 0.000000000000000000, 1.000000000000000000 ) ) ;
#14 = CIRCLE ( 'NONE', #378, 6.000000000000000888 ) ;
#15 = CARTESIAN_POINT ( 'NONE',  ( -6.000000000000000888, 0.000000000000000000, 457.0000000000000000 ) ) ;
#16 = CC_DESIGN_APPROVAL ( #114, ( #253 ) ) ;
#17 = CARTESIAN_POINT ( 'NONE',  ( -6.000000000000000888, 0.000000000000000000, 7.699999999999985079 ) ) ;
#18 = PLANE ( 'NONE',  #366 ) ;
#19 = AXIS2_PLACEMENT_3D ( 'NONE', #179, #159, #272 ) ;
#20 = APPLICATION_CONTEXT ( 'configuration controlled 3d designs of mechanical parts and assemblies' ) ;
#21 = ORIENTED_EDGE ( 'NONE', *, *, #293, .F. ) ;
#22 = CARTESIAN_POINT ( 'NONE',  ( 0.000000000000000000, 0.000000000000000000, 0.000000000000000000 ) ) ;
#23 = UNCERTAINTY_MEASURE_WITH_UNIT (LENGTH_MEASURE( 1.000000000000000082E-05 ), #51, 'distance_accuracy_value', 'NONE');
#24 = VERTEX_POINT ( 'NONE', #362 ) ;
#25 = CYLINDRICAL_SURFACE ( 'NONE', #32, 4.099999999999999645 ) ;
#26 = EDGE_CURVE ( 'NONE', #241, #375, #1, .T. ) ;
#27 = ORIENTED_EDGE ( 'NONE', *, *, #283, .T. ) ;
#28 = CIRCLE ( 'NONE', #126, 6.000000000000000888 ) ;
#29 = ORIENTED_EDGE ( 'NONE', *, *, #327, .F. ) ;
#30 = ORIENTED_EDGE ( 'NONE', *, *, #293, .T. ) ;
#31 = CARTESIAN_POINT ( 'NONE',  ( -10.00000000000000000, 0.000000000000000000, 7.000000000000000000 ) ) ;
#32 = AXIS2_PLACEMENT_3D ( 'NONE', #291, #135, #49 ) ;
#33 = PERSON_AND_ORGANIZATION_ROLE ( 'design_supplier' ) ;
#34 = DIRECTION ( 'NONE',  ( -0.000000000000000000, -0.000000000000000000, -1.000000000000000000 ) ) ;
#35 = PLANE ( 'NONE',  #227 ) ;
#36 = PERSON_AND_ORGANIZATION ( #324, #189 ) ;
#37 = DIRECTION ( 'NONE',  ( 1.000000000000000000, 0.000000000000000000, 0.000000000000000000 ) ) ;
#38 = AXIS2_PLACEMENT_3D ( 'NONE', #239, #86, #120 ) ;
#39 = CARTESIAN_POINT ( 'NONE',  ( -6.000000000000000888, 0.000000000000000000, 457.0000000000000000 ) ) ;
#40 = DIRECTION ( 'NONE',  ( 1.000000000000000000, 0.000000000000000000, 0.000000000000000000 ) ) ;
#41 = CYLINDRICAL_SURFACE ( 'NONE', #153, 6.000000000000000888 ) ;
#42 = EDGE_LOOP ( 'NONE', ( #29, #116 ) ) ;
#43 = PRODUCT_RELATED_PRODUCT_CATEGORY ( 'detail', '', ( #376 ) ) ;
#44 = CYLINDRICAL_SURFACE ( 'NONE', #47, 10.00000000000000000 ) ;
#45 = EDGE_LOOP ( 'NONE', ( #176, #211 ) ) ;
#46 = LINE ( 'NONE', #69, #89 ) ;
#47 = AXIS2_PLACEMENT_3D ( 'NONE', #226, #197, #160 ) ;
#48 = VERTEX_POINT ( 'NONE', #157 ) ;
#49 = DIRECTION ( 'NONE',  ( -1.000000000000000000, 0.000000000000000000, 0.000000000000000000 ) ) ;
#50 = ORIENTED_EDGE ( 'NONE', *, *, #237, .F. ) ;
#51 =( LENGTH_UNIT ( ) NAMED_UNIT ( * ) SI_UNIT ( .MILLI., .METRE. ) );
#52 = VERTEX_POINT ( 'NONE', #94 ) ;
#53 = DIRECTION ( 'NONE',  ( 0.000000000000000000, -1.000000000000000000, 0.000000000000000000 ) ) ;
#54 = APPROVAL ( #122, 'NEURÈENÝ' ) ;
#55 = ORIENTED_EDGE ( 'NONE', *, *, #71, .F. ) ;
#56 = AXIS2_PLACEMENT_3D ( 'NONE', #367, #341, #129 ) ;
#57 = PERSON_AND_ORGANIZATION ( #324, #189 ) ;
#58 = ORIENTED_EDGE ( 'NONE', *, *, #26, .T. ) ;
#59 = COORDINATED_UNIVERSAL_TIME_OFFSET ( 1, 0, .AHEAD. ) ;
#60 = DIRECTION ( 'NONE',  ( 1.000000000000000000, 0.000000000000000000, 0.000000000000000000 ) ) ;
#61 = PERSON_AND_ORGANIZATION_ROLE ( 'creator' ) ;
#62 = DIRECTION ( 'NONE',  ( 0.000000000000000000, 0.000000000000000000, 1.000000000000000000 ) ) ;
#63 = AXIS2_PLACEMENT_3D ( 'NONE', #95, #216, #40 ) ;
#64 = DIRECTION ( 'NONE',  ( 1.000000000000000000, 0.000000000000000000, 0.000000000000000000 ) ) ;
#65 = CALENDAR_DATE ( 2022, 8, 7 ) ;
#66 = CARTESIAN_POINT ( 'NONE',  ( 0.000000000000000000, 0.000000000000000000, 0.000000000000000000 ) ) ;
#67 = MANIFOLD_SOLID_BREP ( 'Odebrat vysunutím3', #254 ) ;
#68 = CARTESIAN_POINT ( 'NONE',  ( -4.099999999999999645, 0.000000000000000000, 0.000000000000000000 ) ) ;
#69 = CARTESIAN_POINT ( 'NONE',  ( 4.099999999999999645, 5.021051876504147385E-16, 457.0000000000000000 ) ) ;
#70 = VERTEX_POINT ( 'NONE', #333 ) ;
#71 = EDGE_CURVE ( 'NONE', #70, #83, #250, .T. ) ;
#72 = FACE_OUTER_BOUND ( 'NONE', #323, .T. ) ;
#73 = EDGE_LOOP ( 'NONE', ( #107, #350, #208, #289 ) ) ;
#74 = CC_DESIGN_PERSON_AND_ORGANIZATION_ASSIGNMENT ( #296, #33, ( #339 ) ) ;
#75 = FACE_OUTER_BOUND ( 'NONE', #206, .T. ) ;
#76 = AXIS2_PLACEMENT_3D ( 'NONE', #215, #62, #180 ) ;
#77 = EDGE_CURVE ( 'NONE', #267, #236, #14, .T. ) ;
#78 = CARTESIAN_POINT ( 'NONE',  ( 0.000000000000000000, 0.000000000000000000, 7.699999999999985079 ) ) ;
#79 = CARTESIAN_POINT ( 'NONE',  ( 6.000000000000000888, 7.347880794884120722E-16, 457.0000000000000000 ) ) ;
#80 =( NAMED_UNIT ( * ) SI_UNIT ( $, .STERADIAN. ) SOLID_ANGLE_UNIT ( ) );
#81 = EDGE_LOOP ( 'NONE', ( #136, #21, #233, #261 ) ) ;
#82 = VECTOR ( 'NONE', #363, 1000.000000000000000 ) ;
#83 = VERTEX_POINT ( 'NONE', #68 ) ;
#84 = ADVANCED_BREP_SHAPE_REPRESENTATION ( '8f9b', ( #67, #316 ), #345 ) ;
#85 = ORIENTED_EDGE ( 'NONE', *, *, #185, .T. ) ;
#86 = DIRECTION ( 'NONE',  ( -0.000000000000000000, -0.000000000000000000, -1.000000000000000000 ) ) ;
#87 = EDGE_CURVE ( 'NONE', #83, #178, #195, .T. ) ;
#88 = EDGE_LOOP ( 'NONE', ( #140, #112, #30, #202 ) ) ;
#89 = VECTOR ( 'NONE', #309, 1000.000000000000000 ) ;
#90 = COORDINATED_UNIVERSAL_TIME_OFFSET ( 1, 0, .AHEAD. ) ;
#91 = CC_DESIGN_PERSON_AND_ORGANIZATION_ASSIGNMENT ( #358, #61, ( #339 ) ) ;
#92 = DIRECTION ( 'NONE',  ( 1.000000000000000000, 0.000000000000000000, 0.000000000000000000 ) ) ;
#93 = CALENDAR_DATE ( 2022, 8, 7 ) ;
#94 = CARTESIAN_POINT ( 'NONE',  ( -10.00000000000000000, 0.000000000000000000, 0.000000000000000000 ) ) ;
#95 = CARTESIAN_POINT ( 'NONE',  ( 0.000000000000000000, 0.000000000000000000, 457.0000000000000000 ) ) ;
#96 = AXIS2_PLACEMENT_3D ( 'NONE', #7, #303, #150 ) ;
#97 = AXIS2_PLACEMENT_3D ( 'NONE', #166, #12, #198 ) ;
#98 = EDGE_CURVE ( 'NONE', #375, #52, #141, .T. ) ;
#99 = FACE_BOUND ( 'NONE', #348, .T. ) ;
#100 = CARTESIAN_POINT ( 'NONE',  ( 0.000000000000000000, 0.000000000000000000, 457.0000000000000000 ) ) ;
#101 = CYLINDRICAL_SURFACE ( 'NONE', #329, 4.099999999999999645 ) ;
#102 = AXIS2_PLACEMENT_3D ( 'NONE', #277, #11, #123 ) ;
#103 = LOCAL_TIME ( 16, 33, 50.00000000000000000, #138 ) ;
#104 = DIRECTION ( 'NONE',  ( -1.000000000000000000, 0.000000000000000000, 0.000000000000000000 ) ) ;
#105 = DIRECTION ( 'NONE',  ( -1.000000000000000000, 0.000000000000000000, 0.000000000000000000 ) ) ;
#106 = VERTEX_POINT ( 'NONE', #297 ) ;
#107 = ORIENTED_EDGE ( 'NONE', *, *, #243, .F. ) ;
#108 = LINE ( 'NONE', #15, #248 ) ;
#109 = PERSON_AND_ORGANIZATION ( #324, #189 ) ;
#110 = ORIENTED_EDGE ( 'NONE', *, *, #98, .T. ) ;
#111 = APPLICATION_PROTOCOL_DEFINITION ( 'international standard', 'config_control_design', 1994, #20 ) ;
#112 = ORIENTED_EDGE ( 'NONE', *, *, #237, .T. ) ;
#113 = ORIENTED_EDGE ( 'NONE', *, *, #217, .T. ) ;
#114 = APPROVAL ( #379, 'NEURÈENÝ' ) ;
#115 = APPROVAL_ROLE ( '' ) ;
#116 = ORIENTED_EDGE ( 'NONE', *, *, #98, .F. ) ;
#117 =( NAMED_UNIT ( * ) PLANE_ANGLE_UNIT ( ) SI_UNIT ( $, .RADIAN. ) );
#118 = ORIENTED_EDGE ( 'NONE', *, *, #77, .F. ) ;
#119 = APPROVAL_ROLE ( '' ) ;
#120 = DIRECTION ( 'NONE',  ( 1.000000000000000000, 0.000000000000000000, 0.000000000000000000 ) ) ;
#121 = APPROVAL_PERSON_ORGANIZATION ( #149, #295, #119 ) ;
#122 = APPROVAL_STATUS ( 'not_yet_approved' ) ;
#123 = DIRECTION ( 'NONE',  ( 1.000000000000000000, 0.000000000000000000, 0.000000000000000000 ) ) ;
#124 = CARTESIAN_POINT ( 'NONE',  ( 0.000000000000000000, 0.000000000000000000, 7.000000000000000000 ) ) ;
#125 = DIRECTION ( 'NONE',  ( -0.000000000000000000, -0.000000000000000000, -1.000000000000000000 ) ) ;
#126 = AXIS2_PLACEMENT_3D ( 'NONE', #78, #372, #343 ) ;
#127 = DIRECTION ( 'NONE',  ( 1.000000000000000000, 0.000000000000000000, -0.000000000000000000 ) ) ;
#128 = DIRECTION ( 'NONE',  ( 1.000000000000000000, 0.000000000000000000, 0.000000000000000000 ) ) ;
#129 = DIRECTION ( 'NONE',  ( 1.000000000000000000, 0.000000000000000000, 0.000000000000000000 ) ) ;
#130 = CIRCLE ( 'NONE', #19, 10.00000000000000000 ) ;
#131 = DIRECTION ( 'NONE',  ( 0.000000000000000000, 0.000000000000000000, 1.000000000000000000 ) ) ;
#132 = CARTESIAN_POINT ( 'NONE',  ( 0.000000000000000000, 0.000000000000000000, 457.0000000000000000 ) ) ;
#133 = FACE_BOUND ( 'NONE', #328, .T. ) ;
#134 = CIRCLE ( 'NONE', #56, 6.000000000000000888 ) ;
#135 = DIRECTION ( 'NONE',  ( 0.000000000000000000, 0.000000000000000000, -1.000000000000000000 ) ) ;
#136 = ORIENTED_EDGE ( 'NONE', *, *, #146, .F. ) ;
#137 = EDGE_CURVE ( 'NONE', #352, #170, #168, .T. ) ;
#138 = COORDINATED_UNIVERSAL_TIME_OFFSET ( 1, 0, .AHEAD. ) ;
#139 = DIRECTION ( 'NONE',  ( 0.000000000000000000, 0.000000000000000000, -1.000000000000000000 ) ) ;
#140 = ORIENTED_EDGE ( 'NONE', *, *, #283, .F. ) ;
#141 = CIRCLE ( 'NONE', #290, 10.00000000000000000 ) ;
#142 = CARTESIAN_POINT ( 'NONE',  ( 10.00000000000000000, 1.224646799147353256E-15, 0.000000000000000000 ) ) ;
#143 = LOCAL_TIME ( 16, 33, 50.00000000000000000, #59 ) ;
#144 = LOCAL_TIME ( 16, 33, 50.00000000000000000, #212 ) ;
#145 = ORIENTED_EDGE ( 'NONE', *, *, #175, .F. ) ;
#146 = EDGE_CURVE ( 'NONE', #294, #352, #351, .T. ) ;
#147 = CARTESIAN_POINT ( 'NONE',  ( 6.700000000000001066, 0.000000000000000000, 7.699999999999985079 ) ) ;
#148 = ORIENTED_EDGE ( 'NONE', *, *, #26, .F. ) ;
#149 = PERSON_AND_ORGANIZATION ( #324, #189 ) ;
#150 = DIRECTION ( 'NONE',  ( -1.000000000000000000, 1.224646799147353454E-16, 0.000000000000000000 ) ) ;
#151 = SHAPE_DEFINITION_REPRESENTATION ( #240, #84 ) ;
#152 = FACE_OUTER_BOUND ( 'NONE', #81, .T. ) ;
#153 = AXIS2_PLACEMENT_3D ( 'NONE', #280, #256, #105 ) ;
#154 = DATE_AND_TIME ( #65, #235 ) ;
#155 = EDGE_CURVE ( 'NONE', #48, #52, #218, .T. ) ;
#156 = CYLINDRICAL_SURFACE ( 'NONE', #234, 10.00000000000000000 ) ;
#157 = CARTESIAN_POINT ( 'NONE',  ( -10.00000000000000000, 0.000000000000000000, 7.000000000000000000 ) ) ;
#158 = APPROVAL_ROLE ( '' ) ;
#159 = DIRECTION ( 'NONE',  ( 0.000000000000000000, 0.000000000000000000, 1.000000000000000000 ) ) ;
#160 = DIRECTION ( 'NONE',  ( -1.000000000000000000, 0.000000000000000000, 0.000000000000000000 ) ) ;
#161 = CARTESIAN_POINT ( 'NONE',  ( 10.00000000000000000, 1.224646799147353256E-15, 7.000000000000000000 ) ) ;
#162 = DIRECTION ( 'NONE',  ( 0.000000000000000000, 0.000000000000000000, 1.000000000000000000 ) ) ;
#163 = APPROVAL_PERSON_ORGANIZATION ( #57, #54, #158 ) ;
#164 = DIRECTION ( 'NONE',  ( 1.000000000000000000, 0.000000000000000000, 0.000000000000000000 ) ) ;
#165 = ADVANCED_FACE ( 'NONE', ( #152 ), #203, .F. ) ;
#166 = CARTESIAN_POINT ( 'NONE',  ( 0.000000000000000000, 0.000000000000000000, 0.000000000000000000 ) ) ;
#167 = DIRECTION ( 'NONE',  ( 0.000000000000000000, 0.000000000000000000, 1.000000000000000000 ) ) ;
#168 = CIRCLE ( 'NONE', #337, 6.700000000000001066 ) ;
#169 = CARTESIAN_POINT ( 'NONE',  ( 0.000000000000000000, 0.000000000000000000, 0.000000000000000000 ) ) ;
#170 = VERTEX_POINT ( 'NONE', #5 ) ;
#171 = EDGE_LOOP ( 'NONE', ( #85, #221 ) ) ;
#172 = ORIENTED_EDGE ( 'NONE', *, *, #228, .T. ) ;
#173 = AXIS2_PLACEMENT_3D ( 'NONE', #279, #13, #223 ) ;
#174 = CIRCLE ( 'NONE', #286, 0.7000000000000000666 ) ;
#175 = EDGE_CURVE ( 'NONE', #241, #48, #130, .T. ) ;
#176 = ORIENTED_EDGE ( 'NONE', *, *, #87, .F. ) ;
#177 = APPROVAL_DATE_TIME ( #304, #54 ) ;
#178 = VERTEX_POINT ( 'NONE', #4 ) ;
#179 = CARTESIAN_POINT ( 'NONE',  ( 0.000000000000000000, 0.000000000000000000, 7.000000000000000000 ) ) ;
#180 = DIRECTION ( 'NONE',  ( 1.000000000000000000, 0.000000000000000000, 0.000000000000000000 ) ) ;
#181 = CC_DESIGN_SECURITY_CLASSIFICATION ( #222, ( #339 ) ) ;
#182 = CARTESIAN_POINT ( 'NONE',  ( 0.000000000000000000, 0.000000000000000000, 7.000000000000000000 ) ) ;
#183 = CALENDAR_DATE ( 2022, 8, 7 ) ;
#184 = CARTESIAN_POINT ( 'NONE',  ( 0.000000000000000000, 0.000000000000000000, 7.000000000000000000 ) ) ;
#185 = EDGE_CURVE ( 'NONE', #48, #241, #306, .T. ) ;
#186 = DIRECTION ( 'NONE',  ( 0.000000000000000000, 0.000000000000000000, 1.000000000000000000 ) ) ;
#187 = CC_DESIGN_PERSON_AND_ORGANIZATION_ASSIGNMENT ( #36, #246, ( #222 ) ) ;
#188 = CIRCLE ( 'NONE', #63, 4.099999999999999645 ) ;
#189 = ORGANIZATION ( 'NEURÈENÝ', 'NEURÈENÝ', '' ) ;
#190 = CARTESIAN_POINT ( 'NONE',  ( 6.000000000000000888, 7.347880794884120722E-16, 457.0000000000000000 ) ) ;
#191 = FACE_OUTER_BOUND ( 'NONE', #88, .T. ) ;
#192 = DESIGN_CONTEXT ( 'detailed design', #365, 'design' ) ;
#193 = ORIENTED_EDGE ( 'NONE', *, *, #214, .F. ) ;
#194 = CARTESIAN_POINT ( 'NONE',  ( 0.000000000000000000, 0.000000000000000000, 0.000000000000000000 ) ) ;
#195 = CIRCLE ( 'NONE', #260, 4.099999999999999645 ) ;
#196 = CC_DESIGN_DATE_AND_TIME_ASSIGNMENT ( #210, #330, ( #253 ) ) ;
#197 = DIRECTION ( 'NONE',  ( -0.000000000000000000, -0.000000000000000000, -1.000000000000000000 ) ) ;
#198 = DIRECTION ( 'NONE',  ( 1.000000000000000000, 0.000000000000000000, 0.000000000000000000 ) ) ;
#199 = ADVANCED_FACE ( 'NONE', ( #245 ), #2, .F. ) ;
#200 = EDGE_LOOP ( 'NONE', ( #148, #340, #292, #380 ) ) ;
#201 = PERSON_AND_ORGANIZATION_ROLE ( 'design_owner' ) ;
#202 = ORIENTED_EDGE ( 'NONE', *, *, #228, .F. ) ;
#203 = TOROIDAL_SURFACE ( 'NONE', #298, 6.700000000000001066, 0.6999999999999999556 ) ;
#204 = CARTESIAN_POINT ( 'NONE',  ( -6.700000000000001066, 8.205133554287267548E-16, 6.999999999999992006 ) ) ;
#205 = ORIENTED_EDGE ( 'NONE', *, *, #137, .T. ) ;
#206 = EDGE_LOOP ( 'NONE', ( #145, #58, #110, #320 ) ) ;
#207 = ADVANCED_FACE ( 'NONE', ( #300 ), #156, .T. ) ;
#208 = ORIENTED_EDGE ( 'NONE', *, *, #71, .T. ) ;
#209 = VECTOR ( 'NONE', #274, 1000.000000000000000 ) ;
#210 = DATE_AND_TIME ( #93, #255 ) ;
#211 = ORIENTED_EDGE ( 'NONE', *, *, #259, .F. ) ;
#212 = COORDINATED_UNIVERSAL_TIME_OFFSET ( 1, 0, .AHEAD. ) ;
#213 = CARTESIAN_POINT ( 'NONE',  ( -4.099999999999999645, 0.000000000000000000, 457.0000000000000000 ) ) ;
#214 = EDGE_CURVE ( 'NONE', #106, #70, #188, .T. ) ;
#215 = CARTESIAN_POINT ( 'NONE',  ( 0.000000000000000000, 0.000000000000000000, 7.699999999999985079 ) ) ;
#216 = DIRECTION ( 'NONE',  ( 0.000000000000000000, 0.000000000000000000, 1.000000000000000000 ) ) ;
#217 = EDGE_CURVE ( 'NONE', #294, #24, #28, .T. ) ;
#218 = LINE ( 'NONE', #31, #265 ) ;
#219 = DIRECTION ( 'NONE',  ( 1.000000000000000000, 0.000000000000000000, 0.000000000000000000 ) ) ;
#220 = CARTESIAN_POINT ( 'NONE',  ( 0.000000000000000000, 0.000000000000000000, 457.0000000000000000 ) ) ;
#221 = ORIENTED_EDGE ( 'NONE', *, *, #175, .T. ) ;
#222 = SECURITY_CLASSIFICATION ( '', '', #331 ) ;
#223 = DIRECTION ( 'NONE',  ( 1.000000000000000000, 0.000000000000000000, 0.000000000000000000 ) ) ;
#224 = ADVANCED_FACE ( 'NONE', ( #72 ), #251, .T. ) ;
#225 = DIRECTION ( 'NONE',  ( -0.000000000000000000, -0.000000000000000000, -1.000000000000000000 ) ) ;
#226 = CARTESIAN_POINT ( 'NONE',  ( 0.000000000000000000, 0.000000000000000000, 7.000000000000000000 ) ) ;
#227 = AXIS2_PLACEMENT_3D ( 'NONE', #184, #244, #127 ) ;
#228 = EDGE_CURVE ( 'NONE', #267, #294, #108, .T. ) ;
#229 = DIRECTION ( 'NONE',  ( -0.000000000000000000, -0.000000000000000000, -1.000000000000000000 ) ) ;
#230 = DIRECTION ( 'NONE',  ( 1.000000000000000000, 0.000000000000000000, 0.000000000000000000 ) ) ;
#231 = EDGE_LOOP ( 'NONE', ( #288, #326, #381, #55 ) ) ;
#232 = DATE_AND_TIME ( #262, #103 ) ;
#233 = ORIENTED_EDGE ( 'NONE', *, *, #374, .T. ) ;
#234 = AXIS2_PLACEMENT_3D ( 'NONE', #124, #247, #360 ) ;
#235 = LOCAL_TIME ( 16, 33, 50.00000000000000000, #269 ) ;
#236 = VERTEX_POINT ( 'NONE', #190 ) ;
#237 = EDGE_CURVE ( 'NONE', #236, #24, #346, .T. ) ;
#238 = DIRECTION ( 'NONE',  ( 1.000000000000000000, 0.000000000000000000, -0.000000000000000000 ) ) ;
#239 = CARTESIAN_POINT ( 'NONE',  ( 0.000000000000000000, 0.000000000000000000, 7.000000000000000000 ) ) ;
#240 = PRODUCT_DEFINITION_SHAPE ( 'NONE', 'NONE',  #253 ) ;
#241 = VERTEX_POINT ( 'NONE', #161 ) ;
#242 = AXIS2_PLACEMENT_3D ( 'NONE', #194, #313, #164 ) ;
#243 = EDGE_CURVE ( 'NONE', #106, #178, #46, .T. ) ;
#244 = DIRECTION ( 'NONE',  ( 0.000000000000000000, 0.000000000000000000, 1.000000000000000000 ) ) ;
#245 = FACE_OUTER_BOUND ( 'NONE', #268, .T. ) ;
#246 = PERSON_AND_ORGANIZATION_ROLE ( 'classification_officer' ) ;
#247 = DIRECTION ( 'NONE',  ( -0.000000000000000000, -0.000000000000000000, -1.000000000000000000 ) ) ;
#248 = VECTOR ( 'NONE', #229, 1000.000000000000000 ) ;
#249 = ADVANCED_FACE ( 'NONE', ( #75 ), #44, .T. ) ;
#250 = LINE ( 'NONE', #213, #209 ) ;
#251 = CYLINDRICAL_SURFACE ( 'NONE', #344, 6.000000000000000888 ) ;
#252 = DIRECTION ( 'NONE',  ( 0.000000000000000000, 0.000000000000000000, -1.000000000000000000 ) ) ;
#253 = PRODUCT_DEFINITION ( 'NEZNÁMÝ', '', #339, #192 ) ;
#254 = CLOSED_SHELL ( 'NONE', ( #347, #199, #318, #249, #207, #8, #369, #224, #278, #165, #308 ) ) ;
#255 = LOCAL_TIME ( 16, 33, 50.00000000000000000, #90 ) ;
#256 = DIRECTION ( 'NONE',  ( -0.000000000000000000, -0.000000000000000000, -1.000000000000000000 ) ) ;
#257 = CC_DESIGN_DATE_AND_TIME_ASSIGNMENT ( #359, #6, ( #222 ) ) ;
#258 = DIRECTION ( 'NONE',  ( -1.000000000000000000, 0.000000000000000000, 0.000000000000000000 ) ) ;
#259 = EDGE_CURVE ( 'NONE', #178, #83, #9, .T. ) ;
#260 = AXIS2_PLACEMENT_3D ( 'NONE', #66, #275, #60 ) ;
#261 = ORIENTED_EDGE ( 'NONE', *, *, #137, .F. ) ;
#262 = CALENDAR_DATE ( 2022, 8, 7 ) ;
#263 = ORIENTED_EDGE ( 'NONE', *, *, #146, .T. ) ;
#264 = ORIENTED_EDGE ( 'NONE', *, *, #374, .F. ) ;
#265 = VECTOR ( 'NONE', #125, 1000.000000000000000 ) ;
#266 = CC_DESIGN_APPROVAL ( #295, ( #222 ) ) ;
#267 = VERTEX_POINT ( 'NONE', #39 ) ;
#268 = EDGE_LOOP ( 'NONE', ( #342, #263, #371, #264 ) ) ;
#269 = COORDINATED_UNIVERSAL_TIME_OFFSET ( 1, 0, .AHEAD. ) ;
#270 = DIRECTION ( 'NONE',  ( 0.000000000000000000, 0.000000000000000000, 1.000000000000000000 ) ) ;
#271 = AXIS2_PLACEMENT_3D ( 'NONE', #368, #162, #128 ) ;
#272 = DIRECTION ( 'NONE',  ( 1.000000000000000000, 0.000000000000000000, 0.000000000000000000 ) ) ;
#273 = APPROVAL_DATE_TIME ( #154, #295 ) ;
#274 = DIRECTION ( 'NONE',  ( 0.000000000000000000, 0.000000000000000000, -1.000000000000000000 ) ) ;
#275 = DIRECTION ( 'NONE',  ( -0.000000000000000000, -0.000000000000000000, -1.000000000000000000 ) ) ;
#276 = CIRCLE ( 'NONE', #271, 4.099999999999999645 ) ;
#277 = CARTESIAN_POINT ( 'NONE',  ( 0.000000000000000000, 0.000000000000000000, 7.000000000000000000 ) ) ;
#278 = ADVANCED_FACE ( 'NONE', ( #133, #338 ), #284, .T. ) ;
#279 = CARTESIAN_POINT ( 'NONE',  ( 0.000000000000000000, 0.000000000000000000, 457.0000000000000000 ) ) ;
#280 = CARTESIAN_POINT ( 'NONE',  ( 0.000000000000000000, 0.000000000000000000, 457.0000000000000000 ) ) ;
#281 = VECTOR ( 'NONE', #225, 1000.000000000000000 ) ;
#282 = FACE_OUTER_BOUND ( 'NONE', #231, .T. ) ;
#283 = EDGE_CURVE ( 'NONE', #236, #267, #315, .T. ) ;
#284 = PLANE ( 'NONE',  #314 ) ;
#285 = MECHANICAL_CONTEXT ( 'NONE', #20, 'mechanical' ) ;
#286 = AXIS2_PLACEMENT_3D ( 'NONE', #147, #53, #139 ) ;
#287 = PERSON_AND_ORGANIZATION ( #324, #189 ) ;
#288 = ORIENTED_EDGE ( 'NONE', *, *, #302, .T. ) ;
#289 = ORIENTED_EDGE ( 'NONE', *, *, #87, .T. ) ;
#290 = AXIS2_PLACEMENT_3D ( 'NONE', #305, #307, #64 ) ;
#291 = CARTESIAN_POINT ( 'NONE',  ( 0.000000000000000000, 0.000000000000000000, 457.0000000000000000 ) ) ;
#292 = ORIENTED_EDGE ( 'NONE', *, *, #155, .T. ) ;
#293 = EDGE_CURVE ( 'NONE', #24, #294, #134, .T. ) ;
#294 = VERTEX_POINT ( 'NONE', #17 ) ;
#295 = APPROVAL ( #334, 'NEURÈENÝ' ) ;
#296 = PERSON_AND_ORGANIZATION ( #324, #189 ) ;
#297 = CARTESIAN_POINT ( 'NONE',  ( 4.099999999999999645, 5.021051876504147385E-16, 457.0000000000000000 ) ) ;
#298 = AXIS2_PLACEMENT_3D ( 'NONE', #335, #270, #37 ) ;
#299 = PERSON_AND_ORGANIZATION ( #324, #189 ) ;
#300 = FACE_OUTER_BOUND ( 'NONE', #200, .T. ) ;
#301 = PERSON_AND_ORGANIZATION_ROLE ( 'creator' ) ;
#302 = EDGE_CURVE ( 'NONE', #70, #106, #276, .T. ) ;
#303 = DIRECTION ( 'NONE',  ( 1.224646799147353207E-16, 1.000000000000000000, -0.000000000000000000 ) ) ;
#304 = DATE_AND_TIME ( #361, #144 ) ;
#305 = CARTESIAN_POINT ( 'NONE',  ( 0.000000000000000000, 0.000000000000000000, 0.000000000000000000 ) ) ;
#306 = CIRCLE ( 'NONE', #102, 10.00000000000000000 ) ;
#307 = DIRECTION ( 'NONE',  ( 0.000000000000000000, 0.000000000000000000, 1.000000000000000000 ) ) ;
#308 = ADVANCED_FACE ( 'NONE', ( #364 ), #101, .F. ) ;
#309 = DIRECTION ( 'NONE',  ( 0.000000000000000000, 0.000000000000000000, -1.000000000000000000 ) ) ;
#310 = CC_DESIGN_PERSON_AND_ORGANIZATION_ASSIGNMENT ( #299, #301, ( #253 ) ) ;
#311 = DIRECTION ( 'NONE',  ( 1.000000000000000000, 0.000000000000000000, -0.000000000000000000 ) ) ;
#312 = EDGE_LOOP ( 'NONE', ( #355, #27 ) ) ;
#313 = DIRECTION ( 'NONE',  ( 0.000000000000000000, 0.000000000000000000, 1.000000000000000000 ) ) ;
#314 = AXIS2_PLACEMENT_3D ( 'NONE', #132, #131, #311 ) ;
#315 = CIRCLE ( 'NONE', #173, 6.000000000000000888 ) ;
#316 = AXIS2_PLACEMENT_3D ( 'NONE', #169, #167, #230 ) ;
#317 = DIRECTION ( 'NONE',  ( -0.000000000000000000, -0.000000000000000000, -1.000000000000000000 ) ) ;
#318 = ADVANCED_FACE ( 'NONE', ( #191 ), #41, .T. ) ;
#319 = APPLICATION_PROTOCOL_DEFINITION ( 'international standard', 'config_control_design', 1994, #365 ) ;
#320 = ORIENTED_EDGE ( 'NONE', *, *, #155, .F. ) ;
#321 = CC_DESIGN_PERSON_AND_ORGANIZATION_ASSIGNMENT ( #109, #201, ( #376 ) ) ;
#322 = FACE_BOUND ( 'NONE', #45, .T. ) ;
#323 = EDGE_LOOP ( 'NONE', ( #50, #118, #172, #113 ) ) ;
#324 = PERSON ( 'NEURÈENÝ', 'NEURÈENÝ', 'NEURÈENÝ', ('NEURÈENÝ'), ('NEURÈENÝ'), ('NEURÈENÝ') ) ;
#325 = DIRECTION ( 'NONE',  ( 0.000000000000000000, 0.000000000000000000, 1.000000000000000000 ) ) ;
#326 = ORIENTED_EDGE ( 'NONE', *, *, #243, .T. ) ;
#327 = EDGE_CURVE ( 'NONE', #52, #375, #356, .T. ) ;
#328 = EDGE_LOOP ( 'NONE', ( #377, #193 ) ) ;
#329 = AXIS2_PLACEMENT_3D ( 'NONE', #220, #252, #104 ) ;
#330 = DATE_TIME_ROLE ( 'creation_date' ) ;
#331 = SECURITY_CLASSIFICATION_LEVEL ( 'unclassified' ) ;
#332 = CARTESIAN_POINT ( 'NONE',  ( 10.00000000000000000, 1.224646799147353256E-15, 7.000000000000000000 ) ) ;
#333 = CARTESIAN_POINT ( 'NONE',  ( -4.099999999999999645, 0.000000000000000000, 457.0000000000000000 ) ) ;
#334 = APPROVAL_STATUS ( 'not_yet_approved' ) ;
#335 = CARTESIAN_POINT ( 'NONE',  ( 0.000000000000000000, 0.000000000000000000, 7.699999999999985079 ) ) ;
#336 = FACE_OUTER_BOUND ( 'NONE', #171, .T. ) ;
#337 = AXIS2_PLACEMENT_3D ( 'NONE', #182, #34, #92 ) ;
#338 = FACE_OUTER_BOUND ( 'NONE', #312, .T. ) ;
#339 = PRODUCT_DEFINITION_FORMATION_WITH_SPECIFIED_SOURCE ( 'LIBOVOLNÝ', '', #376, .NOT_KNOWN. ) ;
#340 = ORIENTED_EDGE ( 'NONE', *, *, #185, .F. ) ;
#341 = DIRECTION ( 'NONE',  ( 0.000000000000000000, 0.000000000000000000, 1.000000000000000000 ) ) ;
#342 = ORIENTED_EDGE ( 'NONE', *, *, #217, .F. ) ;
#343 = DIRECTION ( 'NONE',  ( 1.000000000000000000, 0.000000000000000000, 0.000000000000000000 ) ) ;
#344 = AXIS2_PLACEMENT_3D ( 'NONE', #370, #317, #258 ) ;
#345 =( GEOMETRIC_REPRESENTATION_CONTEXT ( 3 ) GLOBAL_UNCERTAINTY_ASSIGNED_CONTEXT ( ( #23 ) ) GLOBAL_UNIT_ASSIGNED_CONTEXT ( ( #51, #117, #80 ) ) REPRESENTATION_CONTEXT ( 'NONE', 'WORKASPACE' ) );
#346 = LINE ( 'NONE', #79, #281 ) ;
#347 = ADVANCED_FACE ( 'NONE', ( #282 ), #25, .F. ) ;
#348 = EDGE_LOOP ( 'NONE', ( #354, #205 ) ) ;
#349 = APPROVAL_DATE_TIME ( #232, #114 ) ;
#350 = ORIENTED_EDGE ( 'NONE', *, *, #214, .T. ) ;
#351 = CIRCLE ( 'NONE', #96, 0.7000000000000000666 ) ;
#352 = VERTEX_POINT ( 'NONE', #204 ) ;
#353 = FACE_OUTER_BOUND ( 'NONE', #42, .T. ) ;
#354 = ORIENTED_EDGE ( 'NONE', *, *, #3, .T. ) ;
#355 = ORIENTED_EDGE ( 'NONE', *, *, #77, .T. ) ;
#356 = CIRCLE ( 'NONE', #242, 10.00000000000000000 ) ;
#357 = APPROVAL_PERSON_ORGANIZATION ( #287, #114, #115 ) ;
#358 = PERSON_AND_ORGANIZATION ( #324, #189 ) ;
#359 = DATE_AND_TIME ( #183, #143 ) ;
#360 = DIRECTION ( 'NONE',  ( -1.000000000000000000, 0.000000000000000000, 0.000000000000000000 ) ) ;
#361 = CALENDAR_DATE ( 2022, 8, 7 ) ;
#362 = CARTESIAN_POINT ( 'NONE',  ( 6.000000000000000888, 7.347880794884120722E-16, 7.699999999999985079 ) ) ;
#363 = DIRECTION ( 'NONE',  ( -0.000000000000000000, -0.000000000000000000, -1.000000000000000000 ) ) ;
#364 = FACE_OUTER_BOUND ( 'NONE', #73, .T. ) ;
#365 = APPLICATION_CONTEXT ( 'configuration controlled 3d designs of mechanical parts and assemblies' ) ;
#366 = AXIS2_PLACEMENT_3D ( 'NONE', #22, #325, #238 ) ;
#367 = CARTESIAN_POINT ( 'NONE',  ( 0.000000000000000000, 0.000000000000000000, 7.699999999999985079 ) ) ;
#368 = CARTESIAN_POINT ( 'NONE',  ( 0.000000000000000000, 0.000000000000000000, 457.0000000000000000 ) ) ;
#369 = ADVANCED_FACE ( 'NONE', ( #322, #353 ), #18, .F. ) ;
#370 = CARTESIAN_POINT ( 'NONE',  ( 0.000000000000000000, 0.000000000000000000, 457.0000000000000000 ) ) ;
#371 = ORIENTED_EDGE ( 'NONE', *, *, #3, .F. ) ;
#372 = DIRECTION ( 'NONE',  ( 0.000000000000000000, 0.000000000000000000, 1.000000000000000000 ) ) ;
#373 = CIRCLE ( 'NONE', #38, 6.700000000000001066 ) ;
#374 = EDGE_CURVE ( 'NONE', #24, #170, #174, .T. ) ;
#375 = VERTEX_POINT ( 'NONE', #142 ) ;
#376 = PRODUCT ( '8f9b', '8f9b', '', ( #285 ) ) ;
#377 = ORIENTED_EDGE ( 'NONE', *, *, #302, .F. ) ;
#378 = AXIS2_PLACEMENT_3D ( 'NONE', #100, #186, #219 ) ;
#379 = APPROVAL_STATUS ( 'not_yet_approved' ) ;
#380 = ORIENTED_EDGE ( 'NONE', *, *, #327, .T. ) ;
#381 = ORIENTED_EDGE ( 'NONE', *, *, #259, .T. ) ;
ENDSEC;
END-ISO-10303-21;
