ISO-10303-21;
HEADER;
FILE_DESCRIPTION (( 'STEP AP203' ),
    '1' );
FILE_NAME ('e84c.STEP',
    '2022-07-08T14:55:52',
    ( '' ),
    ( '' ),
    'SwSTEP 2.0',
    'SolidWorks 2019',
    '' );
FILE_SCHEMA (( 'CONFIG_CONTROL_DESIGN' ));
ENDSEC;

DATA;
#1 = CARTESIAN_POINT ( 'NONE',  ( 0.000000000000000000, 0.000000000000000000, 0.000000000000000000 ) ) ;
#2 = AXIS2_PLACEMENT_3D ( 'NONE', #277, #72, #336 ) ;
#3 = LINE ( 'NONE', #118, #334 ) ;
#4 = DESIGN_CONTEXT ( 'detailed design', #103, 'design' ) ;
#5 = DIRECTION ( 'NONE',  ( -0.000000000000000000, -0.000000000000000000, -1.000000000000000000 ) ) ;
#6 = ORIENTED_EDGE ( 'NONE', *, *, #255, .F. ) ;
#7 = DIRECTION ( 'NONE',  ( -0.000000000000000000, -0.000000000000000000, -1.000000000000000000 ) ) ;
#8 = EDGE_CURVE ( 'NONE', #216, #374, #320, .T. ) ;
#9 = ORIENTED_EDGE ( 'NONE', *, *, #263, .T. ) ;
#10 = CARTESIAN_POINT ( 'NONE',  ( -5.500000000000000000, 6.735557395310442023E-16, 4.999999999999975131 ) ) ;
#11 = AXIS2_PLACEMENT_3D ( 'NONE', #355, #203, #124 ) ;
#12 = CARTESIAN_POINT ( 'NONE',  ( 0.000000000000000000, 0.000000000000000000, 0.000000000000000000 ) ) ;
#13 = ORIENTED_EDGE ( 'NONE', *, *, #213, .T. ) ;
#14 = DIRECTION ( 'NONE',  ( 1.000000000000000000, 0.000000000000000000, -0.000000000000000000 ) ) ;
#15 = ORIENTED_EDGE ( 'NONE', *, *, #268, .T. ) ;
#16 = AXIS2_PLACEMENT_3D ( 'NONE', #69, #92, #64 ) ;
#17 = LOCAL_TIME ( 16, 55, 52.00000000000000000, #151 ) ;
#18 = DIRECTION ( 'NONE',  ( 0.000000000000000000, 0.000000000000000000, 1.000000000000000000 ) ) ;
#19 = VERTEX_POINT ( 'NONE', #139 ) ;
#20 = ORIENTED_EDGE ( 'NONE', *, *, #33, .T. ) ;
#21 = EDGE_CURVE ( 'NONE', #19, #312, #198, .T. ) ;
#22 = ORIENTED_EDGE ( 'NONE', *, *, #21, .F. ) ;
#23 = CIRCLE ( 'NONE', #378, 5.000000000000000000 ) ;
#24 = ORGANIZATION ( 'NEURÈENÝ', 'NEURÈENÝ', '' ) ;
#25 = DIRECTION ( 'NONE',  ( 0.000000000000000000, 0.000000000000000000, -1.000000000000000000 ) ) ;
#26 = COORDINATED_UNIVERSAL_TIME_OFFSET ( 1, 0, .AHEAD. ) ;
#27 = AXIS2_PLACEMENT_3D ( 'NONE', #294, #298, #265 ) ;
#28 = DIRECTION ( 'NONE',  ( 0.000000000000000000, 0.000000000000000000, 1.000000000000000000 ) ) ;
#29 = DIRECTION ( 'NONE',  ( -0.000000000000000000, -0.000000000000000000, -1.000000000000000000 ) ) ;
#30 = APPROVAL_DATE_TIME ( #200, #372 ) ;
#31 = AXIS2_PLACEMENT_3D ( 'NONE', #350, #82, #79 ) ;
#32 = CYLINDRICAL_SURFACE ( 'NONE', #93, 8.000000000000000000 ) ;
#33 = EDGE_CURVE ( 'NONE', #374, #216, #373, .T. ) ;
#34 = CARTESIAN_POINT ( 'NONE',  ( 0.000000000000000000, 0.000000000000000000, 5.499999999999949374 ) ) ;
#35 = ADVANCED_FACE ( 'NONE', ( #136 ), #195, .T. ) ;
#36 = CARTESIAN_POINT ( 'NONE',  ( -3.000000000000000444, 0.000000000000000000, 0.000000000000000000 ) ) ;
#37 = AXIS2_PLACEMENT_3D ( 'NONE', #227, #28, #137 ) ;
#38 = DIRECTION ( 'NONE',  ( -0.000000000000000000, -0.000000000000000000, -1.000000000000000000 ) ) ;
#39 = ORIENTED_EDGE ( 'NONE', *, *, #33, .F. ) ;
#40 = EDGE_LOOP ( 'NONE', ( #237, #9 ) ) ;
#41 = CIRCLE ( 'NONE', #235, 5.500000000000000000 ) ;
#42 = APPROVAL_STATUS ( 'not_yet_approved' ) ;
#43 = ADVANCED_FACE ( 'NONE', ( #377 ), #49, .F. ) ;
#44 = APPLICATION_PROTOCOL_DEFINITION ( 'international standard', 'config_control_design', 1994, #356 ) ;
#45 = ORIENTED_EDGE ( 'NONE', *, *, #156, .F. ) ;
#46 = MECHANICAL_CONTEXT ( 'NONE', #356, 'mechanical' ) ;
#47 = VERTEX_POINT ( 'NONE', #262 ) ;
#48 =( GEOMETRIC_REPRESENTATION_CONTEXT ( 3 ) GLOBAL_UNCERTAINTY_ASSIGNED_CONTEXT ( ( #142 ) ) GLOBAL_UNIT_ASSIGNED_CONTEXT ( ( #370, #127, #223 ) ) REPRESENTATION_CONTEXT ( 'NONE', 'WORKASPACE' ) );
#49 = CYLINDRICAL_SURFACE ( 'NONE', #260, 3.000000000000000444 ) ;
#50 = APPROVAL_DATE_TIME ( #234, #296 ) ;
#51 = CYLINDRICAL_SURFACE ( 'NONE', #363, 3.000000000000000444 ) ;
#52 = TOROIDAL_SURFACE ( 'NONE', #253, 5.500000000000000000, 0.5000000000000000000 ) ;
#53 = CARTESIAN_POINT ( 'NONE',  ( 0.000000000000000000, 0.000000000000000000, 755.0000000000000000 ) ) ;
#54 = CARTESIAN_POINT ( 'NONE',  ( 0.000000000000000000, 0.000000000000000000, 755.0000000000000000 ) ) ;
#55 = DIRECTION ( 'NONE',  ( 1.000000000000000000, 0.000000000000000000, 0.000000000000000000 ) ) ;
#56 = ORIENTED_EDGE ( 'NONE', *, *, #226, .T. ) ;
#57 = AXIS2_PLACEMENT_3D ( 'NONE', #1, #321, #228 ) ;
#58 = DIRECTION ( 'NONE',  ( 1.000000000000000000, 0.000000000000000000, 0.000000000000000000 ) ) ;
#59 = CARTESIAN_POINT ( 'NONE',  ( 0.000000000000000000, 0.000000000000000000, 755.0000000000000000 ) ) ;
#60 = CARTESIAN_POINT ( 'NONE',  ( -8.000000000000000000, 0.000000000000000000, 5.000000000000000000 ) ) ;
#61 = ORIENTED_EDGE ( 'NONE', *, *, #338, .T. ) ;
#62 = DIRECTION ( 'NONE',  ( 0.000000000000000000, 0.000000000000000000, 1.000000000000000000 ) ) ;
#63 = CC_DESIGN_APPROVAL ( #372, ( #75 ) ) ;
#64 = DIRECTION ( 'NONE',  ( -1.000000000000000000, 0.000000000000000000, 0.000000000000000000 ) ) ;
#65 = ORIENTED_EDGE ( 'NONE', *, *, #338, .F. ) ;
#66 = FACE_OUTER_BOUND ( 'NONE', #246, .T. ) ;
#67 = EDGE_LOOP ( 'NONE', ( #45, #132, #340, #6 ) ) ;
#68 = CC_DESIGN_PERSON_AND_ORGANIZATION_ASSIGNMENT ( #175, #304, ( #75 ) ) ;
#69 = CARTESIAN_POINT ( 'NONE',  ( 0.000000000000000000, 0.000000000000000000, 5.000000000000000000 ) ) ;
#70 = VERTEX_POINT ( 'NONE', #171 ) ;
#71 = CIRCLE ( 'NONE', #37, 5.000000000000000000 ) ;
#72 = DIRECTION ( 'NONE',  ( 0.000000000000000000, -1.000000000000000000, 0.000000000000000000 ) ) ;
#73 = EDGE_LOOP ( 'NONE', ( #188, #39 ) ) ;
#74 = CARTESIAN_POINT ( 'NONE',  ( 0.000000000000000000, 0.000000000000000000, 0.000000000000000000 ) ) ;
#75 = PRODUCT_DEFINITION_FORMATION_WITH_SPECIFIED_SOURCE ( 'LIBOVOLNÝ', '', #323, .NOT_KNOWN. ) ;
#76 = DIRECTION ( 'NONE',  ( -0.000000000000000000, -0.000000000000000000, -1.000000000000000000 ) ) ;
#77 = EDGE_CURVE ( 'NONE', #224, #183, #241, .T. ) ;
#78 = COORDINATED_UNIVERSAL_TIME_OFFSET ( 1, 0, .AHEAD. ) ;
#79 = DIRECTION ( 'NONE',  ( 1.000000000000000000, 0.000000000000000000, 0.000000000000000000 ) ) ;
#80 = AXIS2_PLACEMENT_3D ( 'NONE', #261, #381, #231 ) ;
#81 = COORDINATED_UNIVERSAL_TIME_OFFSET ( 1, 0, .AHEAD. ) ;
#82 = DIRECTION ( 'NONE',  ( -0.000000000000000000, -0.000000000000000000, -1.000000000000000000 ) ) ;
#83 = CARTESIAN_POINT ( 'NONE',  ( -5.000000000000000000, 0.000000000000000000, 755.0000000000000000 ) ) ;
#84 = EDGE_CURVE ( 'NONE', #367, #173, #71, .T. ) ;
#85 = DIRECTION ( 'NONE',  ( 0.000000000000000000, 0.000000000000000000, -1.000000000000000000 ) ) ;
#86 = LOCAL_TIME ( 16, 55, 52.00000000000000000, #264 ) ;
#87 = DIRECTION ( 'NONE',  ( -0.000000000000000000, -0.000000000000000000, -1.000000000000000000 ) ) ;
#88 = DIRECTION ( 'NONE',  ( 0.000000000000000000, 0.000000000000000000, 1.000000000000000000 ) ) ;
#89 = ORIENTED_EDGE ( 'NONE', *, *, #301, .T. ) ;
#90 = PRODUCT_DEFINITION ( 'NEZNÁMÝ', '', #75, #4 ) ;
#91 = DIRECTION ( 'NONE',  ( 1.000000000000000000, 0.000000000000000000, 0.000000000000000000 ) ) ;
#92 = DIRECTION ( 'NONE',  ( -0.000000000000000000, -0.000000000000000000, -1.000000000000000000 ) ) ;
#93 = AXIS2_PLACEMENT_3D ( 'NONE', #239, #146, #270 ) ;
#94 = EDGE_LOOP ( 'NONE', ( #279, #189, #271, #342 ) ) ;
#95 = DATE_AND_TIME ( #364, #17 ) ;
#96 = ORIENTED_EDGE ( 'NONE', *, *, #191, .F. ) ;
#97 = ADVANCED_FACE ( 'NONE', ( #197 ), #51, .F. ) ;
#98 = DIRECTION ( 'NONE',  ( 1.000000000000000000, 0.000000000000000000, 0.000000000000000000 ) ) ;
#99 = EDGE_LOOP ( 'NONE', ( #121, #337, #148, #214 ) ) ;
#100 = DATE_TIME_ROLE ( 'classification_date' ) ;
#101 = AXIS2_PLACEMENT_3D ( 'NONE', #330, #62, #55 ) ;
#102 = CARTESIAN_POINT ( 'NONE',  ( 0.000000000000000000, 0.000000000000000000, 0.000000000000000000 ) ) ;
#103 = APPLICATION_CONTEXT ( 'configuration controlled 3d designs of mechanical parts and assemblies' ) ;
#104 = ORIENTED_EDGE ( 'NONE', *, *, #21, .T. ) ;
#105 = PERSON_AND_ORGANIZATION ( #290, #24 ) ;
#106 = DIRECTION ( 'NONE',  ( 1.000000000000000000, 0.000000000000000000, 0.000000000000000000 ) ) ;
#107 = CARTESIAN_POINT ( 'NONE',  ( 0.000000000000000000, 0.000000000000000000, 5.499999999999949374 ) ) ;
#108 = AXIS2_PLACEMENT_3D ( 'NONE', #59, #176, #306 ) ;
#109 = AXIS2_PLACEMENT_3D ( 'NONE', #300, #88, #353 ) ;
#110 = LOCAL_TIME ( 16, 55, 52.00000000000000000, #26 ) ;
#111 = ADVANCED_FACE ( 'NONE', ( #114 ), #297, .F. ) ;
#112 = APPROVAL_ROLE ( '' ) ;
#113 = DIRECTION ( 'NONE',  ( 0.000000000000000000, 0.000000000000000000, 1.000000000000000000 ) ) ;
#114 = FACE_OUTER_BOUND ( 'NONE', #248, .T. ) ;
#115 = VECTOR ( 'NONE', #29, 1000.000000000000000 ) ;
#116 = PERSON_AND_ORGANIZATION_ROLE ( 'creator' ) ;
#117 = ADVANCED_FACE ( 'NONE', ( #168 ), #52, .F. ) ;
#118 = CARTESIAN_POINT ( 'NONE',  ( 5.000000000000000000, 6.123233995736766282E-16, 755.0000000000000000 ) ) ;
#119 = PERSON_AND_ORGANIZATION ( #290, #24 ) ;
#120 = FACE_OUTER_BOUND ( 'NONE', #317, .T. ) ;
#121 = ORIENTED_EDGE ( 'NONE', *, *, #226, .F. ) ;
#122 = AXIS2_PLACEMENT_3D ( 'NONE', #349, #258, #202 ) ;
#123 = LINE ( 'NONE', #242, #329 ) ;
#124 = DIRECTION ( 'NONE',  ( 1.000000000000000000, 0.000000000000000000, 0.000000000000000000 ) ) ;
#125 = MANIFOLD_SOLID_BREP ( 'Odebrat vysunutím3', #220 ) ;
#126 = EDGE_LOOP ( 'NONE', ( #22, #15, #284, #161 ) ) ;
#127 =( NAMED_UNIT ( * ) PLANE_ANGLE_UNIT ( ) SI_UNIT ( $, .RADIAN. ) );
#128 = AXIS2_PLACEMENT_3D ( 'NONE', #12, #345, #14 ) ;
#129 = ORIENTED_EDGE ( 'NONE', *, *, #268, .F. ) ;
#130 = ORIENTED_EDGE ( 'NONE', *, *, #134, .T. ) ;
#131 = ORIENTED_EDGE ( 'NONE', *, *, #181, .F. ) ;
#132 = ORIENTED_EDGE ( 'NONE', *, *, #289, .T. ) ;
#133 = AXIS2_PLACEMENT_3D ( 'NONE', #347, #113, #232 ) ;
#134 = EDGE_CURVE ( 'NONE', #70, #144, #309, .T. ) ;
#135 = CARTESIAN_POINT ( 'NONE',  ( 3.000000000000000444, 3.673940397442060361E-16, 755.0000000000000000 ) ) ;
#136 = FACE_OUTER_BOUND ( 'NONE', #126, .T. ) ;
#137 = DIRECTION ( 'NONE',  ( 1.000000000000000000, 0.000000000000000000, 0.000000000000000000 ) ) ;
#138 = DIRECTION ( 'NONE',  ( -1.000000000000000000, 0.000000000000000000, 0.000000000000000000 ) ) ;
#139 = CARTESIAN_POINT ( 'NONE',  ( 5.000000000000000000, 6.123233995736766282E-16, 755.0000000000000000 ) ) ;
#140 = LINE ( 'NONE', #143, #313 ) ;
#141 = AXIS2_PLACEMENT_3D ( 'NONE', #74, #76, #194 ) ;
#142 = UNCERTAINTY_MEASURE_WITH_UNIT (LENGTH_MEASURE( 1.000000000000000082E-05 ), #370, 'distance_accuracy_value', 'NONE');
#143 = CARTESIAN_POINT ( 'NONE',  ( -8.000000000000000000, 0.000000000000000000, 5.000000000000000000 ) ) ;
#144 = VERTEX_POINT ( 'NONE', #135 ) ;
#145 = PERSON_AND_ORGANIZATION_ROLE ( 'classification_officer' ) ;
#146 = DIRECTION ( 'NONE',  ( -0.000000000000000000, -0.000000000000000000, -1.000000000000000000 ) ) ;
#147 = EDGE_CURVE ( 'NONE', #144, #70, #328, .T. ) ;
#148 = ORIENTED_EDGE ( 'NONE', *, *, #331, .F. ) ;
#149 = AXIS2_PLACEMENT_3D ( 'NONE', #54, #170, #380 ) ;
#150 = LINE ( 'NONE', #83, #115 ) ;
#151 = COORDINATED_UNIVERSAL_TIME_OFFSET ( 1, 0, .AHEAD. ) ;
#152 = DIRECTION ( 'NONE',  ( 0.000000000000000000, 0.000000000000000000, -1.000000000000000000 ) ) ;
#153 = ADVANCED_FACE ( 'NONE', ( #326, #299 ), #236, .T. ) ;
#154 = DIRECTION ( 'NONE',  ( 0.000000000000000000, 0.000000000000000000, 1.000000000000000000 ) ) ;
#155 = ORIENTED_EDGE ( 'NONE', *, *, #134, .F. ) ;
#156 = EDGE_CURVE ( 'NONE', #47, #162, #343, .T. ) ;
#157 = CIRCLE ( 'NONE', #348, 5.500000000000000000 ) ;
#158 = APPROVAL_PERSON_ORGANIZATION ( #185, #204, #316 ) ;
#159 = ORIENTED_EDGE ( 'NONE', *, *, #147, .F. ) ;
#160 = DIRECTION ( 'NONE',  ( 0.000000000000000000, 0.000000000000000000, 1.000000000000000000 ) ) ;
#161 = ORIENTED_EDGE ( 'NONE', *, *, #240, .F. ) ;
#162 = VERTEX_POINT ( 'NONE', #60 ) ;
#163 = CC_DESIGN_PERSON_AND_ORGANIZATION_ASSIGNMENT ( #166, #256, ( #323 ) ) ;
#164 = EDGE_LOOP ( 'NONE', ( #130, #285, #20, #131 ) ) ;
#165 = CIRCLE ( 'NONE', #2, 0.5000000000000004441 ) ;
#166 = PERSON_AND_ORGANIZATION ( #290, #24 ) ;
#167 = PERSON_AND_ORGANIZATION_ROLE ( 'creator' ) ;
#168 = FACE_OUTER_BOUND ( 'NONE', #99, .T. ) ;
#169 = APPLICATION_PROTOCOL_DEFINITION ( 'international standard', 'config_control_design', 1994, #103 ) ;
#170 = DIRECTION ( 'NONE',  ( 0.000000000000000000, 0.000000000000000000, 1.000000000000000000 ) ) ;
#171 = CARTESIAN_POINT ( 'NONE',  ( -3.000000000000000444, 0.000000000000000000, 755.0000000000000000 ) ) ;
#172 = CARTESIAN_POINT ( 'NONE',  ( 8.000000000000000000, 9.797174393178825657E-16, 0.000000000000000000 ) ) ;
#173 = VERTEX_POINT ( 'NONE', #269 ) ;
#174 = CIRCLE ( 'NONE', #210, 8.000000000000000000 ) ;
#175 = PERSON_AND_ORGANIZATION ( #290, #24 ) ;
#176 = DIRECTION ( 'NONE',  ( -0.000000000000000000, -0.000000000000000000, -1.000000000000000000 ) ) ;
#177 = ORIENTED_EDGE ( 'NONE', *, *, #289, .F. ) ;
#178 = DIRECTION ( 'NONE',  ( 0.000000000000000000, 0.000000000000000000, 1.000000000000000000 ) ) ;
#179 = CIRCLE ( 'NONE', #101, 5.000000000000000000 ) ;
#180 = CYLINDRICAL_SURFACE ( 'NONE', #16, 8.000000000000000000 ) ;
#181 = EDGE_CURVE ( 'NONE', #70, #216, #305, .T. ) ;
#182 = FACE_OUTER_BOUND ( 'NONE', #254, .T. ) ;
#183 = VERTEX_POINT ( 'NONE', #244 ) ;
#184 = PLANE ( 'NONE',  #229 ) ;
#185 = PERSON_AND_ORGANIZATION ( #290, #24 ) ;
#186 = ADVANCED_FACE ( 'NONE', ( #207 ), #32, .T. ) ;
#187 = CARTESIAN_POINT ( 'NONE',  ( 5.000000000000000000, 6.123233995736766282E-16, 5.499999999999949374 ) ) ;
#188 = ORIENTED_EDGE ( 'NONE', *, *, #8, .F. ) ;
#189 = ORIENTED_EDGE ( 'NONE', *, *, #147, .T. ) ;
#190 = AXIS2_PLACEMENT_3D ( 'NONE', #102, #154, #278 ) ;
#191 = EDGE_CURVE ( 'NONE', #183, #224, #273, .T. ) ;
#192 = PRODUCT_DEFINITION_SHAPE ( 'NONE', 'NONE',  #90 ) ;
#193 = CALENDAR_DATE ( 2022, 8, 7 ) ;
#194 = DIRECTION ( 'NONE',  ( 1.000000000000000000, 0.000000000000000000, 0.000000000000000000 ) ) ;
#195 = CYLINDRICAL_SURFACE ( 'NONE', #27, 5.000000000000000000 ) ;
#196 = CALENDAR_DATE ( 2022, 8, 7 ) ;
#197 = FACE_OUTER_BOUND ( 'NONE', #164, .T. ) ;
#198 = CIRCLE ( 'NONE', #149, 5.000000000000000000 ) ;
#199 = LOCAL_TIME ( 16, 55, 52.00000000000000000, #81 ) ;
#200 = DATE_AND_TIME ( #196, #288 ) ;
#201 = EDGE_CURVE ( 'NONE', #173, #286, #352, .T. ) ;
#202 = DIRECTION ( 'NONE',  ( 1.000000000000000000, 0.000000000000000000, 0.000000000000000000 ) ) ;
#203 = DIRECTION ( 'NONE',  ( 0.000000000000000000, 0.000000000000000000, 1.000000000000000000 ) ) ;
#204 = APPROVAL ( #42, 'NEURÈENÝ' ) ;
#205 = SECURITY_CLASSIFICATION_LEVEL ( 'unclassified' ) ;
#206 = CYLINDRICAL_SURFACE ( 'NONE', #108, 5.000000000000000000 ) ;
#207 = FACE_OUTER_BOUND ( 'NONE', #67, .T. ) ;
#208 = DIRECTION ( 'NONE',  ( 0.000000000000000000, 0.000000000000000000, 1.000000000000000000 ) ) ;
#209 = DATE_AND_TIME ( #361, #199 ) ;
#210 = AXIS2_PLACEMENT_3D ( 'NONE', #251, #18, #341 ) ;
#211 = CC_DESIGN_APPROVAL ( #204, ( #303 ) ) ;
#212 = CARTESIAN_POINT ( 'NONE',  ( -5.000000000000000000, 0.000000000000000000, 755.0000000000000000 ) ) ;
#213 = EDGE_CURVE ( 'NONE', #312, #19, #179, .T. ) ;
#214 = ORIENTED_EDGE ( 'NONE', *, *, #301, .F. ) ;
#215 = DIRECTION ( 'NONE',  ( 1.000000000000000000, 0.000000000000000000, -0.000000000000000000 ) ) ;
#216 = VERTEX_POINT ( 'NONE', #36 ) ;
#217 = CARTESIAN_POINT ( 'NONE',  ( 0.000000000000000000, 0.000000000000000000, 5.000000000000000000 ) ) ;
#218 = ORIENTED_EDGE ( 'NONE', *, *, #191, .T. ) ;
#219 = CC_DESIGN_PERSON_AND_ORGANIZATION_ASSIGNMENT ( #275, #145, ( #303 ) ) ;
#220 = CLOSED_SHELL ( 'NONE', ( #97, #117, #35, #186, #358, #366, #327, #276, #153, #111, #43 ) ) ;
#221 = CC_DESIGN_APPROVAL ( #296, ( #90 ) ) ;
#222 = ORIENTED_EDGE ( 'NONE', *, *, #77, .F. ) ;
#223 =( NAMED_UNIT ( * ) SI_UNIT ( $, .STERADIAN. ) SOLID_ANGLE_UNIT ( ) );
#224 = VERTEX_POINT ( 'NONE', #172 ) ;
#225 = APPROVAL_STATUS ( 'not_yet_approved' ) ;
#226 = EDGE_CURVE ( 'NONE', #173, #367, #23, .T. ) ;
#227 = CARTESIAN_POINT ( 'NONE',  ( 0.000000000000000000, 0.000000000000000000, 5.499999999999949374 ) ) ;
#228 = DIRECTION ( 'NONE',  ( 1.000000000000000000, 0.000000000000000000, 0.000000000000000000 ) ) ;
#229 = AXIS2_PLACEMENT_3D ( 'NONE', #245, #160, #215 ) ;
#230 = CALENDAR_DATE ( 2022, 8, 7 ) ;
#231 = DIRECTION ( 'NONE',  ( 1.000000000000000000, 0.000000000000000000, 0.000000000000000000 ) ) ;
#232 = DIRECTION ( 'NONE',  ( 1.000000000000000000, 0.000000000000000000, 0.000000000000000000 ) ) ;
#233 = CC_DESIGN_PERSON_AND_ORGANIZATION_ASSIGNMENT ( #119, #116, ( #75 ) ) ;
#234 = DATE_AND_TIME ( #193, #86 ) ;
#235 = AXIS2_PLACEMENT_3D ( 'NONE', #302, #5, #266 ) ;
#236 = PLANE ( 'NONE',  #109 ) ;
#237 = ORIENTED_EDGE ( 'NONE', *, *, #331, .T. ) ;
#238 = CC_DESIGN_DATE_AND_TIME_ASSIGNMENT ( #257, #376, ( #90 ) ) ;
#239 = CARTESIAN_POINT ( 'NONE',  ( 0.000000000000000000, 0.000000000000000000, 5.000000000000000000 ) ) ;
#240 = EDGE_CURVE ( 'NONE', #312, #173, #150, .T. ) ;
#241 = CIRCLE ( 'NONE', #57, 8.000000000000000000 ) ;
#242 = CARTESIAN_POINT ( 'NONE',  ( 8.000000000000000000, 9.797174393178825657E-16, 5.000000000000000000 ) ) ;
#243 = APPROVAL_DATE_TIME ( #95, #204 ) ;
#244 = CARTESIAN_POINT ( 'NONE',  ( -8.000000000000000000, 0.000000000000000000, 0.000000000000000000 ) ) ;
#245 = CARTESIAN_POINT ( 'NONE',  ( 0.000000000000000000, 0.000000000000000000, 5.000000000000000000 ) ) ;
#246 = EDGE_LOOP ( 'NONE', ( #96, #222 ) ) ;
#247 = PLANE ( 'NONE',  #128 ) ;
#248 = EDGE_LOOP ( 'NONE', ( #250, #354, #89, #346 ) ) ;
#249 = FACE_BOUND ( 'NONE', #73, .T. ) ;
#250 = ORIENTED_EDGE ( 'NONE', *, *, #201, .F. ) ;
#251 = CARTESIAN_POINT ( 'NONE',  ( 0.000000000000000000, 0.000000000000000000, 5.000000000000000000 ) ) ;
#252 = CARTESIAN_POINT ( 'NONE',  ( 5.500000000000000000, 0.000000000000000000, 4.999999999999975131 ) ) ;
#253 = AXIS2_PLACEMENT_3D ( 'NONE', #107, #375, #106 ) ;
#254 = EDGE_LOOP ( 'NONE', ( #61, #318 ) ) ;
#255 = EDGE_CURVE ( 'NONE', #162, #183, #140, .T. ) ;
#256 = PERSON_AND_ORGANIZATION_ROLE ( 'design_owner' ) ;
#257 = DATE_AND_TIME ( #230, #110 ) ;
#258 = DIRECTION ( 'NONE',  ( 0.000000000000000000, 0.000000000000000000, 1.000000000000000000 ) ) ;
#259 = ADVANCED_BREP_SHAPE_REPRESENTATION ( 'e84c', ( #125, #190 ), #48 ) ;
#260 = AXIS2_PLACEMENT_3D ( 'NONE', #53, #351, #324 ) ;
#261 = CARTESIAN_POINT ( 'NONE',  ( 0.000000000000000000, 0.000000000000000000, 755.0000000000000000 ) ) ;
#262 = CARTESIAN_POINT ( 'NONE',  ( 8.000000000000000000, 9.797174393178825657E-16, 5.000000000000000000 ) ) ;
#263 = EDGE_CURVE ( 'NONE', #286, #307, #41, .T. ) ;
#264 = COORDINATED_UNIVERSAL_TIME_OFFSET ( 1, 0, .AHEAD. ) ;
#265 = DIRECTION ( 'NONE',  ( -1.000000000000000000, 0.000000000000000000, 0.000000000000000000 ) ) ;
#266 = DIRECTION ( 'NONE',  ( 1.000000000000000000, 0.000000000000000000, 0.000000000000000000 ) ) ;
#267 = VECTOR ( 'NONE', #152, 1000.000000000000000 ) ;
#268 = EDGE_CURVE ( 'NONE', #19, #367, #3, .T. ) ;
#269 = CARTESIAN_POINT ( 'NONE',  ( -5.000000000000000000, 0.000000000000000000, 5.499999999999949374 ) ) ;
#270 = DIRECTION ( 'NONE',  ( -1.000000000000000000, 0.000000000000000000, 0.000000000000000000 ) ) ;
#271 = ORIENTED_EDGE ( 'NONE', *, *, #181, .T. ) ;
#272 = ORIENTED_EDGE ( 'NONE', *, *, #213, .F. ) ;
#273 = CIRCLE ( 'NONE', #281, 8.000000000000000000 ) ;
#274 = APPROVAL_PERSON_ORGANIZATION ( #105, #296, #319 ) ;
#275 = PERSON_AND_ORGANIZATION ( #290, #24 ) ;
#276 = ADVANCED_FACE ( 'NONE', ( #120 ), #206, .T. ) ;
#277 = CARTESIAN_POINT ( 'NONE',  ( 5.500000000000000000, 0.000000000000000000, 5.499999999999949374 ) ) ;
#278 = DIRECTION ( 'NONE',  ( 1.000000000000000000, 0.000000000000000000, 0.000000000000000000 ) ) ;
#279 = ORIENTED_EDGE ( 'NONE', *, *, #362, .F. ) ;
#280 = SHAPE_DEFINITION_REPRESENTATION ( #192, #259 ) ;
#281 = AXIS2_PLACEMENT_3D ( 'NONE', #332, #178, #58 ) ;
#282 = CC_DESIGN_DATE_AND_TIME_ASSIGNMENT ( #209, #100, ( #303 ) ) ;
#283 = FACE_OUTER_BOUND ( 'NONE', #344, .T. ) ;
#284 = ORIENTED_EDGE ( 'NONE', *, *, #84, .T. ) ;
#285 = ORIENTED_EDGE ( 'NONE', *, *, #362, .T. ) ;
#286 = VERTEX_POINT ( 'NONE', #10 ) ;
#287 = VECTOR ( 'NONE', #85, 1000.000000000000000 ) ;
#288 = LOCAL_TIME ( 16, 55, 52.00000000000000000, #78 ) ;
#289 = EDGE_CURVE ( 'NONE', #47, #224, #123, .T. ) ;
#290 = PERSON ( 'NEURÈENÝ', 'NEURÈENÝ', 'NEURÈENÝ', ('NEURÈENÝ'), ('NEURÈENÝ'), ('NEURÈENÝ') ) ;
#291 = PERSON_AND_ORGANIZATION ( #290, #24 ) ;
#292 = CARTESIAN_POINT ( 'NONE',  ( 0.000000000000000000, 0.000000000000000000, 755.0000000000000000 ) ) ;
#293 = PERSON_AND_ORGANIZATION ( #290, #24 ) ;
#294 = CARTESIAN_POINT ( 'NONE',  ( 0.000000000000000000, 0.000000000000000000, 755.0000000000000000 ) ) ;
#295 = APPROVAL_STATUS ( 'not_yet_approved' ) ;
#296 = APPROVAL ( #225, 'NEURÈENÝ' ) ;
#297 = TOROIDAL_SURFACE ( 'NONE', #122, 5.500000000000000000, 0.5000000000000000000 ) ;
#298 = DIRECTION ( 'NONE',  ( -0.000000000000000000, -0.000000000000000000, -1.000000000000000000 ) ) ;
#299 = FACE_OUTER_BOUND ( 'NONE', #310, .T. ) ;
#300 = CARTESIAN_POINT ( 'NONE',  ( 0.000000000000000000, 0.000000000000000000, 755.0000000000000000 ) ) ;
#301 = EDGE_CURVE ( 'NONE', #367, #307, #165, .T. ) ;
#302 = CARTESIAN_POINT ( 'NONE',  ( 0.000000000000000000, 0.000000000000000000, 5.000000000000000000 ) ) ;
#303 = SECURITY_CLASSIFICATION ( '', '', #205 ) ;
#304 = PERSON_AND_ORGANIZATION_ROLE ( 'design_supplier' ) ;
#305 = LINE ( 'NONE', #333, #287 ) ;
#306 = DIRECTION ( 'NONE',  ( -1.000000000000000000, 0.000000000000000000, 0.000000000000000000 ) ) ;
#307 = VERTEX_POINT ( 'NONE', #252 ) ;
#308 = DIRECTION ( 'NONE',  ( 1.224646799147353207E-16, 1.000000000000000000, -0.000000000000000000 ) ) ;
#309 = CIRCLE ( 'NONE', #80, 3.000000000000000444 ) ;
#310 = EDGE_LOOP ( 'NONE', ( #13, #104 ) ) ;
#311 = CC_DESIGN_PERSON_AND_ORGANIZATION_ASSIGNMENT ( #291, #167, ( #90 ) ) ;
#312 = VERTEX_POINT ( 'NONE', #212 ) ;
#313 = VECTOR ( 'NONE', #87, 1000.000000000000000 ) ;
#314 = LINE ( 'NONE', #365, #267 ) ;
#315 = ORIENTED_EDGE ( 'NONE', *, *, #255, .T. ) ;
#316 = APPROVAL_ROLE ( '' ) ;
#317 = EDGE_LOOP ( 'NONE', ( #129, #272, #371, #56 ) ) ;
#318 = ORIENTED_EDGE ( 'NONE', *, *, #156, .T. ) ;
#319 = APPROVAL_ROLE ( '' ) ;
#320 = CIRCLE ( 'NONE', #141, 3.000000000000000444 ) ;
#321 = DIRECTION ( 'NONE',  ( 0.000000000000000000, 0.000000000000000000, 1.000000000000000000 ) ) ;
#322 = PRODUCT_RELATED_PRODUCT_CATEGORY ( 'detail', '', ( #323 ) ) ;
#323 = PRODUCT ( 'e84c', 'e84c', '', ( #46 ) ) ;
#324 = DIRECTION ( 'NONE',  ( -1.000000000000000000, 0.000000000000000000, 0.000000000000000000 ) ) ;
#325 = AXIS2_PLACEMENT_3D ( 'NONE', #360, #308, #357 ) ;
#326 = FACE_BOUND ( 'NONE', #369, .T. ) ;
#327 = ADVANCED_FACE ( 'NONE', ( #249, #66 ), #247, .F. ) ;
#328 = CIRCLE ( 'NONE', #133, 3.000000000000000444 ) ;
#329 = VECTOR ( 'NONE', #359, 1000.000000000000000 ) ;
#330 = CARTESIAN_POINT ( 'NONE',  ( 0.000000000000000000, 0.000000000000000000, 755.0000000000000000 ) ) ;
#331 = EDGE_CURVE ( 'NONE', #307, #286, #157, .T. ) ;
#332 = CARTESIAN_POINT ( 'NONE',  ( 0.000000000000000000, 0.000000000000000000, 0.000000000000000000 ) ) ;
#333 = CARTESIAN_POINT ( 'NONE',  ( -3.000000000000000444, 0.000000000000000000, 755.0000000000000000 ) ) ;
#334 = VECTOR ( 'NONE', #7, 1000.000000000000000 ) ;
#335 = CC_DESIGN_SECURITY_CLASSIFICATION ( #303, ( #75 ) ) ;
#336 = DIRECTION ( 'NONE',  ( 0.000000000000000000, 0.000000000000000000, -1.000000000000000000 ) ) ;
#337 = ORIENTED_EDGE ( 'NONE', *, *, #201, .T. ) ;
#338 = EDGE_CURVE ( 'NONE', #162, #47, #174, .T. ) ;
#339 = CARTESIAN_POINT ( 'NONE',  ( 3.000000000000000444, 3.673940397442060361E-16, 0.000000000000000000 ) ) ;
#340 = ORIENTED_EDGE ( 'NONE', *, *, #77, .T. ) ;
#341 = DIRECTION ( 'NONE',  ( 1.000000000000000000, 0.000000000000000000, 0.000000000000000000 ) ) ;
#342 = ORIENTED_EDGE ( 'NONE', *, *, #8, .T. ) ;
#343 = CIRCLE ( 'NONE', #11, 8.000000000000000000 ) ;
#344 = EDGE_LOOP ( 'NONE', ( #177, #65, #315, #218 ) ) ;
#345 = DIRECTION ( 'NONE',  ( 0.000000000000000000, 0.000000000000000000, 1.000000000000000000 ) ) ;
#346 = ORIENTED_EDGE ( 'NONE', *, *, #263, .F. ) ;
#347 = CARTESIAN_POINT ( 'NONE',  ( 0.000000000000000000, 0.000000000000000000, 755.0000000000000000 ) ) ;
#348 = AXIS2_PLACEMENT_3D ( 'NONE', #217, #38, #98 ) ;
#349 = CARTESIAN_POINT ( 'NONE',  ( 0.000000000000000000, 0.000000000000000000, 5.499999999999949374 ) ) ;
#350 = CARTESIAN_POINT ( 'NONE',  ( 0.000000000000000000, 0.000000000000000000, 0.000000000000000000 ) ) ;
#351 = DIRECTION ( 'NONE',  ( 0.000000000000000000, 0.000000000000000000, -1.000000000000000000 ) ) ;
#352 = CIRCLE ( 'NONE', #325, 0.5000000000000004441 ) ;
#353 = DIRECTION ( 'NONE',  ( 1.000000000000000000, 0.000000000000000000, -0.000000000000000000 ) ) ;
#354 = ORIENTED_EDGE ( 'NONE', *, *, #84, .F. ) ;
#355 = CARTESIAN_POINT ( 'NONE',  ( 0.000000000000000000, 0.000000000000000000, 5.000000000000000000 ) ) ;
#356 = APPLICATION_CONTEXT ( 'configuration controlled 3d designs of mechanical parts and assemblies' ) ;
#357 = DIRECTION ( 'NONE',  ( -1.000000000000000000, 1.224646799147351482E-16, 0.000000000000000000 ) ) ;
#358 = ADVANCED_FACE ( 'NONE', ( #283 ), #180, .T. ) ;
#359 = DIRECTION ( 'NONE',  ( -0.000000000000000000, -0.000000000000000000, -1.000000000000000000 ) ) ;
#360 = CARTESIAN_POINT ( 'NONE',  ( -5.500000000000000000, 6.735557395310442023E-16, 5.499999999999949374 ) ) ;
#361 = CALENDAR_DATE ( 2022, 8, 7 ) ;
#362 = EDGE_CURVE ( 'NONE', #144, #374, #314, .T. ) ;
#363 = AXIS2_PLACEMENT_3D ( 'NONE', #292, #25, #138 ) ;
#364 = CALENDAR_DATE ( 2022, 8, 7 ) ;
#365 = CARTESIAN_POINT ( 'NONE',  ( 3.000000000000000444, 3.673940397442060361E-16, 755.0000000000000000 ) ) ;
#366 = ADVANCED_FACE ( 'NONE', ( #368, #182 ), #184, .T. ) ;
#367 = VERTEX_POINT ( 'NONE', #187 ) ;
#368 = FACE_BOUND ( 'NONE', #40, .T. ) ;
#369 = EDGE_LOOP ( 'NONE', ( #155, #159 ) ) ;
#370 =( LENGTH_UNIT ( ) NAMED_UNIT ( * ) SI_UNIT ( .MILLI., .METRE. ) );
#371 = ORIENTED_EDGE ( 'NONE', *, *, #240, .T. ) ;
#372 = APPROVAL ( #295, 'NEURÈENÝ' ) ;
#373 = CIRCLE ( 'NONE', #31, 3.000000000000000444 ) ;
#374 = VERTEX_POINT ( 'NONE', #339 ) ;
#375 = DIRECTION ( 'NONE',  ( 0.000000000000000000, 0.000000000000000000, 1.000000000000000000 ) ) ;
#376 = DATE_TIME_ROLE ( 'creation_date' ) ;
#377 = FACE_OUTER_BOUND ( 'NONE', #94, .T. ) ;
#378 = AXIS2_PLACEMENT_3D ( 'NONE', #34, #208, #91 ) ;
#379 = APPROVAL_PERSON_ORGANIZATION ( #293, #372, #112 ) ;
#380 = DIRECTION ( 'NONE',  ( 1.000000000000000000, 0.000000000000000000, 0.000000000000000000 ) ) ;
#381 = DIRECTION ( 'NONE',  ( 0.000000000000000000, 0.000000000000000000, 1.000000000000000000 ) ) ;
ENDSEC;
END-ISO-10303-21;
