ISO-10303-21;
HEADER;
FILE_DESCRIPTION (( 'STEP AP203' ),
    '1' );
FILE_NAME ('4300.STEP',
    '2022-07-08T14:18:06',
    ( '' ),
    ( '' ),
    'SwSTEP 2.0',
    'SolidWorks 2019',
    '' );
FILE_SCHEMA (( 'CONFIG_CONTROL_DESIGN' ));
ENDSEC;

DATA;
#1 = DATE_AND_TIME ( #143, #32 ) ;
#2 = DIRECTION ( 'NONE',  ( 0.000000000000000000, 0.000000000000000000, -1.000000000000000000 ) ) ;
#3 = CIRCLE ( 'NONE', #145, 6.000000000000000888 ) ;
#4 = CARTESIAN_POINT ( 'NONE',  ( 8.000000000000000000, 9.797174393178825657E-16, 607.0000000000000000 ) ) ;
#5 = CC_DESIGN_PERSON_AND_ORGANIZATION_ASSIGNMENT ( #47, #341, ( #99 ) ) ;
#6 = DIRECTION ( 'NONE',  ( -1.000000000000000000, 0.000000000000000000, 0.000000000000000000 ) ) ;
#7 = PRODUCT_DEFINITION_SHAPE ( 'NONE', 'NONE',  #316 ) ;
#8 = EDGE_CURVE ( 'NONE', #190, #108, #31, .T. ) ;
#9 = DIRECTION ( 'NONE',  ( 0.000000000000000000, 0.000000000000000000, 1.000000000000000000 ) ) ;
#10 = EDGE_CURVE ( 'NONE', #286, #312, #85, .T. ) ;
#11 = CIRCLE ( 'NONE', #333, 6.000000000000000888 ) ;
#12 = CC_DESIGN_APPROVAL ( #253, ( #316 ) ) ;
#13 = CARTESIAN_POINT ( 'NONE',  ( 0.000000000000000000, 0.000000000000000000, 7.000000000000000000 ) ) ;
#14 = DIRECTION ( 'NONE',  ( 1.000000000000000000, 0.000000000000000000, 0.000000000000000000 ) ) ;
#15 = CALENDAR_DATE ( 2022, 8, 7 ) ;
#16 = VECTOR ( 'NONE', #97, 1000.000000000000000 ) ;
#17 = EDGE_LOOP ( 'NONE', ( #93, #310, #372, #284 ) ) ;
#18 = SECURITY_CLASSIFICATION ( '', '', #173 ) ;
#19 = PERSON_AND_ORGANIZATION ( #147, #33 ) ;
#20 = VERTEX_POINT ( 'NONE', #172 ) ;
#21 = EDGE_CURVE ( 'NONE', #226, #381, #11, .T. ) ;
#22 = ORIENTED_EDGE ( 'NONE', *, *, #224, .T. ) ;
#23 = CC_DESIGN_PERSON_AND_ORGANIZATION_ASSIGNMENT ( #60, #291, ( #127 ) ) ;
#24 = CARTESIAN_POINT ( 'NONE',  ( 11.00000000000000000, 1.347111479062088405E-15, 7.000000000000000000 ) ) ;
#25 = EDGE_LOOP ( 'NONE', ( #195, #282, #103, #260 ) ) ;
#26 = AXIS2_PLACEMENT_3D ( 'NONE', #360, #276, #187 ) ;
#27 = CYLINDRICAL_SURFACE ( 'NONE', #200, 8.000000000000000000 ) ;
#28 = FACE_BOUND ( 'NONE', #258, .T. ) ;
#29 = PERSON_AND_ORGANIZATION ( #147, #33 ) ;
#30 = DIRECTION ( 'NONE',  ( 1.000000000000000000, 0.000000000000000000, 0.000000000000000000 ) ) ;
#31 = CIRCLE ( 'NONE', #327, 0.6999999999999992895 ) ;
#32 = LOCAL_TIME ( 16, 18, 6.000000000000000000, #120 ) ;
#33 = ORGANIZATION ( 'NEURÈENÝ', 'NEURÈENÝ', '' ) ;
#34 = DIRECTION ( 'NONE',  ( 1.000000000000000000, 0.000000000000000000, 0.000000000000000000 ) ) ;
#35 = EDGE_CURVE ( 'NONE', #381, #226, #109, .T. ) ;
#36 = LINE ( 'NONE', #290, #132 ) ;
#37 = PLANE ( 'NONE',  #305 ) ;
#38 = TOROIDAL_SURFACE ( 'NONE', #177, 8.699999999999999289, 0.6999999999999999556 ) ;
#39 = CARTESIAN_POINT ( 'NONE',  ( 0.000000000000000000, 0.000000000000000000, 7.000000000000000000 ) ) ;
#40 = LINE ( 'NONE', #150, #73 ) ;
#41 = LINE ( 'NONE', #301, #169 ) ;
#42 = CARTESIAN_POINT ( 'NONE',  ( 0.000000000000000000, 0.000000000000000000, 0.000000000000000000 ) ) ;
#43 = DIRECTION ( 'NONE',  ( 0.000000000000000000, 0.000000000000000000, 1.000000000000000000 ) ) ;
#44 = APPROVAL ( #63, 'NEURÈENÝ' ) ;
#45 = MECHANICAL_CONTEXT ( 'NONE', #149, 'mechanical' ) ;
#46 = ORIENTED_EDGE ( 'NONE', *, *, #206, .T. ) ;
#47 = PERSON_AND_ORGANIZATION ( #147, #33 ) ;
#48 = CIRCLE ( 'NONE', #322, 0.7000000000000000666 ) ;
#49 = EDGE_LOOP ( 'NONE', ( #314, #342, #105, #197 ) ) ;
#50 = EDGE_CURVE ( 'NONE', #136, #190, #36, .T. ) ;
#51 =( NAMED_UNIT ( * ) SI_UNIT ( $, .STERADIAN. ) SOLID_ANGLE_UNIT ( ) );
#52 = ORIENTED_EDGE ( 'NONE', *, *, #72, .T. ) ;
#53 = CC_DESIGN_PERSON_AND_ORGANIZATION_ASSIGNMENT ( #19, #135, ( #316 ) ) ;
#54 = PERSON_AND_ORGANIZATION ( #147, #33 ) ;
#55 = EDGE_LOOP ( 'NONE', ( #84, #22, #199, #139 ) ) ;
#56 = ORIENTED_EDGE ( 'NONE', *, *, #186, .T. ) ;
#57 = VECTOR ( 'NONE', #77, 1000.000000000000000 ) ;
#58 = DIRECTION ( 'NONE',  ( 0.000000000000000000, 0.000000000000000000, 1.000000000000000000 ) ) ;
#59 = DIRECTION ( 'NONE',  ( 0.000000000000000000, 0.000000000000000000, 1.000000000000000000 ) ) ;
#60 = PERSON_AND_ORGANIZATION ( #147, #33 ) ;
#61 = DIRECTION ( 'NONE',  ( 1.000000000000000000, 0.000000000000000000, 0.000000000000000000 ) ) ;
#62 = EDGE_CURVE ( 'NONE', #20, #221, #340, .T. ) ;
#63 = APPROVAL_STATUS ( 'not_yet_approved' ) ;
#64 = DIRECTION ( 'NONE',  ( -0.000000000000000000, -0.000000000000000000, -1.000000000000000000 ) ) ;
#65 = EDGE_LOOP ( 'NONE', ( #307, #339 ) ) ;
#66 = DIRECTION ( 'NONE',  ( -1.000000000000000000, 0.000000000000000000, 0.000000000000000000 ) ) ;
#67 = AXIS2_PLACEMENT_3D ( 'NONE', #377, #64, #30 ) ;
#68 = CARTESIAN_POINT ( 'NONE',  ( 8.699999999999999289, 0.000000000000000000, 7.000000000000020428 ) ) ;
#69 = FACE_OUTER_BOUND ( 'NONE', #306, .T. ) ;
#70 = ADVANCED_FACE ( 'NONE', ( #28, #142 ), #146, .F. ) ;
#71 = CARTESIAN_POINT ( 'NONE',  ( 0.000000000000000000, 0.000000000000000000, 7.000000000000000000 ) ) ;
#72 = EDGE_CURVE ( 'NONE', #312, #223, #48, .T. ) ;
#73 = VECTOR ( 'NONE', #272, 1000.000000000000000 ) ;
#74 = CC_DESIGN_APPROVAL ( #158, ( #127 ) ) ;
#75 = DIRECTION ( 'NONE',  ( 0.000000000000000000, 0.000000000000000000, 1.000000000000000000 ) ) ;
#76 = DESIGN_CONTEXT ( 'detailed design', #243, 'design' ) ;
#77 = DIRECTION ( 'NONE',  ( 0.000000000000000000, 0.000000000000000000, -1.000000000000000000 ) ) ;
#78 = EDGE_LOOP ( 'NONE', ( #82, #337, #232, #56 ) ) ;
#79 =( LENGTH_UNIT ( ) NAMED_UNIT ( * ) SI_UNIT ( .MILLI., .METRE. ) );
#80 = ORIENTED_EDGE ( 'NONE', *, *, #259, .T. ) ;
#81 = DIRECTION ( 'NONE',  ( 1.000000000000000000, 0.000000000000000000, 0.000000000000000000 ) ) ;
#82 = ORIENTED_EDGE ( 'NONE', *, *, #224, .F. ) ;
#83 = ORIENTED_EDGE ( 'NONE', *, *, #216, .T. ) ;
#84 = ORIENTED_EDGE ( 'NONE', *, *, #216, .F. ) ;
#85 = LINE ( 'NONE', #178, #101 ) ;
#86 = CIRCLE ( 'NONE', #138, 8.000000000000000000 ) ;
#87 = APPROVAL_DATE_TIME ( #320, #44 ) ;
#88 = CARTESIAN_POINT ( 'NONE',  ( 0.000000000000000000, 0.000000000000000000, 607.0000000000000000 ) ) ;
#89 = CARTESIAN_POINT ( 'NONE',  ( 0.000000000000000000, 0.000000000000000000, 607.0000000000000000 ) ) ;
#90 = CARTESIAN_POINT ( 'NONE',  ( 0.000000000000000000, 0.000000000000000000, 0.000000000000000000 ) ) ;
#91 = CC_DESIGN_DATE_AND_TIME_ASSIGNMENT ( #257, #251, ( #316 ) ) ;
#92 = AXIS2_PLACEMENT_3D ( 'NONE', #88, #117, #236 ) ;
#93 = ORIENTED_EDGE ( 'NONE', *, *, #336, .F. ) ;
#94 = FACE_OUTER_BOUND ( 'NONE', #204, .T. ) ;
#95 = FACE_OUTER_BOUND ( 'NONE', #78, .T. ) ;
#96 = DIRECTION ( 'NONE',  ( 0.000000000000000000, 0.000000000000000000, 1.000000000000000000 ) ) ;
#97 = DIRECTION ( 'NONE',  ( -0.000000000000000000, -0.000000000000000000, -1.000000000000000000 ) ) ;
#98 = LINE ( 'NONE', #155, #16 ) ;
#99 = PRODUCT ( '4300', '4300', '', ( #45 ) ) ;
#100 = FACE_OUTER_BOUND ( 'NONE', #255, .T. ) ;
#101 = VECTOR ( 'NONE', #210, 1000.000000000000000 ) ;
#102 = CARTESIAN_POINT ( 'NONE',  ( 0.000000000000000000, 0.000000000000000000, 7.700000000000040146 ) ) ;
#103 = ORIENTED_EDGE ( 'NONE', *, *, #153, .T. ) ;
#104 = DIRECTION ( 'NONE',  ( 0.000000000000000000, 0.000000000000000000, 1.000000000000000000 ) ) ;
#105 = ORIENTED_EDGE ( 'NONE', *, *, #50, .T. ) ;
#106 = ADVANCED_BREP_SHAPE_REPRESENTATION ( '4300', ( #201, #329 ), #366 ) ;
#107 = COORDINATED_UNIVERSAL_TIME_OFFSET ( 1, 0, .AHEAD. ) ;
#108 = VERTEX_POINT ( 'NONE', #346 ) ;
#109 = CIRCLE ( 'NONE', #298, 6.000000000000000888 ) ;
#110 = CARTESIAN_POINT ( 'NONE',  ( -11.00000000000000000, 0.000000000000000000, 7.000000000000000000 ) ) ;
#111 = EDGE_LOOP ( 'NONE', ( #289, #131, #52, #134 ) ) ;
#112 = EDGE_LOOP ( 'NONE', ( #191, #296, #375, #252 ) ) ;
#113 = FACE_BOUND ( 'NONE', #344, .T. ) ;
#114 = CC_DESIGN_DATE_AND_TIME_ASSIGNMENT ( #1, #265, ( #18 ) ) ;
#115 = CARTESIAN_POINT ( 'NONE',  ( 0.000000000000000000, 0.000000000000000000, 0.000000000000000000 ) ) ;
#116 = AXIS2_PLACEMENT_3D ( 'NONE', #219, #303, #6 ) ;
#117 = DIRECTION ( 'NONE',  ( 0.000000000000000000, 0.000000000000000000, -1.000000000000000000 ) ) ;
#118 = ADVANCED_FACE ( 'NONE', ( #141 ), #148, .T. ) ;
#119 = CARTESIAN_POINT ( 'NONE',  ( -11.00000000000000000, 0.000000000000000000, 0.000000000000000000 ) ) ;
#120 = COORDINATED_UNIVERSAL_TIME_OFFSET ( 1, 0, .AHEAD. ) ;
#121 = DIRECTION ( 'NONE',  ( 0.000000000000000000, 0.000000000000000000, 1.000000000000000000 ) ) ;
#122 = CIRCLE ( 'NONE', #280, 8.699999999999999289 ) ;
#123 = DIRECTION ( 'NONE',  ( 0.000000000000000000, 0.000000000000000000, -1.000000000000000000 ) ) ;
#124 = EDGE_CURVE ( 'NONE', #221, #20, #3, .T. ) ;
#125 = CARTESIAN_POINT ( 'NONE',  ( 6.000000000000000888, 7.347880794884120722E-16, 0.000000000000000000 ) ) ;
#126 = DIRECTION ( 'NONE',  ( 1.000000000000000000, 0.000000000000000000, -0.000000000000000000 ) ) ;
#127 = PRODUCT_DEFINITION_FORMATION_WITH_SPECIFIED_SOURCE ( 'LIBOVOLNÝ', '', #99, .NOT_KNOWN. ) ;
#128 = CARTESIAN_POINT ( 'NONE',  ( 0.000000000000000000, 0.000000000000000000, 607.0000000000000000 ) ) ;
#129 = DIRECTION ( 'NONE',  ( 0.000000000000000000, 0.000000000000000000, 1.000000000000000000 ) ) ;
#130 = CARTESIAN_POINT ( 'NONE',  ( 0.000000000000000000, 0.000000000000000000, 0.000000000000000000 ) ) ;
#131 = ORIENTED_EDGE ( 'NONE', *, *, #153, .F. ) ;
#132 = VECTOR ( 'NONE', #211, 1000.000000000000000 ) ;
#133 = APPLICATION_PROTOCOL_DEFINITION ( 'international standard', 'config_control_design', 1994, #243 ) ;
#134 = ORIENTED_EDGE ( 'NONE', *, *, #309, .F. ) ;
#135 = PERSON_AND_ORGANIZATION_ROLE ( 'creator' ) ;
#136 = VERTEX_POINT ( 'NONE', #348 ) ;
#137 = ORIENTED_EDGE ( 'NONE', *, *, #318, .T. ) ;
#138 = AXIS2_PLACEMENT_3D ( 'NONE', #350, #207, #61 ) ;
#139 = ORIENTED_EDGE ( 'NONE', *, *, #264, .F. ) ;
#140 = ADVANCED_FACE ( 'NONE', ( #321 ), #380, .F. ) ;
#141 = FACE_OUTER_BOUND ( 'NONE', #49, .T. ) ;
#142 = FACE_OUTER_BOUND ( 'NONE', #171, .T. ) ;
#143 = CALENDAR_DATE ( 2022, 8, 7 ) ;
#144 = DIRECTION ( 'NONE',  ( -0.000000000000000000, -0.000000000000000000, -1.000000000000000000 ) ) ;
#145 = AXIS2_PLACEMENT_3D ( 'NONE', #267, #235, #376 ) ;
#146 = PLANE ( 'NONE',  #246 ) ;
#147 = PERSON ( 'NEURÈENÝ', 'NEURÈENÝ', 'NEURÈENÝ', ('NEURÈENÝ'), ('NEURÈENÝ'), ('NEURÈENÝ') ) ;
#148 = CYLINDRICAL_SURFACE ( 'NONE', #359, 8.000000000000000000 ) ;
#149 = APPLICATION_CONTEXT ( 'configuration controlled 3d designs of mechanical parts and assemblies' ) ;
#150 = CARTESIAN_POINT ( 'NONE',  ( 11.00000000000000000, 1.347111479062088405E-15, 7.000000000000000000 ) ) ;
#151 = AXIS2_PLACEMENT_3D ( 'NONE', #102, #285, #165 ) ;
#152 = DIRECTION ( 'NONE',  ( 1.000000000000000000, 0.000000000000000000, 0.000000000000000000 ) ) ;
#153 = EDGE_CURVE ( 'NONE', #312, #190, #86, .T. ) ;
#154 = CARTESIAN_POINT ( 'NONE',  ( 0.000000000000000000, 0.000000000000000000, 7.000000000000000000 ) ) ;
#155 = CARTESIAN_POINT ( 'NONE',  ( -11.00000000000000000, 0.000000000000000000, 7.000000000000000000 ) ) ;
#156 = UNCERTAINTY_MEASURE_WITH_UNIT (LENGTH_MEASURE( 1.000000000000000082E-05 ), #79, 'distance_accuracy_value', 'NONE');
#157 = AXIS2_PLACEMENT_3D ( 'NONE', #128, #75, #14 ) ;
#158 = APPROVAL ( #313, 'NEURÈENÝ' ) ;
#159 = DIRECTION ( 'NONE',  ( 1.000000000000000000, 0.000000000000000000, 0.000000000000000000 ) ) ;
#160 = DIRECTION ( 'NONE',  ( 1.000000000000000000, 0.000000000000000000, 0.000000000000000000 ) ) ;
#161 = ORIENTED_EDGE ( 'NONE', *, *, #293, .T. ) ;
#162 = APPROVAL_PERSON_ORGANIZATION ( #254, #253, #196 ) ;
#163 = COORDINATED_UNIVERSAL_TIME_OFFSET ( 1, 0, .AHEAD. ) ;
#164 = ORIENTED_EDGE ( 'NONE', *, *, #256, .T. ) ;
#165 = DIRECTION ( 'NONE',  ( 1.000000000000000000, 0.000000000000000000, 0.000000000000000000 ) ) ;
#166 = VERTEX_POINT ( 'NONE', #119 ) ;
#167 = PERSON_AND_ORGANIZATION_ROLE ( 'creator' ) ;
#168 = ORIENTED_EDGE ( 'NONE', *, *, #62, .F. ) ;
#169 = VECTOR ( 'NONE', #218, 1000.000000000000000 ) ;
#170 = LOCAL_TIME ( 16, 18, 6.000000000000000000, #163 ) ;
#171 = EDGE_LOOP ( 'NONE', ( #315, #279 ) ) ;
#172 = CARTESIAN_POINT ( 'NONE',  ( -6.000000000000000888, 0.000000000000000000, 0.000000000000000000 ) ) ;
#173 = SECURITY_CLASSIFICATION_LEVEL ( 'unclassified' ) ;
#174 = DIRECTION ( 'NONE',  ( 0.000000000000000000, -1.000000000000000000, 0.000000000000000000 ) ) ;
#175 = AXIS2_PLACEMENT_3D ( 'NONE', #90, #121, #233 ) ;
#176 = CARTESIAN_POINT ( 'NONE',  ( 11.00000000000000000, 1.347111479062088405E-15, 0.000000000000000000 ) ) ;
#177 = AXIS2_PLACEMENT_3D ( 'NONE', #308, #104, #160 ) ;
#178 = CARTESIAN_POINT ( 'NONE',  ( 8.000000000000000000, 9.797174393178825657E-16, 607.0000000000000000 ) ) ;
#179 = VERTEX_POINT ( 'NONE', #176 ) ;
#180 = CC_DESIGN_PERSON_AND_ORGANIZATION_ASSIGNMENT ( #54, #167, ( #127 ) ) ;
#181 = FACE_OUTER_BOUND ( 'NONE', #55, .T. ) ;
#182 = CIRCLE ( 'NONE', #275, 11.00000000000000000 ) ;
#183 = FACE_BOUND ( 'NONE', #65, .T. ) ;
#184 = ADVANCED_FACE ( 'NONE', ( #295 ), #27, .T. ) ;
#185 = DIRECTION ( 'NONE',  ( 0.000000000000000000, 0.000000000000000000, 1.000000000000000000 ) ) ;
#186 = EDGE_CURVE ( 'NONE', #166, #179, #347, .T. ) ;
#187 = DIRECTION ( 'NONE',  ( 1.000000000000000000, 0.000000000000000000, 0.000000000000000000 ) ) ;
#188 = ORIENTED_EDGE ( 'NONE', *, *, #124, .F. ) ;
#189 = TOROIDAL_SURFACE ( 'NONE', #373, 8.699999999999999289, 0.6999999999999999556 ) ;
#190 = VERTEX_POINT ( 'NONE', #353 ) ;
#191 = ORIENTED_EDGE ( 'NONE', *, *, #35, .T. ) ;
#192 = CLOSED_SHELL ( 'NONE', ( #140, #268, #184, #212, #302, #203, #70, #118, #229, #357, #288 ) ) ;
#193 = AXIS2_PLACEMENT_3D ( 'NONE', #245, #96, #326 ) ;
#194 = APPROVAL_DATE_TIME ( #338, #158 ) ;
#195 = ORIENTED_EDGE ( 'NONE', *, *, #256, .F. ) ;
#196 = APPROVAL_ROLE ( '' ) ;
#197 = ORIENTED_EDGE ( 'NONE', *, *, #336, .T. ) ;
#198 = CC_DESIGN_PERSON_AND_ORGANIZATION_ASSIGNMENT ( #29, #205, ( #18 ) ) ;
#199 = ORIENTED_EDGE ( 'NONE', *, *, #277, .T. ) ;
#200 = AXIS2_PLACEMENT_3D ( 'NONE', #269, #237, #352 ) ;
#201 = MANIFOLD_SOLID_BREP ( 'Odebrat vysunutím3', #192 ) ;
#202 = DIRECTION ( 'NONE',  ( 1.224646799147353207E-16, 1.000000000000000000, -0.000000000000000000 ) ) ;
#203 = ADVANCED_FACE ( 'NONE', ( #113, #94 ), #37, .T. ) ;
#204 = EDGE_LOOP ( 'NONE', ( #137, #83 ) ) ;
#205 = PERSON_AND_ORGANIZATION_ROLE ( 'classification_officer' ) ;
#206 = EDGE_CURVE ( 'NONE', #381, #20, #41, .T. ) ;
#207 = DIRECTION ( 'NONE',  ( 0.000000000000000000, 0.000000000000000000, 1.000000000000000000 ) ) ;
#208 = SHAPE_DEFINITION_REPRESENTATION ( #7, #106 ) ;
#209 = AXIS2_PLACEMENT_3D ( 'NONE', #42, #185, #304 ) ;
#210 = DIRECTION ( 'NONE',  ( -0.000000000000000000, -0.000000000000000000, -1.000000000000000000 ) ) ;
#211 = DIRECTION ( 'NONE',  ( -0.000000000000000000, -0.000000000000000000, -1.000000000000000000 ) ) ;
#212 = ADVANCED_FACE ( 'NONE', ( #181 ), #213, .T. ) ;
#213 = CYLINDRICAL_SURFACE ( 'NONE', #116, 11.00000000000000000 ) ;
#214 = CYLINDRICAL_SURFACE ( 'NONE', #358, 11.00000000000000000 ) ;
#215 = AXIS2_PLACEMENT_3D ( 'NONE', #154, #273, #81 ) ;
#216 = EDGE_CURVE ( 'NONE', #335, #365, #182, .T. ) ;
#217 = DIRECTION ( 'NONE',  ( 0.000000000000000000, 0.000000000000000000, 1.000000000000000000 ) ) ;
#218 = DIRECTION ( 'NONE',  ( 0.000000000000000000, 0.000000000000000000, -1.000000000000000000 ) ) ;
#219 = CARTESIAN_POINT ( 'NONE',  ( 0.000000000000000000, 0.000000000000000000, 7.000000000000000000 ) ) ;
#220 = CIRCLE ( 'NONE', #215, 11.00000000000000000 ) ;
#221 = VERTEX_POINT ( 'NONE', #125 ) ;
#222 = DIRECTION ( 'NONE',  ( 1.000000000000000000, 0.000000000000000000, 0.000000000000000000 ) ) ;
#223 = VERTEX_POINT ( 'NONE', #68 ) ;
#224 = EDGE_CURVE ( 'NONE', #335, #179, #40, .T. ) ;
#225 = CALENDAR_DATE ( 2022, 8, 7 ) ;
#226 = VERTEX_POINT ( 'NONE', #330 ) ;
#227 = CIRCLE ( 'NONE', #26, 8.000000000000000000 ) ;
#228 = APPROVAL_ROLE ( '' ) ;
#229 = ADVANCED_FACE ( 'NONE', ( #183, #100 ), #332, .T. ) ;
#230 = ORIENTED_EDGE ( 'NONE', *, *, #309, .T. ) ;
#231 = COORDINATED_UNIVERSAL_TIME_OFFSET ( 1, 0, .AHEAD. ) ;
#232 = ORIENTED_EDGE ( 'NONE', *, *, #264, .T. ) ;
#233 = DIRECTION ( 'NONE',  ( 1.000000000000000000, 0.000000000000000000, 0.000000000000000000 ) ) ;
#234 = CIRCLE ( 'NONE', #287, 8.699999999999999289 ) ;
#235 = DIRECTION ( 'NONE',  ( -0.000000000000000000, -0.000000000000000000, -1.000000000000000000 ) ) ;
#236 = DIRECTION ( 'NONE',  ( -1.000000000000000000, 0.000000000000000000, 0.000000000000000000 ) ) ;
#237 = DIRECTION ( 'NONE',  ( -0.000000000000000000, -0.000000000000000000, -1.000000000000000000 ) ) ;
#238 = APPROVAL_ROLE ( '' ) ;
#239 = CIRCLE ( 'NONE', #209, 11.00000000000000000 ) ;
#240 = DIRECTION ( 'NONE',  ( 1.000000000000000000, 0.000000000000000000, -0.000000000000000000 ) ) ;
#241 = LOCAL_TIME ( 16, 18, 6.000000000000000000, #107 ) ;
#242 = DIRECTION ( 'NONE',  ( 1.000000000000000000, 0.000000000000000000, 0.000000000000000000 ) ) ;
#243 = APPLICATION_CONTEXT ( 'configuration controlled 3d designs of mechanical parts and assemblies' ) ;
#244 = CARTESIAN_POINT ( 'NONE',  ( 0.000000000000000000, 0.000000000000000000, 607.0000000000000000 ) ) ;
#245 = CARTESIAN_POINT ( 'NONE',  ( 0.000000000000000000, 0.000000000000000000, 607.0000000000000000 ) ) ;
#246 = AXIS2_PLACEMENT_3D ( 'NONE', #115, #59, #240 ) ;
#247 = APPROVAL_PERSON_ORGANIZATION ( #345, #44, #238 ) ;
#248 = APPROVAL_PERSON_ORGANIZATION ( #364, #158, #228 ) ;
#249 = DIRECTION ( 'NONE',  ( -0.000000000000000000, -0.000000000000000000, -1.000000000000000000 ) ) ;
#250 = DIRECTION ( 'NONE',  ( 1.000000000000000000, 0.000000000000000000, 0.000000000000000000 ) ) ;
#251 = DATE_TIME_ROLE ( 'creation_date' ) ;
#252 = ORIENTED_EDGE ( 'NONE', *, *, #206, .F. ) ;
#253 = APPROVAL ( #367, 'NEURÈENÝ' ) ;
#254 = PERSON_AND_ORGANIZATION ( #147, #33 ) ;
#255 = EDGE_LOOP ( 'NONE', ( #80, #164 ) ) ;
#256 = EDGE_CURVE ( 'NONE', #286, #136, #227, .T. ) ;
#257 = DATE_AND_TIME ( #15, #294 ) ;
#258 = EDGE_LOOP ( 'NONE', ( #168, #188 ) ) ;
#259 = EDGE_CURVE ( 'NONE', #136, #286, #378, .T. ) ;
#260 = ORIENTED_EDGE ( 'NONE', *, *, #50, .F. ) ;
#261 = AXIS2_PLACEMENT_3D ( 'NONE', #244, #123, #356 ) ;
#262 = ORIENTED_EDGE ( 'NONE', *, *, #62, .T. ) ;
#263 = CARTESIAN_POINT ( 'NONE',  ( 0.000000000000000000, 0.000000000000000000, 607.0000000000000000 ) ) ;
#264 = EDGE_CURVE ( 'NONE', #365, #166, #98, .T. ) ;
#265 = DATE_TIME_ROLE ( 'classification_date' ) ;
#266 = DIRECTION ( 'NONE',  ( -1.000000000000000000, 0.000000000000000000, 0.000000000000000000 ) ) ;
#267 = CARTESIAN_POINT ( 'NONE',  ( 0.000000000000000000, 0.000000000000000000, 0.000000000000000000 ) ) ;
#268 = ADVANCED_FACE ( 'NONE', ( #297 ), #189, .F. ) ;
#269 = CARTESIAN_POINT ( 'NONE',  ( 0.000000000000000000, 0.000000000000000000, 607.0000000000000000 ) ) ;
#270 = CARTESIAN_POINT ( 'NONE',  ( 8.699999999999999289, 0.000000000000000000, 7.700000000000040146 ) ) ;
#271 = CIRCLE ( 'NONE', #151, 8.000000000000000000 ) ;
#272 = DIRECTION ( 'NONE',  ( -0.000000000000000000, -0.000000000000000000, -1.000000000000000000 ) ) ;
#273 = DIRECTION ( 'NONE',  ( 0.000000000000000000, 0.000000000000000000, 1.000000000000000000 ) ) ;
#274 = DIRECTION ( 'NONE',  ( -0.000000000000000000, -0.000000000000000000, -1.000000000000000000 ) ) ;
#275 = AXIS2_PLACEMENT_3D ( 'NONE', #71, #129, #159 ) ;
#276 = DIRECTION ( 'NONE',  ( 0.000000000000000000, 0.000000000000000000, 1.000000000000000000 ) ) ;
#277 = EDGE_CURVE ( 'NONE', #179, #166, #239, .T. ) ;
#278 = CALENDAR_DATE ( 2022, 8, 7 ) ;
#279 = ORIENTED_EDGE ( 'NONE', *, *, #277, .F. ) ;
#280 = AXIS2_PLACEMENT_3D ( 'NONE', #299, #331, #152 ) ;
#281 = APPROVAL_DATE_TIME ( #371, #253 ) ;
#282 = ORIENTED_EDGE ( 'NONE', *, *, #10, .T. ) ;
#283 = FACE_OUTER_BOUND ( 'NONE', #111, .T. ) ;
#284 = ORIENTED_EDGE ( 'NONE', *, *, #72, .F. ) ;
#285 = DIRECTION ( 'NONE',  ( 0.000000000000000000, 0.000000000000000000, 1.000000000000000000 ) ) ;
#286 = VERTEX_POINT ( 'NONE', #4 ) ;
#287 = AXIS2_PLACEMENT_3D ( 'NONE', #39, #274, #242 ) ;
#288 = ADVANCED_FACE ( 'NONE', ( #69 ), #363, .F. ) ;
#289 = ORIENTED_EDGE ( 'NONE', *, *, #8, .F. ) ;
#290 = CARTESIAN_POINT ( 'NONE',  ( -8.000000000000000000, 0.000000000000000000, 607.0000000000000000 ) ) ;
#291 = PERSON_AND_ORGANIZATION_ROLE ( 'design_supplier' ) ;
#292 = DIRECTION ( 'NONE',  ( -1.000000000000000000, 1.224646799147353207E-16, 0.000000000000000000 ) ) ;
#293 = EDGE_CURVE ( 'NONE', #223, #108, #234, .T. ) ;
#294 = LOCAL_TIME ( 16, 18, 6.000000000000000000, #231 ) ;
#295 = FACE_OUTER_BOUND ( 'NONE', #25, .T. ) ;
#296 = ORIENTED_EDGE ( 'NONE', *, *, #325, .T. ) ;
#297 = FACE_OUTER_BOUND ( 'NONE', #17, .T. ) ;
#298 = AXIS2_PLACEMENT_3D ( 'NONE', #263, #58, #323 ) ;
#299 = CARTESIAN_POINT ( 'NONE',  ( 0.000000000000000000, 0.000000000000000000, 7.000000000000000000 ) ) ;
#300 = CC_DESIGN_SECURITY_CLASSIFICATION ( #18, ( #127 ) ) ;
#301 = CARTESIAN_POINT ( 'NONE',  ( -6.000000000000000888, 0.000000000000000000, 607.0000000000000000 ) ) ;
#302 = ADVANCED_FACE ( 'NONE', ( #95 ), #214, .T. ) ;
#303 = DIRECTION ( 'NONE',  ( -0.000000000000000000, -0.000000000000000000, -1.000000000000000000 ) ) ;
#304 = DIRECTION ( 'NONE',  ( 1.000000000000000000, 0.000000000000000000, 0.000000000000000000 ) ) ;
#305 = AXIS2_PLACEMENT_3D ( 'NONE', #362, #9, #126 ) ;
#306 = EDGE_LOOP ( 'NONE', ( #370, #368, #46, #262 ) ) ;
#307 = ORIENTED_EDGE ( 'NONE', *, *, #35, .F. ) ;
#308 = CARTESIAN_POINT ( 'NONE',  ( 0.000000000000000000, 0.000000000000000000, 7.700000000000040146 ) ) ;
#309 = EDGE_CURVE ( 'NONE', #108, #223, #122, .T. ) ;
#310 = ORIENTED_EDGE ( 'NONE', *, *, #8, .T. ) ;
#311 =( NAMED_UNIT ( * ) PLANE_ANGLE_UNIT ( ) SI_UNIT ( $, .RADIAN. ) );
#312 = VERTEX_POINT ( 'NONE', #328 ) ;
#313 = APPROVAL_STATUS ( 'not_yet_approved' ) ;
#314 = ORIENTED_EDGE ( 'NONE', *, *, #10, .F. ) ;
#315 = ORIENTED_EDGE ( 'NONE', *, *, #186, .F. ) ;
#316 = PRODUCT_DEFINITION ( 'NEZNÁMÝ', '', #127, #76 ) ;
#317 = CARTESIAN_POINT ( 'NONE',  ( 0.000000000000000000, 0.000000000000000000, 607.0000000000000000 ) ) ;
#318 = EDGE_CURVE ( 'NONE', #365, #335, #220, .T. ) ;
#319 = CARTESIAN_POINT ( 'NONE',  ( -8.699999999999999289, 1.065442715258197248E-15, 7.700000000000040146 ) ) ;
#320 = DATE_AND_TIME ( #349, #361 ) ;
#321 = FACE_OUTER_BOUND ( 'NONE', #112, .T. ) ;
#322 = AXIS2_PLACEMENT_3D ( 'NONE', #270, #174, #2 ) ;
#323 = DIRECTION ( 'NONE',  ( 1.000000000000000000, 0.000000000000000000, 0.000000000000000000 ) ) ;
#324 = DIRECTION ( 'NONE',  ( 0.000000000000000000, 0.000000000000000000, 1.000000000000000000 ) ) ;
#325 = EDGE_CURVE ( 'NONE', #226, #221, #343, .T. ) ;
#326 = DIRECTION ( 'NONE',  ( 1.000000000000000000, 0.000000000000000000, -0.000000000000000000 ) ) ;
#327 = AXIS2_PLACEMENT_3D ( 'NONE', #319, #202, #292 ) ;
#328 = CARTESIAN_POINT ( 'NONE',  ( 8.000000000000000000, 9.797174393178825657E-16, 7.700000000000040146 ) ) ;
#329 = AXIS2_PLACEMENT_3D ( 'NONE', #130, #43, #222 ) ;
#330 = CARTESIAN_POINT ( 'NONE',  ( 6.000000000000000888, 7.347880794884120722E-16, 607.0000000000000000 ) ) ;
#331 = DIRECTION ( 'NONE',  ( -0.000000000000000000, -0.000000000000000000, -1.000000000000000000 ) ) ;
#332 = PLANE ( 'NONE',  #193 ) ;
#333 = AXIS2_PLACEMENT_3D ( 'NONE', #317, #324, #34 ) ;
#334 = CARTESIAN_POINT ( 'NONE',  ( -6.000000000000000888, 0.000000000000000000, 607.0000000000000000 ) ) ;
#335 = VERTEX_POINT ( 'NONE', #24 ) ;
#336 = EDGE_CURVE ( 'NONE', #190, #312, #271, .T. ) ;
#337 = ORIENTED_EDGE ( 'NONE', *, *, #318, .F. ) ;
#338 = DATE_AND_TIME ( #225, #241 ) ;
#339 = ORIENTED_EDGE ( 'NONE', *, *, #21, .F. ) ;
#340 = CIRCLE ( 'NONE', #67, 6.000000000000000888 ) ;
#341 = PERSON_AND_ORGANIZATION_ROLE ( 'design_owner' ) ;
#342 = ORIENTED_EDGE ( 'NONE', *, *, #259, .F. ) ;
#343 = LINE ( 'NONE', #369, #57 ) ;
#344 = EDGE_LOOP ( 'NONE', ( #161, #230 ) ) ;
#345 = PERSON_AND_ORGANIZATION ( #147, #33 ) ;
#346 = CARTESIAN_POINT ( 'NONE',  ( -8.699999999999999289, 1.065442715258197248E-15, 7.000000000000020428 ) ) ;
#347 = CIRCLE ( 'NONE', #175, 11.00000000000000000 ) ;
#348 = CARTESIAN_POINT ( 'NONE',  ( -8.000000000000000000, 0.000000000000000000, 607.0000000000000000 ) ) ;
#349 = CALENDAR_DATE ( 2022, 8, 7 ) ;
#350 = CARTESIAN_POINT ( 'NONE',  ( 0.000000000000000000, 0.000000000000000000, 7.700000000000040146 ) ) ;
#351 = COORDINATED_UNIVERSAL_TIME_OFFSET ( 1, 0, .AHEAD. ) ;
#352 = DIRECTION ( 'NONE',  ( -1.000000000000000000, 0.000000000000000000, 0.000000000000000000 ) ) ;
#353 = CARTESIAN_POINT ( 'NONE',  ( -8.000000000000000000, 0.000000000000000000, 7.700000000000040146 ) ) ;
#354 = CARTESIAN_POINT ( 'NONE',  ( 0.000000000000000000, 0.000000000000000000, 7.700000000000040146 ) ) ;
#355 = PRODUCT_RELATED_PRODUCT_CATEGORY ( 'detail', '', ( #99 ) ) ;
#356 = DIRECTION ( 'NONE',  ( -1.000000000000000000, 0.000000000000000000, 0.000000000000000000 ) ) ;
#357 = ADVANCED_FACE ( 'NONE', ( #283 ), #38, .F. ) ;
#358 = AXIS2_PLACEMENT_3D ( 'NONE', #13, #249, #66 ) ;
#359 = AXIS2_PLACEMENT_3D ( 'NONE', #89, #144, #266 ) ;
#360 = CARTESIAN_POINT ( 'NONE',  ( 0.000000000000000000, 0.000000000000000000, 607.0000000000000000 ) ) ;
#361 = LOCAL_TIME ( 16, 18, 6.000000000000000000, #351 ) ;
#362 = CARTESIAN_POINT ( 'NONE',  ( 0.000000000000000000, 0.000000000000000000, 7.000000000000000000 ) ) ;
#363 = CYLINDRICAL_SURFACE ( 'NONE', #261, 6.000000000000000888 ) ;
#364 = PERSON_AND_ORGANIZATION ( #147, #33 ) ;
#365 = VERTEX_POINT ( 'NONE', #110 ) ;
#366 =( GEOMETRIC_REPRESENTATION_CONTEXT ( 3 ) GLOBAL_UNCERTAINTY_ASSIGNED_CONTEXT ( ( #156 ) ) GLOBAL_UNIT_ASSIGNED_CONTEXT ( ( #79, #311, #51 ) ) REPRESENTATION_CONTEXT ( 'NONE', 'WORKASPACE' ) );
#367 = APPROVAL_STATUS ( 'not_yet_approved' ) ;
#368 = ORIENTED_EDGE ( 'NONE', *, *, #21, .T. ) ;
#369 = CARTESIAN_POINT ( 'NONE',  ( 6.000000000000000888, 7.347880794884120722E-16, 607.0000000000000000 ) ) ;
#370 = ORIENTED_EDGE ( 'NONE', *, *, #325, .F. ) ;
#371 = DATE_AND_TIME ( #278, #170 ) ;
#372 = ORIENTED_EDGE ( 'NONE', *, *, #293, .F. ) ;
#373 = AXIS2_PLACEMENT_3D ( 'NONE', #354, #217, #250 ) ;
#374 = APPLICATION_PROTOCOL_DEFINITION ( 'international standard', 'config_control_design', 1994, #149 ) ;
#375 = ORIENTED_EDGE ( 'NONE', *, *, #124, .T. ) ;
#376 = DIRECTION ( 'NONE',  ( 1.000000000000000000, 0.000000000000000000, 0.000000000000000000 ) ) ;
#377 = CARTESIAN_POINT ( 'NONE',  ( 0.000000000000000000, 0.000000000000000000, 0.000000000000000000 ) ) ;
#378 = CIRCLE ( 'NONE', #157, 8.000000000000000000 ) ;
#379 = CC_DESIGN_APPROVAL ( #44, ( #18 ) ) ;
#380 = CYLINDRICAL_SURFACE ( 'NONE', #92, 6.000000000000000888 ) ;
#381 = VERTEX_POINT ( 'NONE', #334 ) ;
ENDSEC;
END-ISO-10303-21;
