ISO-10303-21;
HEADER;
FILE_DESCRIPTION (( 'STEP AP203' ),
    '1' );
FILE_NAME ('f175.STEP',
    '2022-07-08T15:54:48',
    ( '' ),
    ( '' ),
    'SwSTEP 2.0',
    'SolidWorks 2019',
    '' );
FILE_SCHEMA (( 'CONFIG_CONTROL_DESIGN' ));
ENDSEC;

DATA;
#1 = APPROVAL_PERSON_ORGANIZATION ( #288, #246, #114 ) ;
#2 = VERTEX_POINT ( 'NONE', #217 ) ;
#3 = CIRCLE ( 'NONE', #231, 4.000000000000000000 ) ;
#4 = FACE_OUTER_BOUND ( 'NONE', #294, .T. ) ;
#5 = CIRCLE ( 'NONE', #309, 2.000000000000000000 ) ;
#6 = EDGE_LOOP ( 'NONE', ( #39, #284, #325, #170 ) ) ;
#7 = CARTESIAN_POINT ( 'NONE',  ( 0.000000000000000000, 0.000000000000000000, 0.000000000000000000 ) ) ;
#8 = VERTEX_POINT ( 'NONE', #77 ) ;
#9 = APPROVAL_PERSON_ORGANIZATION ( #142, #276, #253 ) ;
#10 = EDGE_CURVE ( 'NONE', #55, #268, #188, .T. ) ;
#11 = CARTESIAN_POINT ( 'NONE',  ( 0.000000000000000000, 0.000000000000000000, 3.299999999999997158 ) ) ;
#12 = ORIENTED_EDGE ( 'NONE', *, *, #302, .F. ) ;
#13 = LINE ( 'NONE', #305, #264 ) ;
#14 = ORIENTED_EDGE ( 'NONE', *, *, #371, .F. ) ;
#15 = EDGE_LOOP ( 'NONE', ( #97, #116, #356, #12 ) ) ;
#16 = AXIS2_PLACEMENT_3D ( 'NONE', #303, #252, #280 ) ;
#17 = CC_DESIGN_APPROVAL ( #32, ( #104 ) ) ;
#18 = CARTESIAN_POINT ( 'NONE',  ( 2.000000000000000000, 2.449293598294706414E-16, 203.0000000000000000 ) ) ;
#19 = CARTESIAN_POINT ( 'NONE',  ( -2.299999999999999822, 2.816687638038912056E-16, 3.299999999999997158 ) ) ;
#20 = CIRCLE ( 'NONE', #94, 4.000000000000000000 ) ;
#21 = ADVANCED_FACE ( 'NONE', ( #194, #46 ), #191, .T. ) ;
#22 = DIRECTION ( 'NONE',  ( -0.000000000000000000, -0.000000000000000000, -1.000000000000000000 ) ) ;
#23 = AXIS2_PLACEMENT_3D ( 'NONE', #47, #221, #333 ) ;
#24 = DIRECTION ( 'NONE',  ( 0.000000000000000000, 0.000000000000000000, -1.000000000000000000 ) ) ;
#25 = CALENDAR_DATE ( 2022, 8, 7 ) ;
#26 = LINE ( 'NONE', #141, #269 ) ;
#27 = ADVANCED_FACE ( 'NONE', ( #311 ), #50, .T. ) ;
#28 = DATE_AND_TIME ( #25, #136 ) ;
#29 = PERSON_AND_ORGANIZATION ( #227, #197 ) ;
#30 = CARTESIAN_POINT ( 'NONE',  ( 0.000000000000000000, 0.000000000000000000, 3.299999999999997158 ) ) ;
#31 = CARTESIAN_POINT ( 'NONE',  ( 0.000000000000000000, 0.000000000000000000, 3.299999999999997158 ) ) ;
#32 = APPROVAL ( #68, 'NEURÈENÝ' ) ;
#33 = CC_DESIGN_APPROVAL ( #246, ( #259 ) ) ;
#34 = VERTEX_POINT ( 'NONE', #160 ) ;
#35 = DIRECTION ( 'NONE',  ( 1.000000000000000000, 0.000000000000000000, 0.000000000000000000 ) ) ;
#36 = VERTEX_POINT ( 'NONE', #248 ) ;
#37 = ORIENTED_EDGE ( 'NONE', *, *, #10, .F. ) ;
#38 = DIRECTION ( 'NONE',  ( 1.000000000000000000, 0.000000000000000000, 0.000000000000000000 ) ) ;
#39 = ORIENTED_EDGE ( 'NONE', *, *, #212, .F. ) ;
#40 = LOCAL_TIME ( 17, 54, 48.00000000000000000, #82 ) ;
#41 = FACE_BOUND ( 'NONE', #178, .T. ) ;
#42 = ORIENTED_EDGE ( 'NONE', *, *, #95, .T. ) ;
#43 = PRODUCT ( 'f175', 'f175', '', ( #331 ) ) ;
#44 = DIRECTION ( 'NONE',  ( 0.000000000000000000, 0.000000000000000000, -1.000000000000000000 ) ) ;
#45 =( GEOMETRIC_REPRESENTATION_CONTEXT ( 3 ) GLOBAL_UNCERTAINTY_ASSIGNED_CONTEXT ( ( #87 ) ) GLOBAL_UNIT_ASSIGNED_CONTEXT ( ( #102, #307, #71 ) ) REPRESENTATION_CONTEXT ( 'NONE', 'WORKASPACE' ) );
#46 = FACE_OUTER_BOUND ( 'NONE', #321, .T. ) ;
#47 = CARTESIAN_POINT ( 'NONE',  ( 0.000000000000000000, 0.000000000000000000, 203.0000000000000000 ) ) ;
#48 = AXIS2_PLACEMENT_3D ( 'NONE', #56, #313, #176 ) ;
#49 = APPLICATION_PROTOCOL_DEFINITION ( 'international standard', 'config_control_design', 1994, #266 ) ;
#50 = CYLINDRICAL_SURFACE ( 'NONE', #283, 4.000000000000000000 ) ;
#51 = AXIS2_PLACEMENT_3D ( 'NONE', #159, #278, #156 ) ;
#52 = FACE_OUTER_BOUND ( 'NONE', #243, .T. ) ;
#53 = PERSON_AND_ORGANIZATION_ROLE ( 'design_supplier' ) ;
#54 = DIRECTION ( 'NONE',  ( 1.000000000000000000, 0.000000000000000000, 0.000000000000000000 ) ) ;
#55 = VERTEX_POINT ( 'NONE', #223 ) ;
#56 = CARTESIAN_POINT ( 'NONE',  ( 0.000000000000000000, 0.000000000000000000, 203.0000000000000000 ) ) ;
#57 = DIRECTION ( 'NONE',  ( -1.000000000000000000, 0.000000000000000000, 0.000000000000000000 ) ) ;
#58 = DIRECTION ( 'NONE',  ( 0.000000000000000000, -1.000000000000000000, 0.000000000000000000 ) ) ;
#59 = ORIENTED_EDGE ( 'NONE', *, *, #376, .T. ) ;
#60 = DIRECTION ( 'NONE',  ( 1.000000000000000000, 0.000000000000000000, 0.000000000000000000 ) ) ;
#61 = ORIENTED_EDGE ( 'NONE', *, *, #238, .F. ) ;
#62 = ORIENTED_EDGE ( 'NONE', *, *, #218, .F. ) ;
#63 = DIRECTION ( 'NONE',  ( -0.000000000000000000, -0.000000000000000000, -1.000000000000000000 ) ) ;
#64 = EDGE_LOOP ( 'NONE', ( #364, #151 ) ) ;
#65 = AXIS2_PLACEMENT_3D ( 'NONE', #213, #366, #363 ) ;
#66 = DIRECTION ( 'NONE',  ( -1.000000000000000000, 0.000000000000000000, 0.000000000000000000 ) ) ;
#67 = LOCAL_TIME ( 17, 54, 48.00000000000000000, #138 ) ;
#68 = APPROVAL_STATUS ( 'not_yet_approved' ) ;
#69 = CARTESIAN_POINT ( 'NONE',  ( -2.000000000000000000, 0.000000000000000000, 203.0000000000000000 ) ) ;
#70 = LOCAL_TIME ( 17, 54, 48.00000000000000000, #198 ) ;
#71 =( NAMED_UNIT ( * ) SI_UNIT ( $, .STERADIAN. ) SOLID_ANGLE_UNIT ( ) );
#72 = CIRCLE ( 'NONE', #122, 2.000000000000000000 ) ;
#73 = DESIGN_CONTEXT ( 'detailed design', #266, 'design' ) ;
#74 = LINE ( 'NONE', #18, #161 ) ;
#75 = EDGE_CURVE ( 'NONE', #267, #36, #74, .T. ) ;
#76 = APPLICATION_PROTOCOL_DEFINITION ( 'international standard', 'config_control_design', 1994, #304 ) ;
#77 = CARTESIAN_POINT ( 'NONE',  ( -1.000000000000000000, 0.000000000000000000, 203.0000000000000000 ) ) ;
#78 = CARTESIAN_POINT ( 'NONE',  ( 0.000000000000000000, 0.000000000000000000, 3.000000000000000000 ) ) ;
#79 = CC_DESIGN_PERSON_AND_ORGANIZATION_ASSIGNMENT ( #29, #312, ( #259 ) ) ;
#80 = CALENDAR_DATE ( 2022, 8, 7 ) ;
#81 = FACE_OUTER_BOUND ( 'NONE', #152, .T. ) ;
#82 = COORDINATED_UNIVERSAL_TIME_OFFSET ( 1, 0, .AHEAD. ) ;
#83 = VERTEX_POINT ( 'NONE', #192 ) ;
#84 = AXIS2_PLACEMENT_3D ( 'NONE', #298, #241, #66 ) ;
#85 = DATE_AND_TIME ( #206, #88 ) ;
#86 = ORIENTED_EDGE ( 'NONE', *, *, #352, .F. ) ;
#87 = UNCERTAINTY_MEASURE_WITH_UNIT (LENGTH_MEASURE( 1.000000000000000082E-05 ), #102, 'distance_accuracy_value', 'NONE');
#88 = LOCAL_TIME ( 17, 54, 48.00000000000000000, #111 ) ;
#89 = CARTESIAN_POINT ( 'NONE',  ( 0.000000000000000000, 0.000000000000000000, 0.000000000000000000 ) ) ;
#90 = ADVANCED_FACE ( 'NONE', ( #190, #370 ), #308, .F. ) ;
#91 = ORIENTED_EDGE ( 'NONE', *, *, #306, .T. ) ;
#92 = DIRECTION ( 'NONE',  ( 0.000000000000000000, 0.000000000000000000, -1.000000000000000000 ) ) ;
#93 = ORIENTED_EDGE ( 'NONE', *, *, #306, .F. ) ;
#94 = AXIS2_PLACEMENT_3D ( 'NONE', #7, #209, #35 ) ;
#95 = EDGE_CURVE ( 'NONE', #2, #274, #239, .T. ) ;
#96 = CARTESIAN_POINT ( 'NONE',  ( 0.000000000000000000, 0.000000000000000000, 203.0000000000000000 ) ) ;
#97 = ORIENTED_EDGE ( 'NONE', *, *, #250, .F. ) ;
#98 = DIRECTION ( 'NONE',  ( 1.000000000000000000, 0.000000000000000000, 0.000000000000000000 ) ) ;
#99 = AXIS2_PLACEMENT_3D ( 'NONE', #135, #22, #137 ) ;
#100 = DIRECTION ( 'NONE',  ( 0.000000000000000000, 0.000000000000000000, 1.000000000000000000 ) ) ;
#101 = VERTEX_POINT ( 'NONE', #69 ) ;
#102 =( LENGTH_UNIT ( ) NAMED_UNIT ( * ) SI_UNIT ( .MILLI., .METRE. ) );
#103 = APPROVAL_PERSON_ORGANIZATION ( #275, #32, #165 ) ;
#104 = PRODUCT_DEFINITION ( 'NEZNÁMÝ', '', #259, #73 ) ;
#105 = DIRECTION ( 'NONE',  ( -1.000000000000000000, 0.000000000000000000, 0.000000000000000000 ) ) ;
#106 = CIRCLE ( 'NONE', #147, 0.2999999999999999334 ) ;
#107 = CC_DESIGN_DATE_AND_TIME_ASSIGNMENT ( #230, #174, ( #104 ) ) ;
#108 = ORIENTED_EDGE ( 'NONE', *, *, #318, .F. ) ;
#109 = CYLINDRICAL_SURFACE ( 'NONE', #145, 4.000000000000000000 ) ;
#110 = ADVANCED_FACE ( 'NONE', ( #189 ), #118, .F. ) ;
#111 = COORDINATED_UNIVERSAL_TIME_OFFSET ( 1, 0, .AHEAD. ) ;
#112 = FACE_OUTER_BOUND ( 'NONE', #215, .T. ) ;
#113 = CLOSED_SHELL ( 'NONE', ( #158, #110, #226, #27, #129, #293, #90, #144, #21, #150, #164 ) ) ;
#114 = APPROVAL_ROLE ( '' ) ;
#115 = DIRECTION ( 'NONE',  ( 0.000000000000000000, 0.000000000000000000, 1.000000000000000000 ) ) ;
#116 = ORIENTED_EDGE ( 'NONE', *, *, #212, .T. ) ;
#117 = AXIS2_PLACEMENT_3D ( 'NONE', #125, #358, #326 ) ;
#118 = TOROIDAL_SURFACE ( 'NONE', #332, 2.299999999999999822, 0.2999999999999999889 ) ;
#119 = DIRECTION ( 'NONE',  ( 1.000000000000000000, 0.000000000000000000, 0.000000000000000000 ) ) ;
#120 = ORIENTED_EDGE ( 'NONE', *, *, #371, .T. ) ;
#121 = EDGE_CURVE ( 'NONE', #140, #365, #3, .T. ) ;
#122 = AXIS2_PLACEMENT_3D ( 'NONE', #172, #115, #54 ) ;
#123 = CARTESIAN_POINT ( 'NONE',  ( 2.000000000000000000, 2.449293598294706414E-16, 203.0000000000000000 ) ) ;
#124 = ORIENTED_EDGE ( 'NONE', *, *, #95, .F. ) ;
#125 = CARTESIAN_POINT ( 'NONE',  ( 0.000000000000000000, 0.000000000000000000, 3.000000000000000000 ) ) ;
#126 = ADVANCED_BREP_SHAPE_REPRESENTATION ( 'f175', ( #203, #258 ), #45 ) ;
#127 = DIRECTION ( 'NONE',  ( 0.000000000000000000, 0.000000000000000000, 1.000000000000000000 ) ) ;
#128 = ORIENTED_EDGE ( 'NONE', *, *, #229, .F. ) ;
#129 = ADVANCED_FACE ( 'NONE', ( #146 ), #109, .T. ) ;
#130 = ORIENTED_EDGE ( 'NONE', *, *, #376, .F. ) ;
#131 = EDGE_LOOP ( 'NONE', ( #108, #291 ) ) ;
#132 = DIRECTION ( 'NONE',  ( -1.000000000000000000, 1.224646799147353207E-16, 0.000000000000000000 ) ) ;
#133 = CIRCLE ( 'NONE', #347, 4.000000000000000000 ) ;
#134 = VECTOR ( 'NONE', #92, 1000.000000000000000 ) ;
#135 = CARTESIAN_POINT ( 'NONE',  ( 0.000000000000000000, 0.000000000000000000, 0.000000000000000000 ) ) ;
#136 = LOCAL_TIME ( 17, 54, 48.00000000000000000, #369 ) ;
#137 = DIRECTION ( 'NONE',  ( 1.000000000000000000, 0.000000000000000000, 0.000000000000000000 ) ) ;
#138 = COORDINATED_UNIVERSAL_TIME_OFFSET ( 1, 0, .AHEAD. ) ;
#139 = DIRECTION ( 'NONE',  ( 0.000000000000000000, 0.000000000000000000, 1.000000000000000000 ) ) ;
#140 = VERTEX_POINT ( 'NONE', #199 ) ;
#141 = CARTESIAN_POINT ( 'NONE',  ( 4.000000000000000000, 4.898587196589412829E-16, 3.000000000000000000 ) ) ;
#142 = PERSON_AND_ORGANIZATION ( #227, #197 ) ;
#143 = FACE_OUTER_BOUND ( 'NONE', #327, .T. ) ;
#144 = ADVANCED_FACE ( 'NONE', ( #112 ), #235, .T. ) ;
#145 = AXIS2_PLACEMENT_3D ( 'NONE', #205, #285, #340 ) ;
#146 = FACE_OUTER_BOUND ( 'NONE', #6, .T. ) ;
#147 = AXIS2_PLACEMENT_3D ( 'NONE', #329, #58, #355 ) ;
#148 = AXIS2_PLACEMENT_3D ( 'NONE', #96, #273, #210 ) ;
#149 = CARTESIAN_POINT ( 'NONE',  ( -1.000000000000000000, 0.000000000000000000, 0.000000000000000000 ) ) ;
#150 = ADVANCED_FACE ( 'NONE', ( #143 ), #357, .F. ) ;
#151 = ORIENTED_EDGE ( 'NONE', *, *, #250, .T. ) ;
#152 = EDGE_LOOP ( 'NONE', ( #93, #59, #120, #184 ) ) ;
#153 = CARTESIAN_POINT ( 'NONE',  ( -4.000000000000000000, 0.000000000000000000, 3.000000000000000000 ) ) ;
#154 = EDGE_CURVE ( 'NONE', #175, #83, #362, .T. ) ;
#155 = ORIENTED_EDGE ( 'NONE', *, *, #289, .F. ) ;
#156 = DIRECTION ( 'NONE',  ( 1.000000000000000000, 0.000000000000000000, 0.000000000000000000 ) ) ;
#157 = CIRCLE ( 'NONE', #51, 1.000000000000000000 ) ;
#158 = ADVANCED_FACE ( 'NONE', ( #52 ), #166, .F. ) ;
#159 = CARTESIAN_POINT ( 'NONE',  ( 0.000000000000000000, 0.000000000000000000, 203.0000000000000000 ) ) ;
#160 = CARTESIAN_POINT ( 'NONE',  ( 1.000000000000000000, 1.224646799147352961E-16, 203.0000000000000000 ) ) ;
#161 = VECTOR ( 'NONE', #281, 1000.000000000000000 ) ;
#162 = DIRECTION ( 'NONE',  ( -0.000000000000000000, -0.000000000000000000, -1.000000000000000000 ) ) ;
#163 = CARTESIAN_POINT ( 'NONE',  ( 0.000000000000000000, 0.000000000000000000, 3.000000000000000000 ) ) ;
#164 = ADVANCED_FACE ( 'NONE', ( #81 ), #377, .F. ) ;
#165 = APPROVAL_ROLE ( '' ) ;
#166 = CYLINDRICAL_SURFACE ( 'NONE', #379, 1.000000000000000000 ) ;
#167 = AXIS2_PLACEMENT_3D ( 'NONE', #19, #277, #132 ) ;
#168 = PERSON_AND_ORGANIZATION_ROLE ( 'classification_officer' ) ;
#169 = DIRECTION ( 'NONE',  ( 0.000000000000000000, 0.000000000000000000, 1.000000000000000000 ) ) ;
#170 = ORIENTED_EDGE ( 'NONE', *, *, #318, .T. ) ;
#171 = SECURITY_CLASSIFICATION_LEVEL ( 'unclassified' ) ;
#172 = CARTESIAN_POINT ( 'NONE',  ( 0.000000000000000000, 0.000000000000000000, 203.0000000000000000 ) ) ;
#173 = CC_DESIGN_DATE_AND_TIME_ASSIGNMENT ( #28, #262, ( #179 ) ) ;
#174 = DATE_TIME_ROLE ( 'creation_date' ) ;
#175 = VERTEX_POINT ( 'NONE', #290 ) ;
#176 = DIRECTION ( 'NONE',  ( -1.000000000000000000, 0.000000000000000000, 0.000000000000000000 ) ) ;
#177 = CARTESIAN_POINT ( 'NONE',  ( 1.000000000000000000, 1.224646799147352961E-16, 203.0000000000000000 ) ) ;
#178 = EDGE_LOOP ( 'NONE', ( #187, #335 ) ) ;
#179 = SECURITY_CLASSIFICATION ( '', '', #171 ) ;
#180 = CARTESIAN_POINT ( 'NONE',  ( 0.000000000000000000, 0.000000000000000000, 203.0000000000000000 ) ) ;
#181 = ORIENTED_EDGE ( 'NONE', *, *, #75, .T. ) ;
#182 = CARTESIAN_POINT ( 'NONE',  ( 0.000000000000000000, 0.000000000000000000, 3.000000000000000000 ) ) ;
#183 = CARTESIAN_POINT ( 'NONE',  ( -2.299999999999999822, 2.816687638038912056E-16, 2.999999999999998668 ) ) ;
#184 = ORIENTED_EDGE ( 'NONE', *, *, #352, .T. ) ;
#185 = EDGE_CURVE ( 'NONE', #101, #267, #72, .T. ) ;
#186 = CIRCLE ( 'NONE', #117, 2.299999999999999822 ) ;
#187 = ORIENTED_EDGE ( 'NONE', *, *, #279, .T. ) ;
#188 = CIRCLE ( 'NONE', #167, 0.2999999999999999334 ) ;
#189 = FACE_OUTER_BOUND ( 'NONE', #299, .T. ) ;
#190 = FACE_BOUND ( 'NONE', #301, .T. ) ;
#191 = PLANE ( 'NONE',  #23 ) ;
#192 = CARTESIAN_POINT ( 'NONE',  ( -4.000000000000000000, 0.000000000000000000, 0.000000000000000000 ) ) ;
#193 = AXIS2_PLACEMENT_3D ( 'NONE', #381, #63, #119 ) ;
#194 = FACE_BOUND ( 'NONE', #360, .T. ) ;
#195 = CIRCLE ( 'NONE', #297, 1.000000000000000000 ) ;
#196 = EDGE_CURVE ( 'NONE', #55, #36, #5, .T. ) ;
#197 = ORGANIZATION ( 'NEURÈENÝ', 'NEURÈENÝ', '' ) ;
#198 = COORDINATED_UNIVERSAL_TIME_OFFSET ( 1, 0, .AHEAD. ) ;
#199 = CARTESIAN_POINT ( 'NONE',  ( -4.000000000000000000, 0.000000000000000000, 3.000000000000000000 ) ) ;
#200 = DATE_AND_TIME ( #80, #70 ) ;
#201 = CARTESIAN_POINT ( 'NONE',  ( 0.000000000000000000, 0.000000000000000000, 203.0000000000000000 ) ) ;
#202 = ORIENTED_EDGE ( 'NONE', *, *, #185, .F. ) ;
#203 = MANIFOLD_SOLID_BREP ( 'Odebrat vysunutím3', #113 ) ;
#204 = DATE_AND_TIME ( #260, #40 ) ;
#205 = CARTESIAN_POINT ( 'NONE',  ( 0.000000000000000000, 0.000000000000000000, 3.000000000000000000 ) ) ;
#206 = CALENDAR_DATE ( 2022, 8, 7 ) ;
#207 = DIRECTION ( 'NONE',  ( 0.000000000000000000, 0.000000000000000000, 1.000000000000000000 ) ) ;
#208 = PRODUCT_RELATED_PRODUCT_CATEGORY ( 'detail', '', ( #43 ) ) ;
#209 = DIRECTION ( 'NONE',  ( 0.000000000000000000, 0.000000000000000000, 1.000000000000000000 ) ) ;
#210 = DIRECTION ( 'NONE',  ( 1.000000000000000000, 0.000000000000000000, 0.000000000000000000 ) ) ;
#211 = DIRECTION ( 'NONE',  ( 0.000000000000000000, 0.000000000000000000, 1.000000000000000000 ) ) ;
#212 = EDGE_CURVE ( 'NONE', #365, #175, #26, .T. ) ;
#213 = CARTESIAN_POINT ( 'NONE',  ( 0.000000000000000000, 0.000000000000000000, 0.000000000000000000 ) ) ;
#214 = CIRCLE ( 'NONE', #148, 2.000000000000000000 ) ;
#215 = EDGE_LOOP ( 'NONE', ( #240, #202, #367, #375 ) ) ;
#216 = DIRECTION ( 'NONE',  ( 0.000000000000000000, 0.000000000000000000, 1.000000000000000000 ) ) ;
#217 = CARTESIAN_POINT ( 'NONE',  ( 1.000000000000000000, 1.224646799147352961E-16, 0.000000000000000000 ) ) ;
#218 = EDGE_CURVE ( 'NONE', #36, #55, #219, .T. ) ;
#219 = CIRCLE ( 'NONE', #315, 2.000000000000000000 ) ;
#220 = CARTESIAN_POINT ( 'NONE',  ( 0.000000000000000000, 0.000000000000000000, 0.000000000000000000 ) ) ;
#221 = DIRECTION ( 'NONE',  ( 0.000000000000000000, 0.000000000000000000, 1.000000000000000000 ) ) ;
#222 = DIRECTION ( 'NONE',  ( -0.000000000000000000, -0.000000000000000000, -1.000000000000000000 ) ) ;
#223 = CARTESIAN_POINT ( 'NONE',  ( -2.000000000000000000, 0.000000000000000000, 3.299999999999997158 ) ) ;
#224 = CARTESIAN_POINT ( 'NONE',  ( 4.000000000000000000, 4.898587196589412829E-16, 3.000000000000000000 ) ) ;
#225 = ORIENTED_EDGE ( 'NONE', *, *, #238, .T. ) ;
#226 = ADVANCED_FACE ( 'NONE', ( #4 ), #292, .T. ) ;
#227 = PERSON ( 'NEURÈENÝ', 'NEURÈENÝ', 'NEURÈENÝ', ('NEURÈENÝ'), ('NEURÈENÝ'), ('NEURÈENÝ') ) ;
#228 = APPROVAL_DATE_TIME ( #200, #32 ) ;
#229 = EDGE_CURVE ( 'NONE', #36, #368, #106, .T. ) ;
#230 = DATE_AND_TIME ( #254, #67 ) ;
#231 = AXIS2_PLACEMENT_3D ( 'NONE', #78, #374, #373 ) ;
#232 = DIRECTION ( 'NONE',  ( -0.000000000000000000, -0.000000000000000000, -1.000000000000000000 ) ) ;
#233 = ORIENTED_EDGE ( 'NONE', *, *, #185, .T. ) ;
#234 = PERSON_AND_ORGANIZATION ( #227, #197 ) ;
#235 = CYLINDRICAL_SURFACE ( 'NONE', #328, 2.000000000000000000 ) ;
#236 = CIRCLE ( 'NONE', #65, 1.000000000000000000 ) ;
#237 = DIRECTION ( 'NONE',  ( -0.000000000000000000, -0.000000000000000000, -1.000000000000000000 ) ) ;
#238 = EDGE_CURVE ( 'NONE', #8, #34, #195, .T. ) ;
#239 = CIRCLE ( 'NONE', #99, 1.000000000000000000 ) ;
#240 = ORIENTED_EDGE ( 'NONE', *, *, #75, .F. ) ;
#241 = DIRECTION ( 'NONE',  ( -0.000000000000000000, -0.000000000000000000, -1.000000000000000000 ) ) ;
#242 = CC_DESIGN_PERSON_AND_ORGANIZATION_ASSIGNMENT ( #247, #310, ( #43 ) ) ;
#243 = EDGE_LOOP ( 'NONE', ( #225, #91, #42, #14 ) ) ;
#244 = LINE ( 'NONE', #337, #322 ) ;
#245 = ORIENTED_EDGE ( 'NONE', *, *, #196, .F. ) ;
#246 = APPROVAL ( #372, 'NEURÈENÝ' ) ;
#247 = PERSON_AND_ORGANIZATION ( #227, #197 ) ;
#248 = CARTESIAN_POINT ( 'NONE',  ( 2.000000000000000000, 2.449293598294706414E-16, 3.299999999999997158 ) ) ;
#249 = AXIS2_PLACEMENT_3D ( 'NONE', #265, #127, #270 ) ;
#250 = EDGE_CURVE ( 'NONE', #365, #140, #133, .T. ) ;
#251 = DIRECTION ( 'NONE',  ( 1.000000000000000000, 0.000000000000000000, 0.000000000000000000 ) ) ;
#252 = DIRECTION ( 'NONE',  ( 0.000000000000000000, 0.000000000000000000, 1.000000000000000000 ) ) ;
#253 = APPROVAL_ROLE ( '' ) ;
#254 = CALENDAR_DATE ( 2022, 8, 7 ) ;
#255 = AXIS2_PLACEMENT_3D ( 'NONE', #30, #169, #320 ) ;
#256 = DIRECTION ( 'NONE',  ( 1.000000000000000000, 0.000000000000000000, 0.000000000000000000 ) ) ;
#257 = CC_DESIGN_PERSON_AND_ORGANIZATION_ASSIGNMENT ( #287, #168, ( #179 ) ) ;
#258 = AXIS2_PLACEMENT_3D ( 'NONE', #220, #216, #251 ) ;
#259 = PRODUCT_DEFINITION_FORMATION_WITH_SPECIFIED_SOURCE ( 'LIBOVOLNÝ', '', #43, .NOT_KNOWN. ) ;
#260 = CALENDAR_DATE ( 2022, 8, 7 ) ;
#261 = DIRECTION ( 'NONE',  ( 0.000000000000000000, 0.000000000000000000, 1.000000000000000000 ) ) ;
#262 = DATE_TIME_ROLE ( 'classification_date' ) ;
#263 = DIRECTION ( 'NONE',  ( 1.000000000000000000, 0.000000000000000000, 0.000000000000000000 ) ) ;
#264 = VECTOR ( 'NONE', #44, 1000.000000000000000 ) ;
#265 = CARTESIAN_POINT ( 'NONE',  ( 0.000000000000000000, 0.000000000000000000, 3.000000000000000000 ) ) ;
#266 = APPLICATION_CONTEXT ( 'configuration controlled 3d designs of mechanical parts and assemblies' ) ;
#267 = VERTEX_POINT ( 'NONE', #123 ) ;
#268 = VERTEX_POINT ( 'NONE', #183 ) ;
#269 = VECTOR ( 'NONE', #232, 1000.000000000000000 ) ;
#270 = DIRECTION ( 'NONE',  ( 1.000000000000000000, 0.000000000000000000, -0.000000000000000000 ) ) ;
#271 = VECTOR ( 'NONE', #237, 1000.000000000000000 ) ;
#272 = CC_DESIGN_APPROVAL ( #276, ( #179 ) ) ;
#273 = DIRECTION ( 'NONE',  ( 0.000000000000000000, 0.000000000000000000, 1.000000000000000000 ) ) ;
#274 = VERTEX_POINT ( 'NONE', #149 ) ;
#275 = PERSON_AND_ORGANIZATION ( #227, #197 ) ;
#276 = APPROVAL ( #343, 'NEURÈENÝ' ) ;
#277 = DIRECTION ( 'NONE',  ( 1.224646799147353207E-16, 1.000000000000000000, -0.000000000000000000 ) ) ;
#278 = DIRECTION ( 'NONE',  ( 0.000000000000000000, 0.000000000000000000, 1.000000000000000000 ) ) ;
#279 = EDGE_CURVE ( 'NONE', #368, #268, #361, .T. ) ;
#280 = DIRECTION ( 'NONE',  ( 1.000000000000000000, 0.000000000000000000, -0.000000000000000000 ) ) ;
#281 = DIRECTION ( 'NONE',  ( -0.000000000000000000, -0.000000000000000000, -1.000000000000000000 ) ) ;
#282 = PERSON_AND_ORGANIZATION_ROLE ( 'creator' ) ;
#283 = AXIS2_PLACEMENT_3D ( 'NONE', #163, #162, #105 ) ;
#284 = ORIENTED_EDGE ( 'NONE', *, *, #121, .F. ) ;
#285 = DIRECTION ( 'NONE',  ( -0.000000000000000000, -0.000000000000000000, -1.000000000000000000 ) ) ;
#286 = ORIENTED_EDGE ( 'NONE', *, *, #10, .T. ) ;
#287 = PERSON_AND_ORGANIZATION ( #227, #197 ) ;
#288 = PERSON_AND_ORGANIZATION ( #227, #197 ) ;
#289 = EDGE_CURVE ( 'NONE', #267, #101, #214, .T. ) ;
#290 = CARTESIAN_POINT ( 'NONE',  ( 4.000000000000000000, 4.898587196589412829E-16, 0.000000000000000000 ) ) ;
#291 = ORIENTED_EDGE ( 'NONE', *, *, #154, .F. ) ;
#292 = CYLINDRICAL_SURFACE ( 'NONE', #84, 2.000000000000000000 ) ;
#293 = ADVANCED_FACE ( 'NONE', ( #41, #324 ), #295, .T. ) ;
#294 = EDGE_LOOP ( 'NONE', ( #155, #181, #323, #296 ) ) ;
#295 = PLANE ( 'NONE',  #249 ) ;
#296 = ORIENTED_EDGE ( 'NONE', *, *, #359, .F. ) ;
#297 = AXIS2_PLACEMENT_3D ( 'NONE', #180, #100, #98 ) ;
#298 = CARTESIAN_POINT ( 'NONE',  ( 0.000000000000000000, 0.000000000000000000, 203.0000000000000000 ) ) ;
#299 = EDGE_LOOP ( 'NONE', ( #245, #286, #354, #128 ) ) ;
#300 = CC_DESIGN_SECURITY_CLASSIFICATION ( #179, ( #259 ) ) ;
#301 = EDGE_LOOP ( 'NONE', ( #86, #124 ) ) ;
#302 = EDGE_CURVE ( 'NONE', #140, #83, #353, .T. ) ;
#303 = CARTESIAN_POINT ( 'NONE',  ( 0.000000000000000000, 0.000000000000000000, 0.000000000000000000 ) ) ;
#304 = APPLICATION_CONTEXT ( 'configuration controlled 3d designs of mechanical parts and assemblies' ) ;
#305 = CARTESIAN_POINT ( 'NONE',  ( -1.000000000000000000, 0.000000000000000000, 203.0000000000000000 ) ) ;
#306 = EDGE_CURVE ( 'NONE', #34, #2, #351, .T. ) ;
#307 =( NAMED_UNIT ( * ) PLANE_ANGLE_UNIT ( ) SI_UNIT ( $, .RADIAN. ) );
#308 = PLANE ( 'NONE',  #16 ) ;
#309 = AXIS2_PLACEMENT_3D ( 'NONE', #31, #139, #256 ) ;
#310 = PERSON_AND_ORGANIZATION_ROLE ( 'design_owner' ) ;
#311 = FACE_OUTER_BOUND ( 'NONE', #15, .T. ) ;
#312 = PERSON_AND_ORGANIZATION_ROLE ( 'creator' ) ;
#313 = DIRECTION ( 'NONE',  ( 0.000000000000000000, 0.000000000000000000, -1.000000000000000000 ) ) ;
#314 = PERSON_AND_ORGANIZATION ( #227, #197 ) ;
#315 = AXIS2_PLACEMENT_3D ( 'NONE', #11, #207, #60 ) ;
#316 = DIRECTION ( 'NONE',  ( 1.000000000000000000, 0.000000000000000000, 0.000000000000000000 ) ) ;
#317 = DIRECTION ( 'NONE',  ( -0.000000000000000000, -0.000000000000000000, -1.000000000000000000 ) ) ;
#318 = EDGE_CURVE ( 'NONE', #83, #175, #20, .T. ) ;
#319 = SHAPE_DEFINITION_REPRESENTATION ( #350, #126 ) ;
#320 = DIRECTION ( 'NONE',  ( 1.000000000000000000, 0.000000000000000000, 0.000000000000000000 ) ) ;
#321 = EDGE_LOOP ( 'NONE', ( #233, #348 ) ) ;
#322 = VECTOR ( 'NONE', #222, 1000.000000000000000 ) ;
#323 = ORIENTED_EDGE ( 'NONE', *, *, #218, .T. ) ;
#324 = FACE_OUTER_BOUND ( 'NONE', #64, .T. ) ;
#325 = ORIENTED_EDGE ( 'NONE', *, *, #302, .T. ) ;
#326 = DIRECTION ( 'NONE',  ( 1.000000000000000000, 0.000000000000000000, 0.000000000000000000 ) ) ;
#327 = EDGE_LOOP ( 'NONE', ( #37, #62, #345, #330 ) ) ;
#328 = AXIS2_PLACEMENT_3D ( 'NONE', #349, #317, #57 ) ;
#329 = CARTESIAN_POINT ( 'NONE',  ( 2.299999999999999822, 0.000000000000000000, 3.299999999999997158 ) ) ;
#330 = ORIENTED_EDGE ( 'NONE', *, *, #346, .F. ) ;
#331 = MECHANICAL_CONTEXT ( 'NONE', #304, 'mechanical' ) ;
#332 = AXIS2_PLACEMENT_3D ( 'NONE', #380, #344, #263 ) ;
#333 = DIRECTION ( 'NONE',  ( 1.000000000000000000, 0.000000000000000000, -0.000000000000000000 ) ) ;
#334 = CC_DESIGN_PERSON_AND_ORGANIZATION_ASSIGNMENT ( #234, #282, ( #104 ) ) ;
#335 = ORIENTED_EDGE ( 'NONE', *, *, #346, .T. ) ;
#336 = CARTESIAN_POINT ( 'NONE',  ( 2.299999999999999822, 0.000000000000000000, 2.999999999999998668 ) ) ;
#337 = CARTESIAN_POINT ( 'NONE',  ( -2.000000000000000000, 0.000000000000000000, 203.0000000000000000 ) ) ;
#338 = AXIS2_PLACEMENT_3D ( 'NONE', #89, #261, #316 ) ;
#339 = APPROVAL_DATE_TIME ( #85, #246 ) ;
#340 = DIRECTION ( 'NONE',  ( -1.000000000000000000, 0.000000000000000000, 0.000000000000000000 ) ) ;
#341 = CC_DESIGN_PERSON_AND_ORGANIZATION_ASSIGNMENT ( #314, #53, ( #259 ) ) ;
#342 = DIRECTION ( 'NONE',  ( -1.000000000000000000, 0.000000000000000000, 0.000000000000000000 ) ) ;
#343 = APPROVAL_STATUS ( 'not_yet_approved' ) ;
#344 = DIRECTION ( 'NONE',  ( 0.000000000000000000, 0.000000000000000000, 1.000000000000000000 ) ) ;
#345 = ORIENTED_EDGE ( 'NONE', *, *, #229, .T. ) ;
#346 = EDGE_CURVE ( 'NONE', #268, #368, #186, .T. ) ;
#347 = AXIS2_PLACEMENT_3D ( 'NONE', #182, #211, #38 ) ;
#348 = ORIENTED_EDGE ( 'NONE', *, *, #289, .T. ) ;
#349 = CARTESIAN_POINT ( 'NONE',  ( 0.000000000000000000, 0.000000000000000000, 203.0000000000000000 ) ) ;
#350 = PRODUCT_DEFINITION_SHAPE ( 'NONE', 'NONE',  #104 ) ;
#351 = LINE ( 'NONE', #177, #134 ) ;
#352 = EDGE_CURVE ( 'NONE', #274, #2, #236, .T. ) ;
#353 = LINE ( 'NONE', #153, #271 ) ;
#354 = ORIENTED_EDGE ( 'NONE', *, *, #279, .F. ) ;
#355 = DIRECTION ( 'NONE',  ( 0.000000000000000000, 0.000000000000000000, -1.000000000000000000 ) ) ;
#356 = ORIENTED_EDGE ( 'NONE', *, *, #154, .T. ) ;
#357 = TOROIDAL_SURFACE ( 'NONE', #255, 2.299999999999999822, 0.2999999999999999889 ) ;
#358 = DIRECTION ( 'NONE',  ( -0.000000000000000000, -0.000000000000000000, -1.000000000000000000 ) ) ;
#359 = EDGE_CURVE ( 'NONE', #101, #55, #244, .T. ) ;
#360 = EDGE_LOOP ( 'NONE', ( #61, #130 ) ) ;
#361 = CIRCLE ( 'NONE', #193, 2.299999999999999822 ) ;
#362 = CIRCLE ( 'NONE', #338, 4.000000000000000000 ) ;
#363 = DIRECTION ( 'NONE',  ( 1.000000000000000000, 0.000000000000000000, 0.000000000000000000 ) ) ;
#364 = ORIENTED_EDGE ( 'NONE', *, *, #121, .T. ) ;
#365 = VERTEX_POINT ( 'NONE', #224 ) ;
#366 = DIRECTION ( 'NONE',  ( -0.000000000000000000, -0.000000000000000000, -1.000000000000000000 ) ) ;
#367 = ORIENTED_EDGE ( 'NONE', *, *, #359, .T. ) ;
#368 = VERTEX_POINT ( 'NONE', #336 ) ;
#369 = COORDINATED_UNIVERSAL_TIME_OFFSET ( 1, 0, .AHEAD. ) ;
#370 = FACE_OUTER_BOUND ( 'NONE', #131, .T. ) ;
#371 = EDGE_CURVE ( 'NONE', #8, #274, #13, .T. ) ;
#372 = APPROVAL_STATUS ( 'not_yet_approved' ) ;
#373 = DIRECTION ( 'NONE',  ( 1.000000000000000000, 0.000000000000000000, 0.000000000000000000 ) ) ;
#374 = DIRECTION ( 'NONE',  ( 0.000000000000000000, 0.000000000000000000, 1.000000000000000000 ) ) ;
#375 = ORIENTED_EDGE ( 'NONE', *, *, #196, .T. ) ;
#376 = EDGE_CURVE ( 'NONE', #34, #8, #157, .T. ) ;
#377 = CYLINDRICAL_SURFACE ( 'NONE', #48, 1.000000000000000000 ) ;
#378 = APPROVAL_DATE_TIME ( #204, #276 ) ;
#379 = AXIS2_PLACEMENT_3D ( 'NONE', #201, #24, #342 ) ;
#380 = CARTESIAN_POINT ( 'NONE',  ( 0.000000000000000000, 0.000000000000000000, 3.299999999999997158 ) ) ;
#381 = CARTESIAN_POINT ( 'NONE',  ( 0.000000000000000000, 0.000000000000000000, 3.000000000000000000 ) ) ;
ENDSEC;
END-ISO-10303-21;
