ISO-10303-21;
HEADER;
FILE_DESCRIPTION (( 'STEP AP203' ),
    '1' );
FILE_NAME ('32a9.STEP',
    '2022-07-08T15:33:23',
    ( '' ),
    ( '' ),
    'SwSTEP 2.0',
    'SolidWorks 2019',
    '' );
FILE_SCHEMA (( 'CONFIG_CONTROL_DESIGN' ));
ENDSEC;

DATA;
#1 = PERSON_AND_ORGANIZATION ( #231, #109 ) ;
#2 =( NAMED_UNIT ( * ) PLANE_ANGLE_UNIT ( ) SI_UNIT ( $, .RADIAN. ) );
#3 = ORIENTED_EDGE ( 'NONE', *, *, #229, .T. ) ;
#4 = EDGE_LOOP ( 'NONE', ( #153, #329, #242, #190 ) ) ;
#5 = CIRCLE ( 'NONE', #82, 3.000000000000000444 ) ;
#6 = PRODUCT_DEFINITION_SHAPE ( 'NONE', 'NONE',  #287 ) ;
#7 = CARTESIAN_POINT ( 'NONE',  ( 0.000000000000000000, 0.000000000000000000, 5.000000000000000000 ) ) ;
#8 = CIRCLE ( 'NONE', #55, 3.500000000000000444 ) ;
#9 = EDGE_LOOP ( 'NONE', ( #202, #361, #205, #13 ) ) ;
#10 = CARTESIAN_POINT ( 'NONE',  ( -3.000000000000000444, 0.000000000000000000, 805.0000000000000000 ) ) ;
#11 = ORIENTED_EDGE ( 'NONE', *, *, #36, .F. ) ;
#12 = DIRECTION ( 'NONE',  ( 0.000000000000000000, 0.000000000000000000, 1.000000000000000000 ) ) ;
#13 = ORIENTED_EDGE ( 'NONE', *, *, #270, .F. ) ;
#14 = CIRCLE ( 'NONE', #260, 2.000000000000000000 ) ;
#15 = CARTESIAN_POINT ( 'NONE',  ( 3.500000000000000444, 0.000000000000000000, 5.499999999999949374 ) ) ;
#16 = DIRECTION ( 'NONE',  ( 0.000000000000000000, 0.000000000000000000, -1.000000000000000000 ) ) ;
#17 = CARTESIAN_POINT ( 'NONE',  ( -2.000000000000000000, 0.000000000000000000, 0.000000000000000000 ) ) ;
#18 = DIRECTION ( 'NONE',  ( 1.000000000000000000, 0.000000000000000000, 0.000000000000000000 ) ) ;
#19 = LINE ( 'NONE', #43, #167 ) ;
#20 = CYLINDRICAL_SURFACE ( 'NONE', #215, 6.000000000000000888 ) ;
#21 = FACE_OUTER_BOUND ( 'NONE', #238, .T. ) ;
#22 = EDGE_CURVE ( 'NONE', #90, #243, #178, .T. ) ;
#23 = DIRECTION ( 'NONE',  ( -0.000000000000000000, -0.000000000000000000, -1.000000000000000000 ) ) ;
#24 = CARTESIAN_POINT ( 'NONE',  ( 0.000000000000000000, 0.000000000000000000, 805.0000000000000000 ) ) ;
#25 = PERSON_AND_ORGANIZATION ( #231, #109 ) ;
#26 = LOCAL_TIME ( 17, 33, 23.00000000000000000, #295 ) ;
#27 = COORDINATED_UNIVERSAL_TIME_OFFSET ( 1, 0, .AHEAD. ) ;
#28 = EDGE_LOOP ( 'NONE', ( #199, #131, #274, #61 ) ) ;
#29 = PERSON_AND_ORGANIZATION ( #231, #109 ) ;
#30 = LINE ( 'NONE', #223, #379 ) ;
#31 = ORIENTED_EDGE ( 'NONE', *, *, #175, .T. ) ;
#32 = DATE_AND_TIME ( #92, #68 ) ;
#33 = VECTOR ( 'NONE', #63, 1000.000000000000000 ) ;
#34 = CARTESIAN_POINT ( 'NONE',  ( 0.000000000000000000, 0.000000000000000000, 5.000000000000000000 ) ) ;
#35 = CC_DESIGN_APPROVAL ( #377, ( #216 ) ) ;
#36 = EDGE_CURVE ( 'NONE', #243, #90, #5, .T. ) ;
#37 = ORIENTED_EDGE ( 'NONE', *, *, #124, .F. ) ;
#38 = DIRECTION ( 'NONE',  ( 1.000000000000000000, 0.000000000000000000, 0.000000000000000000 ) ) ;
#39 = ORIENTED_EDGE ( 'NONE', *, *, #292, .F. ) ;
#40 = AXIS2_PLACEMENT_3D ( 'NONE', #259, #232, #78 ) ;
#41 = CIRCLE ( 'NONE', #158, 3.500000000000000444 ) ;
#42 = CARTESIAN_POINT ( 'NONE',  ( 0.000000000000000000, 0.000000000000000000, 805.0000000000000000 ) ) ;
#43 = CARTESIAN_POINT ( 'NONE',  ( -2.000000000000000000, 0.000000000000000000, 805.0000000000000000 ) ) ;
#44 = FACE_OUTER_BOUND ( 'NONE', #166, .T. ) ;
#45 = DIRECTION ( 'NONE',  ( 0.000000000000000000, 0.000000000000000000, 1.000000000000000000 ) ) ;
#46 = DIRECTION ( 'NONE',  ( 0.000000000000000000, 0.000000000000000000, 1.000000000000000000 ) ) ;
#47 = FACE_BOUND ( 'NONE', #339, .T. ) ;
#48 = DIRECTION ( 'NONE',  ( 0.000000000000000000, 0.000000000000000000, 1.000000000000000000 ) ) ;
#49 = EDGE_CURVE ( 'NONE', #184, #217, #297, .T. ) ;
#50 = TOROIDAL_SURFACE ( 'NONE', #87, 3.500000000000000444, 0.5000000000000000000 ) ;
#51 = CARTESIAN_POINT ( 'NONE',  ( 0.000000000000000000, 0.000000000000000000, 805.0000000000000000 ) ) ;
#52 = FACE_BOUND ( 'NONE', #340, .T. ) ;
#53 = ORIENTED_EDGE ( 'NONE', *, *, #292, .T. ) ;
#54 = EDGE_CURVE ( 'NONE', #184, #252, #133, .T. ) ;
#55 = AXIS2_PLACEMENT_3D ( 'NONE', #34, #160, #277 ) ;
#56 = APPLICATION_PROTOCOL_DEFINITION ( 'international standard', 'config_control_design', 1994, #79 ) ;
#57 = DIRECTION ( 'NONE',  ( 0.000000000000000000, 0.000000000000000000, 1.000000000000000000 ) ) ;
#58 = CC_DESIGN_PERSON_AND_ORGANIZATION_ASSIGNMENT ( #310, #152, ( #101 ) ) ;
#59 = APPROVAL_ROLE ( '' ) ;
#60 = APPROVAL_PERSON_ORGANIZATION ( #29, #377, #154 ) ;
#61 = ORIENTED_EDGE ( 'NONE', *, *, #111, .T. ) ;
#62 = APPROVAL_DATE_TIME ( #226, #368 ) ;
#63 = DIRECTION ( 'NONE',  ( -0.000000000000000000, -0.000000000000000000, -1.000000000000000000 ) ) ;
#64 = VERTEX_POINT ( 'NONE', #110 ) ;
#65 = EDGE_CURVE ( 'NONE', #128, #177, #14, .T. ) ;
#66 = CARTESIAN_POINT ( 'NONE',  ( 0.000000000000000000, 0.000000000000000000, 0.000000000000000000 ) ) ;
#67 = CYLINDRICAL_SURFACE ( 'NONE', #355, 3.000000000000000444 ) ;
#68 = LOCAL_TIME ( 17, 33, 23.00000000000000000, #27 ) ;
#69 = EDGE_LOOP ( 'NONE', ( #303, #363 ) ) ;
#70 = LINE ( 'NONE', #341, #33 ) ;
#71 = ORIENTED_EDGE ( 'NONE', *, *, #270, .T. ) ;
#72 = CARTESIAN_POINT ( 'NONE',  ( -3.000000000000000444, 0.000000000000000000, 5.499999999999949374 ) ) ;
#73 = ADVANCED_FACE ( 'NONE', ( #169 ), #227, .F. ) ;
#74 = PLANE ( 'NONE',  #116 ) ;
#75 = AXIS2_PLACEMENT_3D ( 'NONE', #306, #12, #136 ) ;
#76 = CARTESIAN_POINT ( 'NONE',  ( 0.000000000000000000, 0.000000000000000000, 0.000000000000000000 ) ) ;
#77 = FACE_BOUND ( 'NONE', #102, .T. ) ;
#78 = DIRECTION ( 'NONE',  ( -1.000000000000000000, 0.000000000000000000, 0.000000000000000000 ) ) ;
#79 = APPLICATION_CONTEXT ( 'configuration controlled 3d designs of mechanical parts and assemblies' ) ;
#80 = CARTESIAN_POINT ( 'NONE',  ( 2.000000000000000000, 2.449293598294706414E-16, 805.0000000000000000 ) ) ;
#81 = DIRECTION ( 'NONE',  ( -1.000000000000000000, 0.000000000000000000, 0.000000000000000000 ) ) ;
#82 = AXIS2_PLACEMENT_3D ( 'NONE', #42, #107, #348 ) ;
#83 = DIRECTION ( 'NONE',  ( 0.000000000000000000, 0.000000000000000000, 1.000000000000000000 ) ) ;
#84 = ORIENTED_EDGE ( 'NONE', *, *, #124, .T. ) ;
#85 = PERSON_AND_ORGANIZATION ( #231, #109 ) ;
#86 = CIRCLE ( 'NONE', #191, 0.5000000000000004441 ) ;
#87 = AXIS2_PLACEMENT_3D ( 'NONE', #262, #114, #237 ) ;
#88 = CARTESIAN_POINT ( 'NONE',  ( 0.000000000000000000, 0.000000000000000000, 0.000000000000000000 ) ) ;
#89 = EDGE_CURVE ( 'NONE', #380, #207, #305, .T. ) ;
#90 = VERTEX_POINT ( 'NONE', #285 ) ;
#91 = VECTOR ( 'NONE', #165, 1000.000000000000000 ) ;
#92 = CALENDAR_DATE ( 2022, 8, 7 ) ;
#93 = ORIENTED_EDGE ( 'NONE', *, *, #65, .F. ) ;
#94 = ADVANCED_FACE ( 'NONE', ( #44 ), #376, .T. ) ;
#95 = CARTESIAN_POINT ( 'NONE',  ( 0.000000000000000000, 0.000000000000000000, 5.000000000000000000 ) ) ;
#96 = ORIENTED_EDGE ( 'NONE', *, *, #89, .T. ) ;
#97 = DIRECTION ( 'NONE',  ( -0.000000000000000000, -0.000000000000000000, -1.000000000000000000 ) ) ;
#98 = APPLICATION_CONTEXT ( 'configuration controlled 3d designs of mechanical parts and assemblies' ) ;
#99 = ORIENTED_EDGE ( 'NONE', *, *, #239, .T. ) ;
#100 = CARTESIAN_POINT ( 'NONE',  ( 6.000000000000000888, 7.347880794884120722E-16, 5.000000000000000000 ) ) ;
#101 = PRODUCT_DEFINITION_FORMATION_WITH_SPECIFIED_SOURCE ( 'LIBOVOLNÝ', '', #123, .NOT_KNOWN. ) ;
#102 = EDGE_LOOP ( 'NONE', ( #369, #93 ) ) ;
#103 = CARTESIAN_POINT ( 'NONE',  ( 0.000000000000000000, 0.000000000000000000, 5.000000000000000000 ) ) ;
#104 = VERTEX_POINT ( 'NONE', #206 ) ;
#105 = DIRECTION ( 'NONE',  ( 1.000000000000000000, 0.000000000000000000, 0.000000000000000000 ) ) ;
#106 = ADVANCED_BREP_SHAPE_REPRESENTATION ( '32a9', ( #248, #327 ), #374 ) ;
#107 = DIRECTION ( 'NONE',  ( 0.000000000000000000, 0.000000000000000000, 1.000000000000000000 ) ) ;
#108 = DIRECTION ( 'NONE',  ( 1.000000000000000000, 0.000000000000000000, -0.000000000000000000 ) ) ;
#109 = ORGANIZATION ( 'NEURÈENÝ', 'NEURÈENÝ', '' ) ;
#110 = CARTESIAN_POINT ( 'NONE',  ( 3.500000000000000444, 0.000000000000000000, 4.999999999999975131 ) ) ;
#111 = EDGE_CURVE ( 'NONE', #207, #380, #378, .T. ) ;
#112 = DIRECTION ( 'NONE',  ( 0.000000000000000000, 0.000000000000000000, 1.000000000000000000 ) ) ;
#113 = DIRECTION ( 'NONE',  ( 1.000000000000000000, 0.000000000000000000, 0.000000000000000000 ) ) ;
#114 = DIRECTION ( 'NONE',  ( 0.000000000000000000, 0.000000000000000000, 1.000000000000000000 ) ) ;
#115 = CARTESIAN_POINT ( 'NONE',  ( -6.000000000000000888, 0.000000000000000000, 5.000000000000000000 ) ) ;
#116 = AXIS2_PLACEMENT_3D ( 'NONE', #318, #45, #108 ) ;
#117 = DIRECTION ( 'NONE',  ( 1.000000000000000000, 0.000000000000000000, 0.000000000000000000 ) ) ;
#118 = ADVANCED_FACE ( 'NONE', ( #286 ), #20, .T. ) ;
#119 = AXIS2_PLACEMENT_3D ( 'NONE', #7, #127, #38 ) ;
#120 = CC_DESIGN_PERSON_AND_ORGANIZATION_ASSIGNMENT ( #85, #182, ( #123 ) ) ;
#121 = APPROVAL_ROLE ( '' ) ;
#122 = ORIENTED_EDGE ( 'NONE', *, *, #185, .T. ) ;
#123 = PRODUCT ( '32a9', '32a9', '', ( #267 ) ) ;
#124 = EDGE_CURVE ( 'NONE', #243, #217, #168, .T. ) ;
#125 = ORIENTED_EDGE ( 'NONE', *, *, #111, .F. ) ;
#126 = CIRCLE ( 'NONE', #119, 6.000000000000000888 ) ;
#127 = DIRECTION ( 'NONE',  ( 0.000000000000000000, 0.000000000000000000, 1.000000000000000000 ) ) ;
#128 = VERTEX_POINT ( 'NONE', #334 ) ;
#129 = CALENDAR_DATE ( 2022, 8, 7 ) ;
#130 = CARTESIAN_POINT ( 'NONE',  ( 3.000000000000000444, 3.673940397442060361E-16, 805.0000000000000000 ) ) ;
#131 = ORIENTED_EDGE ( 'NONE', *, *, #185, .F. ) ;
#132 = CARTESIAN_POINT ( 'NONE',  ( 3.000000000000000444, 3.673940397442060361E-16, 5.499999999999949374 ) ) ;
#133 = CIRCLE ( 'NONE', #213, 0.4999999999999995559 ) ;
#134 = COORDINATED_UNIVERSAL_TIME_OFFSET ( 1, 0, .AHEAD. ) ;
#135 = CC_DESIGN_PERSON_AND_ORGANIZATION_ASSIGNMENT ( #25, #151, ( #287 ) ) ;
#136 = DIRECTION ( 'NONE',  ( 1.000000000000000000, 0.000000000000000000, 0.000000000000000000 ) ) ;
#137 = AXIS2_PLACEMENT_3D ( 'NONE', #66, #253, #189 ) ;
#138 = DIRECTION ( 'NONE',  ( 1.000000000000000000, 0.000000000000000000, 0.000000000000000000 ) ) ;
#139 = DIRECTION ( 'NONE',  ( -0.000000000000000000, -0.000000000000000000, -1.000000000000000000 ) ) ;
#140 = CARTESIAN_POINT ( 'NONE',  ( 0.000000000000000000, 0.000000000000000000, 805.0000000000000000 ) ) ;
#141 = DIRECTION ( 'NONE',  ( 0.000000000000000000, 0.000000000000000000, 1.000000000000000000 ) ) ;
#142 = PRODUCT_RELATED_PRODUCT_CATEGORY ( 'detail', '', ( #123 ) ) ;
#143 = DIRECTION ( 'NONE',  ( 0.000000000000000000, 0.000000000000000000, -1.000000000000000000 ) ) ;
#144 = TOROIDAL_SURFACE ( 'NONE', #75, 3.500000000000000444, 0.5000000000000000000 ) ;
#145 = ORIENTED_EDGE ( 'NONE', *, *, #171, .F. ) ;
#146 = CARTESIAN_POINT ( 'NONE',  ( 0.000000000000000000, 0.000000000000000000, 805.0000000000000000 ) ) ;
#147 = EDGE_CURVE ( 'NONE', #161, #380, #70, .T. ) ;
#148 = APPROVAL_STATUS ( 'not_yet_approved' ) ;
#149 =( LENGTH_UNIT ( ) NAMED_UNIT ( * ) SI_UNIT ( .MILLI., .METRE. ) );
#150 = CC_DESIGN_DATE_AND_TIME_ASSIGNMENT ( #269, #291, ( #287 ) ) ;
#151 = PERSON_AND_ORGANIZATION_ROLE ( 'creator' ) ;
#152 = PERSON_AND_ORGANIZATION_ROLE ( 'design_supplier' ) ;
#153 = ORIENTED_EDGE ( 'NONE', *, *, #54, .F. ) ;
#154 = APPROVAL_ROLE ( '' ) ;
#155 = DIRECTION ( 'NONE',  ( 0.000000000000000000, 0.000000000000000000, -1.000000000000000000 ) ) ;
#156 = ORIENTED_EDGE ( 'NONE', *, *, #239, .F. ) ;
#157 = VECTOR ( 'NONE', #139, 1000.000000000000000 ) ;
#158 = AXIS2_PLACEMENT_3D ( 'NONE', #235, #23, #350 ) ;
#159 = PERSON_AND_ORGANIZATION ( #231, #109 ) ;
#160 = DIRECTION ( 'NONE',  ( -0.000000000000000000, -0.000000000000000000, -1.000000000000000000 ) ) ;
#161 = VERTEX_POINT ( 'NONE', #100 ) ;
#162 = DIRECTION ( 'NONE',  ( 0.000000000000000000, 0.000000000000000000, 1.000000000000000000 ) ) ;
#163 = ORIENTED_EDGE ( 'NONE', *, *, #330, .T. ) ;
#164 = ADVANCED_FACE ( 'NONE', ( #359 ), #67, .T. ) ;
#165 = DIRECTION ( 'NONE',  ( -0.000000000000000000, -0.000000000000000000, -1.000000000000000000 ) ) ;
#166 = EDGE_LOOP ( 'NONE', ( #11, #84, #278, #156 ) ) ;
#167 = VECTOR ( 'NONE', #289, 1000.000000000000000 ) ;
#168 = LINE ( 'NONE', #220, #157 ) ;
#169 = FACE_OUTER_BOUND ( 'NONE', #9, .T. ) ;
#170 = DIRECTION ( 'NONE',  ( -0.000000000000000000, -0.000000000000000000, -1.000000000000000000 ) ) ;
#171 = EDGE_CURVE ( 'NONE', #217, #64, #86, .T. ) ;
#172 = DIRECTION ( 'NONE',  ( 0.000000000000000000, 0.000000000000000000, 1.000000000000000000 ) ) ;
#173 = CARTESIAN_POINT ( 'NONE',  ( 0.000000000000000000, 0.000000000000000000, 0.000000000000000000 ) ) ;
#174 = FACE_OUTER_BOUND ( 'NONE', #4, .T. ) ;
#175 = EDGE_CURVE ( 'NONE', #177, #128, #180, .T. ) ;
#176 = DIRECTION ( 'NONE',  ( 0.000000000000000000, 0.000000000000000000, 1.000000000000000000 ) ) ;
#177 = VERTEX_POINT ( 'NONE', #17 ) ;
#178 = CIRCLE ( 'NONE', #251, 3.000000000000000444 ) ;
#179 = APPROVAL_DATE_TIME ( #300, #222 ) ;
#180 = CIRCLE ( 'NONE', #137, 2.000000000000000000 ) ;
#181 = EDGE_CURVE ( 'NONE', #288, #128, #30, .T. ) ;
#182 = PERSON_AND_ORGANIZATION_ROLE ( 'design_owner' ) ;
#183 = CALENDAR_DATE ( 2022, 8, 7 ) ;
#184 = VERTEX_POINT ( 'NONE', #72 ) ;
#185 = EDGE_CURVE ( 'NONE', #104, #161, #126, .T. ) ;
#186 = PERSON_AND_ORGANIZATION_ROLE ( 'creator' ) ;
#187 = DIRECTION ( 'NONE',  ( -0.000000000000000000, -0.000000000000000000, -1.000000000000000000 ) ) ;
#188 = EDGE_LOOP ( 'NONE', ( #357, #366, #96, #196 ) ) ;
#189 = DIRECTION ( 'NONE',  ( 1.000000000000000000, 0.000000000000000000, 0.000000000000000000 ) ) ;
#190 = ORIENTED_EDGE ( 'NONE', *, *, #312, .F. ) ;
#191 = AXIS2_PLACEMENT_3D ( 'NONE', #15, #272, #365 ) ;
#192 = CC_DESIGN_SECURITY_CLASSIFICATION ( #216, ( #101 ) ) ;
#193 = COORDINATED_UNIVERSAL_TIME_OFFSET ( 1, 0, .AHEAD. ) ;
#194 = DIRECTION ( 'NONE',  ( -0.000000000000000000, -0.000000000000000000, -1.000000000000000000 ) ) ;
#195 = EDGE_CURVE ( 'NONE', #217, #184, #261, .T. ) ;
#196 = ORIENTED_EDGE ( 'NONE', *, *, #319, .F. ) ;
#197 = UNCERTAINTY_MEASURE_WITH_UNIT (LENGTH_MEASURE( 1.000000000000000082E-05 ), #149, 'distance_accuracy_value', 'NONE');
#198 = LINE ( 'NONE', #10, #91 ) ;
#199 = ORIENTED_EDGE ( 'NONE', *, *, #147, .F. ) ;
#200 = APPROVAL_STATUS ( 'not_yet_approved' ) ;
#201 = CARTESIAN_POINT ( 'NONE',  ( -6.000000000000000888, 0.000000000000000000, 0.000000000000000000 ) ) ;
#202 = ORIENTED_EDGE ( 'NONE', *, *, #323, .T. ) ;
#203 = AXIS2_PLACEMENT_3D ( 'NONE', #24, #112, #258 ) ;
#204 = DIRECTION ( 'NONE',  ( 1.000000000000000000, 0.000000000000000000, 0.000000000000000000 ) ) ;
#205 = ORIENTED_EDGE ( 'NONE', *, *, #65, .T. ) ;
#206 = CARTESIAN_POINT ( 'NONE',  ( -6.000000000000000888, 0.000000000000000000, 5.000000000000000000 ) ) ;
#207 = VERTEX_POINT ( 'NONE', #201 ) ;
#208 = FACE_OUTER_BOUND ( 'NONE', #69, .T. ) ;
#209 = APPROVAL_PERSON_ORGANIZATION ( #1, #368, #121 ) ;
#210 = ADVANCED_FACE ( 'NONE', ( #224 ), #245, .T. ) ;
#211 = DIRECTION ( 'NONE',  ( 1.000000000000000000, 0.000000000000000000, -0.000000000000000000 ) ) ;
#212 = COORDINATED_UNIVERSAL_TIME_OFFSET ( 1, 0, .AHEAD. ) ;
#213 = AXIS2_PLACEMENT_3D ( 'NONE', #254, #373, #263 ) ;
#214 = CC_DESIGN_DATE_AND_TIME_ASSIGNMENT ( #32, #367, ( #216 ) ) ;
#215 = AXIS2_PLACEMENT_3D ( 'NONE', #103, #97, #308 ) ;
#216 = SECURITY_CLASSIFICATION ( '', '', #304 ) ;
#217 = VERTEX_POINT ( 'NONE', #132 ) ;
#218 = ADVANCED_FACE ( 'NONE', ( #362 ), #144, .F. ) ;
#219 = CIRCLE ( 'NONE', #230, 2.000000000000000000 ) ;
#220 = CARTESIAN_POINT ( 'NONE',  ( 3.000000000000000444, 3.673940397442060361E-16, 805.0000000000000000 ) ) ;
#221 = EDGE_LOOP ( 'NONE', ( #122, #163 ) ) ;
#222 = APPROVAL ( #294, 'NEURÈENÝ' ) ;
#223 = CARTESIAN_POINT ( 'NONE',  ( 2.000000000000000000, 2.449293598294706414E-16, 805.0000000000000000 ) ) ;
#224 = FACE_OUTER_BOUND ( 'NONE', #28, .T. ) ;
#225 = EDGE_LOOP ( 'NONE', ( #37, #345, #99, #307 ) ) ;
#226 = DATE_AND_TIME ( #129, #328 ) ;
#227 = CYLINDRICAL_SURFACE ( 'NONE', #236, 2.000000000000000000 ) ;
#228 = AXIS2_PLACEMENT_3D ( 'NONE', #257, #172, #317 ) ;
#229 = EDGE_CURVE ( 'NONE', #64, #252, #8, .T. ) ;
#230 = AXIS2_PLACEMENT_3D ( 'NONE', #146, #176, #105 ) ;
#231 = PERSON ( 'NEURÈENÝ', 'NEURÈENÝ', 'NEURÈENÝ', ('NEURÈENÝ'), ('NEURÈENÝ'), ('NEURÈENÝ') ) ;
#232 = DIRECTION ( 'NONE',  ( -0.000000000000000000, -0.000000000000000000, -1.000000000000000000 ) ) ;
#233 = FACE_OUTER_BOUND ( 'NONE', #309, .T. ) ;
#234 = DIRECTION ( 'NONE',  ( -0.000000000000000000, -0.000000000000000000, -1.000000000000000000 ) ) ;
#235 = CARTESIAN_POINT ( 'NONE',  ( 0.000000000000000000, 0.000000000000000000, 5.000000000000000000 ) ) ;
#236 = AXIS2_PLACEMENT_3D ( 'NONE', #283, #16, #81 ) ;
#237 = DIRECTION ( 'NONE',  ( 1.000000000000000000, 0.000000000000000000, 0.000000000000000000 ) ) ;
#238 = EDGE_LOOP ( 'NONE', ( #331, #53, #71, #31 ) ) ;
#239 = EDGE_CURVE ( 'NONE', #90, #184, #198, .T. ) ;
#240 = LOCAL_TIME ( 17, 33, 23.00000000000000000, #212 ) ;
#241 = DIRECTION ( 'NONE',  ( 1.000000000000000000, 0.000000000000000000, -0.000000000000000000 ) ) ;
#242 = ORIENTED_EDGE ( 'NONE', *, *, #171, .T. ) ;
#243 = VERTEX_POINT ( 'NONE', #130 ) ;
#244 = APPROVAL_PERSON_ORGANIZATION ( #326, #222, #59 ) ;
#245 = CYLINDRICAL_SURFACE ( 'NONE', #346, 6.000000000000000888 ) ;
#246 = ORIENTED_EDGE ( 'NONE', *, *, #312, .T. ) ;
#247 = PERSON_AND_ORGANIZATION ( #231, #109 ) ;
#248 = MANIFOLD_SOLID_BREP ( 'Odebrat vysunutím3', #372 ) ;
#249 = EDGE_LOOP ( 'NONE', ( #335, #314, #311, #145 ) ) ;
#250 = CARTESIAN_POINT ( 'NONE',  ( 0.000000000000000000, 0.000000000000000000, 5.499999999999949374 ) ) ;
#251 = AXIS2_PLACEMENT_3D ( 'NONE', #140, #48, #342 ) ;
#252 = VERTEX_POINT ( 'NONE', #280 ) ;
#253 = DIRECTION ( 'NONE',  ( -0.000000000000000000, -0.000000000000000000, -1.000000000000000000 ) ) ;
#254 = CARTESIAN_POINT ( 'NONE',  ( -3.500000000000000444, 4.286263797015737088E-16, 5.499999999999949374 ) ) ;
#255 = CARTESIAN_POINT ( 'NONE',  ( 0.000000000000000000, 0.000000000000000000, 805.0000000000000000 ) ) ;
#256 = ADVANCED_FACE ( 'NONE', ( #77, #233 ), #74, .F. ) ;
#257 = CARTESIAN_POINT ( 'NONE',  ( 0.000000000000000000, 0.000000000000000000, 5.499999999999949374 ) ) ;
#258 = DIRECTION ( 'NONE',  ( 1.000000000000000000, 0.000000000000000000, 0.000000000000000000 ) ) ;
#259 = CARTESIAN_POINT ( 'NONE',  ( 0.000000000000000000, 0.000000000000000000, 805.0000000000000000 ) ) ;
#260 = AXIS2_PLACEMENT_3D ( 'NONE', #173, #234, #18 ) ;
#261 = CIRCLE ( 'NONE', #370, 3.000000000000000444 ) ;
#262 = CARTESIAN_POINT ( 'NONE',  ( 0.000000000000000000, 0.000000000000000000, 5.499999999999949374 ) ) ;
#263 = DIRECTION ( 'NONE',  ( -1.000000000000000000, 1.224646799147354440E-16, 0.000000000000000000 ) ) ;
#264 = ADVANCED_FACE ( 'NONE', ( #174 ), #50, .F. ) ;
#265 = CARTESIAN_POINT ( 'NONE',  ( -2.000000000000000000, 0.000000000000000000, 805.0000000000000000 ) ) ;
#266 = CIRCLE ( 'NONE', #356, 6.000000000000000888 ) ;
#267 = MECHANICAL_CONTEXT ( 'NONE', #79, 'mechanical' ) ;
#268 =( NAMED_UNIT ( * ) SI_UNIT ( $, .STERADIAN. ) SOLID_ANGLE_UNIT ( ) );
#269 = DATE_AND_TIME ( #324, #240 ) ;
#270 = EDGE_CURVE ( 'NONE', #281, #177, #19, .T. ) ;
#271 = ORIENTED_EDGE ( 'NONE', *, *, #89, .F. ) ;
#272 = DIRECTION ( 'NONE',  ( 0.000000000000000000, -1.000000000000000000, 0.000000000000000000 ) ) ;
#273 = CC_DESIGN_PERSON_AND_ORGANIZATION_ASSIGNMENT ( #247, #276, ( #216 ) ) ;
#274 = ORIENTED_EDGE ( 'NONE', *, *, #319, .T. ) ;
#275 = AXIS2_PLACEMENT_3D ( 'NONE', #51, #352, #211 ) ;
#276 = PERSON_AND_ORGANIZATION_ROLE ( 'classification_officer' ) ;
#277 = DIRECTION ( 'NONE',  ( 1.000000000000000000, 0.000000000000000000, 0.000000000000000000 ) ) ;
#278 = ORIENTED_EDGE ( 'NONE', *, *, #195, .T. ) ;
#279 = ORIENTED_EDGE ( 'NONE', *, *, #323, .F. ) ;
#280 = CARTESIAN_POINT ( 'NONE',  ( -3.500000000000000444, 4.286263797015737088E-16, 4.999999999999975131 ) ) ;
#281 = VERTEX_POINT ( 'NONE', #265 ) ;
#282 = VECTOR ( 'NONE', #170, 1000.000000000000000 ) ;
#283 = CARTESIAN_POINT ( 'NONE',  ( 0.000000000000000000, 0.000000000000000000, 805.0000000000000000 ) ) ;
#284 = CARTESIAN_POINT ( 'NONE',  ( 0.000000000000000000, 0.000000000000000000, 5.000000000000000000 ) ) ;
#285 = CARTESIAN_POINT ( 'NONE',  ( -3.000000000000000444, 0.000000000000000000, 805.0000000000000000 ) ) ;
#286 = FACE_OUTER_BOUND ( 'NONE', #188, .T. ) ;
#287 = PRODUCT_DEFINITION ( 'NEZNÁMÝ', '', #101, #332 ) ;
#288 = VERTEX_POINT ( 'NONE', #80 ) ;
#289 = DIRECTION ( 'NONE',  ( 0.000000000000000000, 0.000000000000000000, -1.000000000000000000 ) ) ;
#290 = FACE_OUTER_BOUND ( 'NONE', #221, .T. ) ;
#291 = DATE_TIME_ROLE ( 'creation_date' ) ;
#292 = EDGE_CURVE ( 'NONE', #288, #281, #219, .T. ) ;
#293 = CC_DESIGN_APPROVAL ( #222, ( #287 ) ) ;
#294 = APPROVAL_STATUS ( 'not_yet_approved' ) ;
#295 = COORDINATED_UNIVERSAL_TIME_OFFSET ( 1, 0, .AHEAD. ) ;
#296 = CC_DESIGN_PERSON_AND_ORGANIZATION_ASSIGNMENT ( #159, #186, ( #101 ) ) ;
#297 = CIRCLE ( 'NONE', #228, 3.000000000000000444 ) ;
#298 = CARTESIAN_POINT ( 'NONE',  ( 6.000000000000000888, 7.347880794884120722E-16, 0.000000000000000000 ) ) ;
#299 = LOCAL_TIME ( 17, 33, 23.00000000000000000, #193 ) ;
#300 = DATE_AND_TIME ( #183, #26 ) ;
#301 = ADVANCED_FACE ( 'NONE', ( #21 ), #343, .F. ) ;
#302 = DIRECTION ( 'NONE',  ( -1.000000000000000000, 0.000000000000000000, 0.000000000000000000 ) ) ;
#303 = ORIENTED_EDGE ( 'NONE', *, *, #22, .T. ) ;
#304 = SECURITY_CLASSIFICATION_LEVEL ( 'unclassified' ) ;
#305 = CIRCLE ( 'NONE', #337, 6.000000000000000888 ) ;
#306 = CARTESIAN_POINT ( 'NONE',  ( 0.000000000000000000, 0.000000000000000000, 5.499999999999949374 ) ) ;
#307 = ORIENTED_EDGE ( 'NONE', *, *, #49, .T. ) ;
#308 = DIRECTION ( 'NONE',  ( -1.000000000000000000, 0.000000000000000000, 0.000000000000000000 ) ) ;
#309 = EDGE_LOOP ( 'NONE', ( #125, #271 ) ) ;
#310 = PERSON_AND_ORGANIZATION ( #231, #109 ) ;
#311 = ORIENTED_EDGE ( 'NONE', *, *, #229, .F. ) ;
#312 = EDGE_CURVE ( 'NONE', #252, #64, #41, .T. ) ;
#313 = DIRECTION ( 'NONE',  ( -1.000000000000000000, 0.000000000000000000, 0.000000000000000000 ) ) ;
#314 = ORIENTED_EDGE ( 'NONE', *, *, #54, .T. ) ;
#315 = AXIS2_PLACEMENT_3D ( 'NONE', #284, #57, #241 ) ;
#316 = PLANE ( 'NONE',  #315 ) ;
#317 = DIRECTION ( 'NONE',  ( 1.000000000000000000, 0.000000000000000000, 0.000000000000000000 ) ) ;
#318 = CARTESIAN_POINT ( 'NONE',  ( 0.000000000000000000, 0.000000000000000000, 0.000000000000000000 ) ) ;
#319 = EDGE_CURVE ( 'NONE', #104, #207, #375, .T. ) ;
#320 = CARTESIAN_POINT ( 'NONE',  ( 0.000000000000000000, 0.000000000000000000, 0.000000000000000000 ) ) ;
#321 = CARTESIAN_POINT ( 'NONE',  ( 0.000000000000000000, 0.000000000000000000, 5.000000000000000000 ) ) ;
#322 = PLANE ( 'NONE',  #275 ) ;
#323 = EDGE_CURVE ( 'NONE', #281, #288, #360, .T. ) ;
#324 = CALENDAR_DATE ( 2022, 8, 7 ) ;
#325 = CC_DESIGN_APPROVAL ( #368, ( #101 ) ) ;
#326 = PERSON_AND_ORGANIZATION ( #231, #109 ) ;
#327 = AXIS2_PLACEMENT_3D ( 'NONE', #88, #381, #117 ) ;
#328 = LOCAL_TIME ( 17, 33, 23.00000000000000000, #134 ) ;
#329 = ORIENTED_EDGE ( 'NONE', *, *, #195, .F. ) ;
#330 = EDGE_CURVE ( 'NONE', #161, #104, #266, .T. ) ;
#331 = ORIENTED_EDGE ( 'NONE', *, *, #181, .F. ) ;
#332 = DESIGN_CONTEXT ( 'detailed design', #98, 'design' ) ;
#333 = CALENDAR_DATE ( 2022, 8, 7 ) ;
#334 = CARTESIAN_POINT ( 'NONE',  ( 2.000000000000000000, 2.449293598294706414E-16, 0.000000000000000000 ) ) ;
#335 = ORIENTED_EDGE ( 'NONE', *, *, #49, .F. ) ;
#336 = SHAPE_DEFINITION_REPRESENTATION ( #6, #106 ) ;
#337 = AXIS2_PLACEMENT_3D ( 'NONE', #76, #141, #138 ) ;
#338 = DIRECTION ( 'NONE',  ( 1.000000000000000000, 0.000000000000000000, 0.000000000000000000 ) ) ;
#339 = EDGE_LOOP ( 'NONE', ( #279, #39 ) ) ;
#340 = EDGE_LOOP ( 'NONE', ( #3, #246 ) ) ;
#341 = CARTESIAN_POINT ( 'NONE',  ( 6.000000000000000888, 7.347880794884120722E-16, 5.000000000000000000 ) ) ;
#342 = DIRECTION ( 'NONE',  ( 1.000000000000000000, 0.000000000000000000, 0.000000000000000000 ) ) ;
#343 = CYLINDRICAL_SURFACE ( 'NONE', #351, 2.000000000000000000 ) ;
#344 = AXIS2_PLACEMENT_3D ( 'NONE', #320, #46, #113 ) ;
#345 = ORIENTED_EDGE ( 'NONE', *, *, #22, .F. ) ;
#346 = AXIS2_PLACEMENT_3D ( 'NONE', #95, #194, #313 ) ;
#347 = ADVANCED_FACE ( 'NONE', ( #47, #208 ), #322, .T. ) ;
#348 = DIRECTION ( 'NONE',  ( 1.000000000000000000, 0.000000000000000000, 0.000000000000000000 ) ) ;
#349 = DIRECTION ( 'NONE',  ( -1.000000000000000000, 0.000000000000000000, 0.000000000000000000 ) ) ;
#350 = DIRECTION ( 'NONE',  ( 1.000000000000000000, 0.000000000000000000, 0.000000000000000000 ) ) ;
#351 = AXIS2_PLACEMENT_3D ( 'NONE', #255, #143, #349 ) ;
#352 = DIRECTION ( 'NONE',  ( 0.000000000000000000, 0.000000000000000000, 1.000000000000000000 ) ) ;
#353 = APPLICATION_PROTOCOL_DEFINITION ( 'international standard', 'config_control_design', 1994, #98 ) ;
#354 = ADVANCED_FACE ( 'NONE', ( #52, #290 ), #316, .T. ) ;
#355 = AXIS2_PLACEMENT_3D ( 'NONE', #371, #187, #302 ) ;
#356 = AXIS2_PLACEMENT_3D ( 'NONE', #321, #83, #204 ) ;
#357 = ORIENTED_EDGE ( 'NONE', *, *, #330, .F. ) ;
#358 = DATE_AND_TIME ( #333, #299 ) ;
#359 = FACE_OUTER_BOUND ( 'NONE', #225, .T. ) ;
#360 = CIRCLE ( 'NONE', #203, 2.000000000000000000 ) ;
#361 = ORIENTED_EDGE ( 'NONE', *, *, #181, .T. ) ;
#362 = FACE_OUTER_BOUND ( 'NONE', #249, .T. ) ;
#363 = ORIENTED_EDGE ( 'NONE', *, *, #36, .T. ) ;
#364 = APPROVAL_DATE_TIME ( #358, #377 ) ;
#365 = DIRECTION ( 'NONE',  ( 0.000000000000000000, 0.000000000000000000, -1.000000000000000000 ) ) ;
#366 = ORIENTED_EDGE ( 'NONE', *, *, #147, .T. ) ;
#367 = DATE_TIME_ROLE ( 'classification_date' ) ;
#368 = APPROVAL ( #148, 'NEURÈENÝ' ) ;
#369 = ORIENTED_EDGE ( 'NONE', *, *, #175, .F. ) ;
#370 = AXIS2_PLACEMENT_3D ( 'NONE', #250, #162, #338 ) ;
#371 = CARTESIAN_POINT ( 'NONE',  ( 0.000000000000000000, 0.000000000000000000, 805.0000000000000000 ) ) ;
#372 = CLOSED_SHELL ( 'NONE', ( #73, #218, #94, #118, #210, #354, #256, #164, #347, #264, #301 ) ) ;
#373 = DIRECTION ( 'NONE',  ( 1.224646799147353207E-16, 1.000000000000000000, -0.000000000000000000 ) ) ;
#374 =( GEOMETRIC_REPRESENTATION_CONTEXT ( 3 ) GLOBAL_UNCERTAINTY_ASSIGNED_CONTEXT ( ( #197 ) ) GLOBAL_UNIT_ASSIGNED_CONTEXT ( ( #149, #2, #268 ) ) REPRESENTATION_CONTEXT ( 'NONE', 'WORKASPACE' ) );
#375 = LINE ( 'NONE', #115, #282 ) ;
#376 = CYLINDRICAL_SURFACE ( 'NONE', #40, 3.000000000000000444 ) ;
#377 = APPROVAL ( #200, 'NEURÈENÝ' ) ;
#378 = CIRCLE ( 'NONE', #344, 6.000000000000000888 ) ;
#379 = VECTOR ( 'NONE', #155, 1000.000000000000000 ) ;
#380 = VERTEX_POINT ( 'NONE', #298 ) ;
#381 = DIRECTION ( 'NONE',  ( 0.000000000000000000, 0.000000000000000000, 1.000000000000000000 ) ) ;
ENDSEC;
END-ISO-10303-21;
