ISO-10303-21;
HEADER;
FILE_DESCRIPTION (( 'STEP AP203' ),
    '1' );
FILE_NAME ('1c25.STEP',
    '2022-07-08T15:45:16',
    ( '' ),
    ( '' ),
    'SwSTEP 2.0',
    'SolidWorks 2019',
    '' );
FILE_SCHEMA (( 'CONFIG_CONTROL_DESIGN' ));
ENDSEC;

DATA;
#1 = SECURITY_CLASSIFICATION_LEVEL ( 'unclassified' ) ;
#2 = PLANE ( 'NONE',  #236 ) ;
#3 = DIRECTION ( 'NONE',  ( 1.000000000000000000, 0.000000000000000000, 0.000000000000000000 ) ) ;
#4 = ORIENTED_EDGE ( 'NONE', *, *, #106, .T. ) ;
#5 = VECTOR ( 'NONE', #81, 1000.000000000000000 ) ;
#6 = DIRECTION ( 'NONE',  ( 1.000000000000000000, 0.000000000000000000, 0.000000000000000000 ) ) ;
#7 = ORIENTED_EDGE ( 'NONE', *, *, #52, .F. ) ;
#8 = APPLICATION_PROTOCOL_DEFINITION ( 'international standard', 'config_control_design', 1994, #149 ) ;
#9 = CARTESIAN_POINT ( 'NONE',  ( 0.000000000000000000, 0.000000000000000000, 0.000000000000000000 ) ) ;
#10 = CARTESIAN_POINT ( 'NONE',  ( 0.000000000000000000, 0.000000000000000000, 3.000000000000000000 ) ) ;
#11 = EDGE_CURVE ( 'NONE', #231, #357, #191, .T. ) ;
#12 = APPROVAL_PERSON_ORGANIZATION ( #111, #223, #29 ) ;
#13 = DIRECTION ( 'NONE',  ( 0.000000000000000000, 0.000000000000000000, 1.000000000000000000 ) ) ;
#14 = DIRECTION ( 'NONE',  ( -0.000000000000000000, -0.000000000000000000, -1.000000000000000000 ) ) ;
#15 = AXIS2_PLACEMENT_3D ( 'NONE', #10, #134, #306 ) ;
#16 = LINE ( 'NONE', #225, #60 ) ;
#17 = CIRCLE ( 'NONE', #103, 2.500000000000000000 ) ;
#18 = EDGE_CURVE ( 'NONE', #378, #297, #322, .T. ) ;
#19 = EDGE_LOOP ( 'NONE', ( #107, #40 ) ) ;
#20 = PERSON_AND_ORGANIZATION_ROLE ( 'design_owner' ) ;
#21 = FACE_OUTER_BOUND ( 'NONE', #23, .T. ) ;
#22 = CARTESIAN_POINT ( 'NONE',  ( 0.000000000000000000, 0.000000000000000000, 3.000000000000000000 ) ) ;
#23 = EDGE_LOOP ( 'NONE', ( #46, #152 ) ) ;
#24 = VECTOR ( 'NONE', #167, 1000.000000000000000 ) ;
#25 = DATE_AND_TIME ( #323, #99 ) ;
#26 = ADVANCED_FACE ( 'NONE', ( #247 ), #102, .T. ) ;
#27 = CARTESIAN_POINT ( 'NONE',  ( 1.500000000000000222, 1.836970198721029934E-16, 203.0000000000000000 ) ) ;
#28 = EDGE_CURVE ( 'NONE', #357, #231, #367, .T. ) ;
#29 = APPROVAL_ROLE ( '' ) ;
#30 = CIRCLE ( 'NONE', #313, 5.000000000000000000 ) ;
#31 = VECTOR ( 'NONE', #213, 1000.000000000000000 ) ;
#32 = COORDINATED_UNIVERSAL_TIME_OFFSET ( 1, 0, .AHEAD. ) ;
#33 = CARTESIAN_POINT ( 'NONE',  ( -2.500000000000000000, 0.000000000000000000, 3.299999999999997158 ) ) ;
#34 = DIRECTION ( 'NONE',  ( 0.000000000000000000, 0.000000000000000000, 1.000000000000000000 ) ) ;
#35 = ORIENTED_EDGE ( 'NONE', *, *, #28, .T. ) ;
#36 = CARTESIAN_POINT ( 'NONE',  ( 0.000000000000000000, 0.000000000000000000, 3.000000000000000000 ) ) ;
#37 = ORIENTED_EDGE ( 'NONE', *, *, #183, .F. ) ;
#38 = APPROVAL_PERSON_ORGANIZATION ( #285, #168, #120 ) ;
#39 = DIRECTION ( 'NONE',  ( 0.000000000000000000, 0.000000000000000000, -1.000000000000000000 ) ) ;
#40 = ORIENTED_EDGE ( 'NONE', *, *, #97, .F. ) ;
#41 = CARTESIAN_POINT ( 'NONE',  ( 0.000000000000000000, 0.000000000000000000, 0.000000000000000000 ) ) ;
#42 = CIRCLE ( 'NONE', #324, 2.500000000000000000 ) ;
#43 = PRODUCT_DEFINITION_FORMATION_WITH_SPECIFIED_SOURCE ( 'LIBOVOLNÝ', '', #105, .NOT_KNOWN. ) ;
#44 = VERTEX_POINT ( 'NONE', #271 ) ;
#45 = DIRECTION ( 'NONE',  ( 0.000000000000000000, 0.000000000000000000, -1.000000000000000000 ) ) ;
#46 = ORIENTED_EDGE ( 'NONE', *, *, #52, .T. ) ;
#47 = APPROVAL_DATE_TIME ( #353, #195 ) ;
#48 = DIRECTION ( 'NONE',  ( -0.000000000000000000, -0.000000000000000000, -1.000000000000000000 ) ) ;
#49 = ORIENTED_EDGE ( 'NONE', *, *, #369, .F. ) ;
#50 = CIRCLE ( 'NONE', #272, 2.500000000000000000 ) ;
#51 = CALENDAR_DATE ( 2022, 8, 7 ) ;
#52 = EDGE_CURVE ( 'NONE', #188, #294, #298, .T. ) ;
#53 = DIRECTION ( 'NONE',  ( 0.000000000000000000, 0.000000000000000000, 1.000000000000000000 ) ) ;
#54 = CC_DESIGN_DATE_AND_TIME_ASSIGNMENT ( #212, #345, ( #124 ) ) ;
#55 = FACE_OUTER_BOUND ( 'NONE', #19, .T. ) ;
#56 = ORIENTED_EDGE ( 'NONE', *, *, #234, .T. ) ;
#57 = PERSON_AND_ORGANIZATION ( #151, #204 ) ;
#58 = CARTESIAN_POINT ( 'NONE',  ( 0.000000000000000000, 0.000000000000000000, 3.000000000000000000 ) ) ;
#59 = VERTEX_POINT ( 'NONE', #130 ) ;
#60 = VECTOR ( 'NONE', #98, 1000.000000000000000 ) ;
#61 = ORIENTED_EDGE ( 'NONE', *, *, #71, .T. ) ;
#62 = FACE_OUTER_BOUND ( 'NONE', #270, .T. ) ;
#63 = ORIENTED_EDGE ( 'NONE', *, *, #135, .T. ) ;
#64 = EDGE_CURVE ( 'NONE', #188, #277, #16, .T. ) ;
#65 = EDGE_LOOP ( 'NONE', ( #291, #94 ) ) ;
#66 = AXIS2_PLACEMENT_3D ( 'NONE', #58, #34, #331 ) ;
#67 = ADVANCED_FACE ( 'NONE', ( #189 ), #269, .F. ) ;
#68 = LINE ( 'NONE', #218, #24 ) ;
#69 = MANIFOLD_SOLID_BREP ( 'Odebrat vysunutím3', #160 ) ;
#70 =( NAMED_UNIT ( * ) PLANE_ANGLE_UNIT ( ) SI_UNIT ( $, .RADIAN. ) );
#71 = EDGE_CURVE ( 'NONE', #319, #259, #30, .T. ) ;
#72 = DIRECTION ( 'NONE',  ( 0.000000000000000000, 0.000000000000000000, 1.000000000000000000 ) ) ;
#73 =( LENGTH_UNIT ( ) NAMED_UNIT ( * ) SI_UNIT ( .MILLI., .METRE. ) );
#74 = LOCAL_TIME ( 17, 45, 16.00000000000000000, #377 ) ;
#75 = DIRECTION ( 'NONE',  ( 1.000000000000000000, 0.000000000000000000, 0.000000000000000000 ) ) ;
#76 = EDGE_CURVE ( 'NONE', #143, #44, #361, .T. ) ;
#77 = CARTESIAN_POINT ( 'NONE',  ( -1.500000000000000222, 0.000000000000000000, 203.0000000000000000 ) ) ;
#78 = VECTOR ( 'NONE', #244, 1000.000000000000000 ) ;
#79 = AXIS2_PLACEMENT_3D ( 'NONE', #363, #364, #248 ) ;
#80 = EDGE_CURVE ( 'NONE', #357, #319, #165, .T. ) ;
#81 = DIRECTION ( 'NONE',  ( 0.000000000000000000, 0.000000000000000000, -1.000000000000000000 ) ) ;
#82 = COORDINATED_UNIVERSAL_TIME_OFFSET ( 1, 0, .AHEAD. ) ;
#83 = CYLINDRICAL_SURFACE ( 'NONE', #350, 1.500000000000000222 ) ;
#84 = ORIENTED_EDGE ( 'NONE', *, *, #91, .F. ) ;
#85 = AXIS2_PLACEMENT_3D ( 'NONE', #254, #93, #6 ) ;
#86 = PERSON_AND_ORGANIZATION ( #151, #204 ) ;
#87 = ORIENTED_EDGE ( 'NONE', *, *, #202, .F. ) ;
#88 = DIRECTION ( 'NONE',  ( -1.000000000000000000, 1.224646799147353207E-16, 0.000000000000000000 ) ) ;
#89 = EDGE_LOOP ( 'NONE', ( #256, #154 ) ) ;
#90 = DIRECTION ( 'NONE',  ( 1.000000000000000000, 0.000000000000000000, 0.000000000000000000 ) ) ;
#91 = EDGE_CURVE ( 'NONE', #329, #277, #42, .T. ) ;
#92 = ORIENTED_EDGE ( 'NONE', *, *, #80, .F. ) ;
#93 = DIRECTION ( 'NONE',  ( 0.000000000000000000, 0.000000000000000000, 1.000000000000000000 ) ) ;
#94 = ORIENTED_EDGE ( 'NONE', *, *, #76, .F. ) ;
#95 = CARTESIAN_POINT ( 'NONE',  ( 2.500000000000000000, 3.061616997868383141E-16, 203.0000000000000000 ) ) ;
#96 = ORIENTED_EDGE ( 'NONE', *, *, #129, .T. ) ;
#97 = EDGE_CURVE ( 'NONE', #259, #319, #197, .T. ) ;
#98 = DIRECTION ( 'NONE',  ( -0.000000000000000000, -0.000000000000000000, -1.000000000000000000 ) ) ;
#99 = LOCAL_TIME ( 17, 45, 16.00000000000000000, #32 ) ;
#100 = DIRECTION ( 'NONE',  ( 0.000000000000000000, 0.000000000000000000, 1.000000000000000000 ) ) ;
#101 = CARTESIAN_POINT ( 'NONE',  ( -5.000000000000000000, 0.000000000000000000, 3.000000000000000000 ) ) ;
#102 = CYLINDRICAL_SURFACE ( 'NONE', #246, 2.500000000000000000 ) ;
#103 = AXIS2_PLACEMENT_3D ( 'NONE', #332, #150, #90 ) ;
#104 = DIRECTION ( 'NONE',  ( 0.000000000000000000, 0.000000000000000000, 1.000000000000000000 ) ) ;
#105 = PRODUCT ( '1c25', '1c25', '', ( #220 ) ) ;
#106 = EDGE_CURVE ( 'NONE', #59, #44, #253, .T. ) ;
#107 = ORIENTED_EDGE ( 'NONE', *, *, #71, .F. ) ;
#108 = DIRECTION ( 'NONE',  ( -0.000000000000000000, -0.000000000000000000, -1.000000000000000000 ) ) ;
#109 = AXIS2_PLACEMENT_3D ( 'NONE', #169, #336, #339 ) ;
#110 = PLANE ( 'NONE',  #131 ) ;
#111 = PERSON_AND_ORGANIZATION ( #151, #204 ) ;
#112 = CYLINDRICAL_SURFACE ( 'NONE', #257, 1.500000000000000222 ) ;
#113 = EDGE_LOOP ( 'NONE', ( #239, #255, #174, #92 ) ) ;
#114 = CC_DESIGN_PERSON_AND_ORGANIZATION_ASSIGNMENT ( #349, #288, ( #43 ) ) ;
#115 = APPROVAL_DATE_TIME ( #25, #223 ) ;
#116 = CARTESIAN_POINT ( 'NONE',  ( 2.799999999999999822, 0.000000000000000000, 3.299999999999997158 ) ) ;
#117 = AXIS2_PLACEMENT_3D ( 'NONE', #199, #318, #201 ) ;
#118 = AXIS2_PLACEMENT_3D ( 'NONE', #116, #210, #39 ) ;
#119 = ORIENTED_EDGE ( 'NONE', *, *, #11, .T. ) ;
#120 = APPROVAL_ROLE ( '' ) ;
#121 = ORIENTED_EDGE ( 'NONE', *, *, #91, .T. ) ;
#122 = ADVANCED_FACE ( 'NONE', ( #138, #21 ), #110, .T. ) ;
#123 = FACE_BOUND ( 'NONE', #308, .T. ) ;
#124 = SECURITY_CLASSIFICATION ( '', '', #1 ) ;
#125 = DIRECTION ( 'NONE',  ( 0.000000000000000000, 0.000000000000000000, 1.000000000000000000 ) ) ;
#126 = EDGE_LOOP ( 'NONE', ( #355, #7, #139, #376 ) ) ;
#127 = ADVANCED_FACE ( 'NONE', ( #342 ), #112, .F. ) ;
#128 = UNCERTAINTY_MEASURE_WITH_UNIT (LENGTH_MEASURE( 1.000000000000000082E-05 ), #73, 'distance_accuracy_value', 'NONE');
#129 = EDGE_CURVE ( 'NONE', #163, #59, #252, .T. ) ;
#130 = CARTESIAN_POINT ( 'NONE',  ( -1.500000000000000222, 0.000000000000000000, 203.0000000000000000 ) ) ;
#131 = AXIS2_PLACEMENT_3D ( 'NONE', #178, #141, #280 ) ;
#132 = CARTESIAN_POINT ( 'NONE',  ( 0.000000000000000000, 0.000000000000000000, 3.000000000000000000 ) ) ;
#133 = ADVANCED_FACE ( 'NONE', ( #175 ), #83, .F. ) ;
#134 = DIRECTION ( 'NONE',  ( -0.000000000000000000, -0.000000000000000000, -1.000000000000000000 ) ) ;
#135 = EDGE_CURVE ( 'NONE', #163, #143, #273, .T. ) ;
#136 = AXIS2_PLACEMENT_3D ( 'NONE', #302, #72, #75 ) ;
#137 = AXIS2_PLACEMENT_3D ( 'NONE', #250, #108, #230 ) ;
#138 = FACE_BOUND ( 'NONE', #89, .T. ) ;
#139 = ORIENTED_EDGE ( 'NONE', *, *, #64, .T. ) ;
#140 = APPROVAL_ROLE ( '' ) ;
#141 = DIRECTION ( 'NONE',  ( 0.000000000000000000, 0.000000000000000000, 1.000000000000000000 ) ) ;
#142 = AXIS2_PLACEMENT_3D ( 'NONE', #237, #328, #3 ) ;
#143 = VERTEX_POINT ( 'NONE', #312 ) ;
#144 = COORDINATED_UNIVERSAL_TIME_OFFSET ( 1, 0, .AHEAD. ) ;
#145 = CC_DESIGN_PERSON_AND_ORGANIZATION_ASSIGNMENT ( #57, #320, ( #43 ) ) ;
#146 = CALENDAR_DATE ( 2022, 8, 7 ) ;
#147 = DIRECTION ( 'NONE',  ( 1.000000000000000000, 0.000000000000000000, 0.000000000000000000 ) ) ;
#148 = DATE_TIME_ROLE ( 'creation_date' ) ;
#149 = APPLICATION_CONTEXT ( 'configuration controlled 3d designs of mechanical parts and assemblies' ) ;
#150 = DIRECTION ( 'NONE',  ( 0.000000000000000000, 0.000000000000000000, 1.000000000000000000 ) ) ;
#151 = PERSON ( 'NEURÈENÝ', 'NEURÈENÝ', 'NEURÈENÝ', ('NEURÈENÝ'), ('NEURÈENÝ'), ('NEURÈENÝ') ) ;
#152 = ORIENTED_EDGE ( 'NONE', *, *, #183, .T. ) ;
#153 = CARTESIAN_POINT ( 'NONE',  ( 2.799999999999999822, 0.000000000000000000, 2.999999999999998668 ) ) ;
#154 = ORIENTED_EDGE ( 'NONE', *, *, #129, .F. ) ;
#155 = CARTESIAN_POINT ( 'NONE',  ( 5.000000000000000000, 6.123233995736766282E-16, 0.000000000000000000 ) ) ;
#156 = EDGE_LOOP ( 'NONE', ( #35, #119 ) ) ;
#157 = ADVANCED_FACE ( 'NONE', ( #317 ), #173, .T. ) ;
#158 = DIRECTION ( 'NONE',  ( -0.000000000000000000, -0.000000000000000000, -1.000000000000000000 ) ) ;
#159 = ORIENTED_EDGE ( 'NONE', *, *, #292, .T. ) ;
#160 = CLOSED_SHELL ( 'NONE', ( #133, #67, #286, #162, #157, #283, #341, #26, #122, #375, #127 ) ) ;
#161 = CIRCLE ( 'NONE', #142, 1.500000000000000222 ) ;
#162 = ADVANCED_FACE ( 'NONE', ( #321 ), #343, .T. ) ;
#163 = VERTEX_POINT ( 'NONE', #27 ) ;
#164 = DIRECTION ( 'NONE',  ( 0.000000000000000000, 0.000000000000000000, 1.000000000000000000 ) ) ;
#165 = LINE ( 'NONE', #101, #78 ) ;
#166 = CIRCLE ( 'NONE', #186, 0.2999999999999999334 ) ;
#167 = DIRECTION ( 'NONE',  ( -0.000000000000000000, -0.000000000000000000, -1.000000000000000000 ) ) ;
#168 = APPROVAL ( #380, 'NEURÈENÝ' ) ;
#169 = CARTESIAN_POINT ( 'NONE',  ( 0.000000000000000000, 0.000000000000000000, 3.299999999999997158 ) ) ;
#170 = EDGE_CURVE ( 'NONE', #59, #163, #307, .T. ) ;
#171 = DIRECTION ( 'NONE',  ( -1.000000000000000000, 0.000000000000000000, 0.000000000000000000 ) ) ;
#172 = CC_DESIGN_APPROVAL ( #195, ( #366 ) ) ;
#173 = CYLINDRICAL_SURFACE ( 'NONE', #137, 5.000000000000000000 ) ;
#174 = ORIENTED_EDGE ( 'NONE', *, *, #97, .T. ) ;
#175 = FACE_OUTER_BOUND ( 'NONE', #333, .T. ) ;
#176 = DATE_AND_TIME ( #51, #315 ) ;
#177 = DIRECTION ( 'NONE',  ( -1.000000000000000000, 0.000000000000000000, 0.000000000000000000 ) ) ;
#178 = CARTESIAN_POINT ( 'NONE',  ( 0.000000000000000000, 0.000000000000000000, 203.0000000000000000 ) ) ;
#179 = ORIENTED_EDGE ( 'NONE', *, *, #18, .F. ) ;
#180 = CARTESIAN_POINT ( 'NONE',  ( 0.000000000000000000, 0.000000000000000000, 203.0000000000000000 ) ) ;
#181 = LOCAL_TIME ( 17, 45, 16.00000000000000000, #251 ) ;
#182 = CARTESIAN_POINT ( 'NONE',  ( 2.500000000000000000, 3.061616997868383141E-16, 203.0000000000000000 ) ) ;
#183 = EDGE_CURVE ( 'NONE', #294, #188, #50, .T. ) ;
#184 = CYLINDRICAL_SURFACE ( 'NONE', #300, 2.500000000000000000 ) ;
#185 = ORIENTED_EDGE ( 'NONE', *, *, #28, .F. ) ;
#186 = AXIS2_PLACEMENT_3D ( 'NONE', #354, #326, #88 ) ;
#187 = DIRECTION ( 'NONE',  ( 1.000000000000000000, 0.000000000000000000, 0.000000000000000000 ) ) ;
#188 = VERTEX_POINT ( 'NONE', #330 ) ;
#189 = FACE_OUTER_BOUND ( 'NONE', #371, .T. ) ;
#190 = CARTESIAN_POINT ( 'NONE',  ( 0.000000000000000000, 0.000000000000000000, 3.299999999999997158 ) ) ;
#191 = CIRCLE ( 'NONE', #262, 5.000000000000000000 ) ;
#192 = DIRECTION ( 'NONE',  ( 0.000000000000000000, 0.000000000000000000, 1.000000000000000000 ) ) ;
#193 = EDGE_CURVE ( 'NONE', #329, #297, #379, .T. ) ;
#194 = DIRECTION ( 'NONE',  ( 1.000000000000000000, 0.000000000000000000, 0.000000000000000000 ) ) ;
#195 = APPROVAL ( #304, 'NEURÈENÝ' ) ;
#196 = CARTESIAN_POINT ( 'NONE',  ( 0.000000000000000000, 0.000000000000000000, 203.0000000000000000 ) ) ;
#197 = CIRCLE ( 'NONE', #117, 5.000000000000000000 ) ;
#198 = CARTESIAN_POINT ( 'NONE',  ( 0.000000000000000000, 0.000000000000000000, 0.000000000000000000 ) ) ;
#199 = CARTESIAN_POINT ( 'NONE',  ( 0.000000000000000000, 0.000000000000000000, 0.000000000000000000 ) ) ;
#200 = EDGE_LOOP ( 'NONE', ( #49, #185, #240, #61 ) ) ;
#201 = DIRECTION ( 'NONE',  ( 1.000000000000000000, 0.000000000000000000, 0.000000000000000000 ) ) ;
#202 = EDGE_CURVE ( 'NONE', #277, #378, #166, .T. ) ;
#203 = CALENDAR_DATE ( 2022, 8, 7 ) ;
#204 = ORGANIZATION ( 'NEURÈENÝ', 'NEURÈENÝ', '' ) ;
#205 = DIRECTION ( 'NONE',  ( 0.000000000000000000, 0.000000000000000000, -1.000000000000000000 ) ) ;
#206 = ORIENTED_EDGE ( 'NONE', *, *, #202, .T. ) ;
#207 = DIRECTION ( 'NONE',  ( -0.000000000000000000, -0.000000000000000000, -1.000000000000000000 ) ) ;
#208 = ORIENTED_EDGE ( 'NONE', *, *, #18, .T. ) ;
#209 = PERSON_AND_ORGANIZATION_ROLE ( 'creator' ) ;
#210 = DIRECTION ( 'NONE',  ( 0.000000000000000000, -1.000000000000000000, 0.000000000000000000 ) ) ;
#211 = EDGE_LOOP ( 'NONE', ( #359, #96, #4, #56 ) ) ;
#212 = DATE_AND_TIME ( #203, #340 ) ;
#213 = DIRECTION ( 'NONE',  ( -0.000000000000000000, -0.000000000000000000, -1.000000000000000000 ) ) ;
#214 = CC_DESIGN_SECURITY_CLASSIFICATION ( #124, ( #43 ) ) ;
#215 = PLANE ( 'NONE',  #66 ) ;
#216 = ORIENTED_EDGE ( 'NONE', *, *, #278, .T. ) ;
#217 = CARTESIAN_POINT ( 'NONE',  ( 2.500000000000000000, 3.061616997868383141E-16, 3.299999999999997158 ) ) ;
#218 = CARTESIAN_POINT ( 'NONE',  ( 5.000000000000000000, 6.123233995736766282E-16, 3.000000000000000000 ) ) ;
#219 = TOROIDAL_SURFACE ( 'NONE', #79, 2.799999999999999822, 0.2999999999999999889 ) ;
#220 = MECHANICAL_CONTEXT ( 'NONE', #274, 'mechanical' ) ;
#221 = CARTESIAN_POINT ( 'NONE',  ( 0.000000000000000000, 0.000000000000000000, 3.000000000000000000 ) ) ;
#222 = DIRECTION ( 'NONE',  ( 1.000000000000000000, 0.000000000000000000, -0.000000000000000000 ) ) ;
#223 = APPROVAL ( #281, 'NEURÈENÝ' ) ;
#224 = DIRECTION ( 'NONE',  ( 0.000000000000000000, 0.000000000000000000, 1.000000000000000000 ) ) ;
#225 = CARTESIAN_POINT ( 'NONE',  ( -2.500000000000000000, 0.000000000000000000, 203.0000000000000000 ) ) ;
#226 = EDGE_CURVE ( 'NONE', #277, #329, #17, .T. ) ;
#227 = AXIS2_PLACEMENT_3D ( 'NONE', #22, #48, #177 ) ;
#228 = ORIENTED_EDGE ( 'NONE', *, *, #170, .T. ) ;
#229 = AXIS2_PLACEMENT_3D ( 'NONE', #132, #224, #338 ) ;
#230 = DIRECTION ( 'NONE',  ( -1.000000000000000000, 0.000000000000000000, 0.000000000000000000 ) ) ;
#231 = VERTEX_POINT ( 'NONE', #258 ) ;
#232 = APPROVAL_DATE_TIME ( #347, #168 ) ;
#233 = CARTESIAN_POINT ( 'NONE',  ( 0.000000000000000000, 0.000000000000000000, 203.0000000000000000 ) ) ;
#234 = EDGE_CURVE ( 'NONE', #44, #143, #161, .T. ) ;
#235 = CALENDAR_DATE ( 2022, 8, 7 ) ;
#236 = AXIS2_PLACEMENT_3D ( 'NONE', #9, #100, #222 ) ;
#237 = CARTESIAN_POINT ( 'NONE',  ( 0.000000000000000000, 0.000000000000000000, 0.000000000000000000 ) ) ;
#238 =( GEOMETRIC_REPRESENTATION_CONTEXT ( 3 ) GLOBAL_UNCERTAINTY_ASSIGNED_CONTEXT ( ( #128 ) ) GLOBAL_UNIT_ASSIGNED_CONTEXT ( ( #73, #70, #249 ) ) REPRESENTATION_CONTEXT ( 'NONE', 'WORKASPACE' ) );
#239 = ORIENTED_EDGE ( 'NONE', *, *, #11, .F. ) ;
#240 = ORIENTED_EDGE ( 'NONE', *, *, #80, .T. ) ;
#241 = DESIGN_CONTEXT ( 'detailed design', #149, 'design' ) ;
#242 = AXIS2_PLACEMENT_3D ( 'NONE', #41, #14, #365 ) ;
#243 = CARTESIAN_POINT ( 'NONE',  ( 0.000000000000000000, 0.000000000000000000, 0.000000000000000000 ) ) ;
#244 = DIRECTION ( 'NONE',  ( -0.000000000000000000, -0.000000000000000000, -1.000000000000000000 ) ) ;
#245 = CC_DESIGN_PERSON_AND_ORGANIZATION_ASSIGNMENT ( #325, #279, ( #124 ) ) ;
#246 = AXIS2_PLACEMENT_3D ( 'NONE', #266, #311, #171 ) ;
#247 = FACE_OUTER_BOUND ( 'NONE', #126, .T. ) ;
#248 = DIRECTION ( 'NONE',  ( 1.000000000000000000, 0.000000000000000000, 0.000000000000000000 ) ) ;
#249 =( NAMED_UNIT ( * ) SI_UNIT ( $, .STERADIAN. ) SOLID_ANGLE_UNIT ( ) );
#250 = CARTESIAN_POINT ( 'NONE',  ( 0.000000000000000000, 0.000000000000000000, 3.000000000000000000 ) ) ;
#251 = COORDINATED_UNIVERSAL_TIME_OFFSET ( 1, 0, .AHEAD. ) ;
#252 = CIRCLE ( 'NONE', #356, 1.500000000000000222 ) ;
#253 = LINE ( 'NONE', #77, #263 ) ;
#254 = CARTESIAN_POINT ( 'NONE',  ( 0.000000000000000000, 0.000000000000000000, 203.0000000000000000 ) ) ;
#255 = ORIENTED_EDGE ( 'NONE', *, *, #369, .T. ) ;
#256 = ORIENTED_EDGE ( 'NONE', *, *, #170, .F. ) ;
#257 = AXIS2_PLACEMENT_3D ( 'NONE', #196, #205, #346 ) ;
#258 = CARTESIAN_POINT ( 'NONE',  ( 5.000000000000000000, 6.123233995736766282E-16, 3.000000000000000000 ) ) ;
#259 = VERTEX_POINT ( 'NONE', #155 ) ;
#260 = CARTESIAN_POINT ( 'NONE',  ( -5.000000000000000000, 0.000000000000000000, 0.000000000000000000 ) ) ;
#261 = EDGE_LOOP ( 'NONE', ( #87, #84, #264, #179 ) ) ;
#262 = AXIS2_PLACEMENT_3D ( 'NONE', #221, #13, #194 ) ;
#263 = VECTOR ( 'NONE', #45, 1000.000000000000000 ) ;
#264 = ORIENTED_EDGE ( 'NONE', *, *, #193, .T. ) ;
#265 = PERSON_AND_ORGANIZATION ( #151, #204 ) ;
#266 = CARTESIAN_POINT ( 'NONE',  ( 0.000000000000000000, 0.000000000000000000, 203.0000000000000000 ) ) ;
#267 = FACE_OUTER_BOUND ( 'NONE', #261, .T. ) ;
#268 = CIRCLE ( 'NONE', #362, 2.799999999999999822 ) ;
#269 = TOROIDAL_SURFACE ( 'NONE', #109, 2.799999999999999822, 0.2999999999999999889 ) ;
#270 = EDGE_LOOP ( 'NONE', ( #37, #216, #121, #348 ) ) ;
#271 = CARTESIAN_POINT ( 'NONE',  ( -1.500000000000000222, 0.000000000000000000, 0.000000000000000000 ) ) ;
#272 = AXIS2_PLACEMENT_3D ( 'NONE', #381, #125, #351 ) ;
#273 = LINE ( 'NONE', #373, #5 ) ;
#274 = APPLICATION_CONTEXT ( 'configuration controlled 3d designs of mechanical parts and assemblies' ) ;
#275 = ORIENTED_EDGE ( 'NONE', *, *, #76, .T. ) ;
#276 = PERSON_AND_ORGANIZATION ( #151, #204 ) ;
#277 = VERTEX_POINT ( 'NONE', #33 ) ;
#278 = EDGE_CURVE ( 'NONE', #294, #329, #358, .T. ) ;
#279 = PERSON_AND_ORGANIZATION_ROLE ( 'classification_officer' ) ;
#280 = DIRECTION ( 'NONE',  ( 1.000000000000000000, 0.000000000000000000, -0.000000000000000000 ) ) ;
#281 = APPROVAL_STATUS ( 'not_yet_approved' ) ;
#282 = CC_DESIGN_APPROVAL ( #168, ( #43 ) ) ;
#283 = ADVANCED_FACE ( 'NONE', ( #123, #293 ), #215, .T. ) ;
#284 = DIRECTION ( 'NONE',  ( -1.000000000000000000, 0.000000000000000000, 0.000000000000000000 ) ) ;
#285 = PERSON_AND_ORGANIZATION ( #151, #204 ) ;
#286 = ADVANCED_FACE ( 'NONE', ( #62 ), #184, .T. ) ;
#287 = DIRECTION ( 'NONE',  ( 1.000000000000000000, 0.000000000000000000, 0.000000000000000000 ) ) ;
#288 = PERSON_AND_ORGANIZATION_ROLE ( 'design_supplier' ) ;
#289 = CC_DESIGN_APPROVAL ( #223, ( #124 ) ) ;
#290 = DIRECTION ( 'NONE',  ( 1.000000000000000000, 0.000000000000000000, 0.000000000000000000 ) ) ;
#291 = ORIENTED_EDGE ( 'NONE', *, *, #234, .F. ) ;
#292 = EDGE_CURVE ( 'NONE', #297, #378, #268, .T. ) ;
#293 = FACE_OUTER_BOUND ( 'NONE', #156, .T. ) ;
#294 = VERTEX_POINT ( 'NONE', #95 ) ;
#295 = CC_DESIGN_PERSON_AND_ORGANIZATION_ASSIGNMENT ( #86, #209, ( #366 ) ) ;
#296 = DIRECTION ( 'NONE',  ( -1.000000000000000000, 0.000000000000000000, 0.000000000000000000 ) ) ;
#297 = VERTEX_POINT ( 'NONE', #153 ) ;
#298 = CIRCLE ( 'NONE', #136, 2.500000000000000000 ) ;
#299 = FACE_BOUND ( 'NONE', #65, .T. ) ;
#300 = AXIS2_PLACEMENT_3D ( 'NONE', #180, #207, #296 ) ;
#301 = ORIENTED_EDGE ( 'NONE', *, *, #292, .F. ) ;
#302 = CARTESIAN_POINT ( 'NONE',  ( 0.000000000000000000, 0.000000000000000000, 203.0000000000000000 ) ) ;
#303 = ADVANCED_BREP_SHAPE_REPRESENTATION ( '1c25', ( #69, #368 ), #238 ) ;
#304 = APPROVAL_STATUS ( 'not_yet_approved' ) ;
#305 = DIRECTION ( 'NONE',  ( 1.000000000000000000, 0.000000000000000000, 0.000000000000000000 ) ) ;
#306 = DIRECTION ( 'NONE',  ( 1.000000000000000000, 0.000000000000000000, 0.000000000000000000 ) ) ;
#307 = CIRCLE ( 'NONE', #85, 1.500000000000000222 ) ;
#308 = EDGE_LOOP ( 'NONE', ( #159, #208 ) ) ;
#309 = PRODUCT_DEFINITION_SHAPE ( 'NONE', 'NONE',  #366 ) ;
#310 = CC_DESIGN_PERSON_AND_ORGANIZATION_ASSIGNMENT ( #276, #20, ( #105 ) ) ;
#311 = DIRECTION ( 'NONE',  ( -0.000000000000000000, -0.000000000000000000, -1.000000000000000000 ) ) ;
#312 = CARTESIAN_POINT ( 'NONE',  ( 1.500000000000000222, 1.836970198721029934E-16, 0.000000000000000000 ) ) ;
#313 = AXIS2_PLACEMENT_3D ( 'NONE', #243, #192, #305 ) ;
#314 = ORIENTED_EDGE ( 'NONE', *, *, #106, .F. ) ;
#315 = LOCAL_TIME ( 17, 45, 16.00000000000000000, #144 ) ;
#316 = APPLICATION_PROTOCOL_DEFINITION ( 'international standard', 'config_control_design', 1994, #274 ) ;
#317 = FACE_OUTER_BOUND ( 'NONE', #200, .T. ) ;
#318 = DIRECTION ( 'NONE',  ( 0.000000000000000000, 0.000000000000000000, 1.000000000000000000 ) ) ;
#319 = VERTEX_POINT ( 'NONE', #260 ) ;
#320 = PERSON_AND_ORGANIZATION_ROLE ( 'creator' ) ;
#321 = FACE_OUTER_BOUND ( 'NONE', #113, .T. ) ;
#322 = CIRCLE ( 'NONE', #15, 2.799999999999999822 ) ;
#323 = CALENDAR_DATE ( 2022, 8, 7 ) ;
#324 = AXIS2_PLACEMENT_3D ( 'NONE', #190, #104, #147 ) ;
#325 = PERSON_AND_ORGANIZATION ( #151, #204 ) ;
#326 = DIRECTION ( 'NONE',  ( 1.224646799147353207E-16, 1.000000000000000000, -0.000000000000000000 ) ) ;
#327 = ORIENTED_EDGE ( 'NONE', *, *, #193, .F. ) ;
#328 = DIRECTION ( 'NONE',  ( -0.000000000000000000, -0.000000000000000000, -1.000000000000000000 ) ) ;
#329 = VERTEX_POINT ( 'NONE', #217 ) ;
#330 = CARTESIAN_POINT ( 'NONE',  ( -2.500000000000000000, 0.000000000000000000, 203.0000000000000000 ) ) ;
#331 = DIRECTION ( 'NONE',  ( 1.000000000000000000, 0.000000000000000000, -0.000000000000000000 ) ) ;
#332 = CARTESIAN_POINT ( 'NONE',  ( 0.000000000000000000, 0.000000000000000000, 3.299999999999997158 ) ) ;
#333 = EDGE_LOOP ( 'NONE', ( #228, #63, #275, #314 ) ) ;
#334 = CC_DESIGN_DATE_AND_TIME_ASSIGNMENT ( #176, #148, ( #366 ) ) ;
#335 = APPROVAL_PERSON_ORGANIZATION ( #265, #195, #140 ) ;
#336 = DIRECTION ( 'NONE',  ( 0.000000000000000000, 0.000000000000000000, 1.000000000000000000 ) ) ;
#337 = CARTESIAN_POINT ( 'NONE',  ( -2.799999999999999822, 3.429011037612589276E-16, 2.999999999999998668 ) ) ;
#338 = DIRECTION ( 'NONE',  ( 1.000000000000000000, 0.000000000000000000, 0.000000000000000000 ) ) ;
#339 = DIRECTION ( 'NONE',  ( 1.000000000000000000, 0.000000000000000000, 0.000000000000000000 ) ) ;
#340 = LOCAL_TIME ( 17, 45, 16.00000000000000000, #82 ) ;
#341 = ADVANCED_FACE ( 'NONE', ( #299, #55 ), #2, .F. ) ;
#342 = FACE_OUTER_BOUND ( 'NONE', #211, .T. ) ;
#343 = CYLINDRICAL_SURFACE ( 'NONE', #227, 5.000000000000000000 ) ;
#344 = ORIENTED_EDGE ( 'NONE', *, *, #226, .F. ) ;
#345 = DATE_TIME_ROLE ( 'classification_date' ) ;
#346 = DIRECTION ( 'NONE',  ( -1.000000000000000000, 0.000000000000000000, 0.000000000000000000 ) ) ;
#347 = DATE_AND_TIME ( #235, #74 ) ;
#348 = ORIENTED_EDGE ( 'NONE', *, *, #64, .F. ) ;
#349 = PERSON_AND_ORGANIZATION ( #151, #204 ) ;
#350 = AXIS2_PLACEMENT_3D ( 'NONE', #374, #370, #284 ) ;
#351 = DIRECTION ( 'NONE',  ( 1.000000000000000000, 0.000000000000000000, 0.000000000000000000 ) ) ;
#352 = SHAPE_DEFINITION_REPRESENTATION ( #309, #303 ) ;
#353 = DATE_AND_TIME ( #146, #181 ) ;
#354 = CARTESIAN_POINT ( 'NONE',  ( -2.799999999999999822, 3.429011037612588783E-16, 3.299999999999997158 ) ) ;
#355 = ORIENTED_EDGE ( 'NONE', *, *, #278, .F. ) ;
#356 = AXIS2_PLACEMENT_3D ( 'NONE', #233, #53, #287 ) ;
#357 = VERTEX_POINT ( 'NONE', #372 ) ;
#358 = LINE ( 'NONE', #182, #31 ) ;
#359 = ORIENTED_EDGE ( 'NONE', *, *, #135, .F. ) ;
#360 = PRODUCT_RELATED_PRODUCT_CATEGORY ( 'detail', '', ( #105 ) ) ;
#361 = CIRCLE ( 'NONE', #242, 1.500000000000000222 ) ;
#362 = AXIS2_PLACEMENT_3D ( 'NONE', #36, #158, #290 ) ;
#363 = CARTESIAN_POINT ( 'NONE',  ( 0.000000000000000000, 0.000000000000000000, 3.299999999999997158 ) ) ;
#364 = DIRECTION ( 'NONE',  ( 0.000000000000000000, 0.000000000000000000, 1.000000000000000000 ) ) ;
#365 = DIRECTION ( 'NONE',  ( 1.000000000000000000, 0.000000000000000000, 0.000000000000000000 ) ) ;
#366 = PRODUCT_DEFINITION ( 'NEZNÁMÝ', '', #43, #241 ) ;
#367 = CIRCLE ( 'NONE', #229, 5.000000000000000000 ) ;
#368 = AXIS2_PLACEMENT_3D ( 'NONE', #198, #164, #187 ) ;
#369 = EDGE_CURVE ( 'NONE', #231, #259, #68, .T. ) ;
#370 = DIRECTION ( 'NONE',  ( 0.000000000000000000, 0.000000000000000000, -1.000000000000000000 ) ) ;
#371 = EDGE_LOOP ( 'NONE', ( #344, #206, #301, #327 ) ) ;
#372 = CARTESIAN_POINT ( 'NONE',  ( -5.000000000000000000, 0.000000000000000000, 3.000000000000000000 ) ) ;
#373 = CARTESIAN_POINT ( 'NONE',  ( 1.500000000000000222, 1.836970198721029934E-16, 203.0000000000000000 ) ) ;
#374 = CARTESIAN_POINT ( 'NONE',  ( 0.000000000000000000, 0.000000000000000000, 203.0000000000000000 ) ) ;
#375 = ADVANCED_FACE ( 'NONE', ( #267 ), #219, .F. ) ;
#376 = ORIENTED_EDGE ( 'NONE', *, *, #226, .T. ) ;
#377 = COORDINATED_UNIVERSAL_TIME_OFFSET ( 1, 0, .AHEAD. ) ;
#378 = VERTEX_POINT ( 'NONE', #337 ) ;
#379 = CIRCLE ( 'NONE', #118, 0.2999999999999999334 ) ;
#380 = APPROVAL_STATUS ( 'not_yet_approved' ) ;
#381 = CARTESIAN_POINT ( 'NONE',  ( 0.000000000000000000, 0.000000000000000000, 203.0000000000000000 ) ) ;
ENDSEC;
END-ISO-10303-21;
