ISO-10303-21;
HEADER;
FILE_DESCRIPTION (( 'STEP AP203' ),
    '1' );
FILE_NAME ('dbc6.STEP',
    '2022-07-08T14:20:33',
    ( '' ),
    ( '' ),
    'SwSTEP 2.0',
    'SolidWorks 2019',
    '' );
FILE_SCHEMA (( 'CONFIG_CONTROL_DESIGN' ));
ENDSEC;

DATA;
#1 = EDGE_CURVE ( 'NONE', #296, #2, #357, .T. ) ;
#2 = VERTEX_POINT ( 'NONE', #185 ) ;
#3 = CARTESIAN_POINT ( 'NONE',  ( 0.000000000000000000, 0.000000000000000000, 0.000000000000000000 ) ) ;
#4 = AXIS2_PLACEMENT_3D ( 'NONE', #183, #330, #121 ) ;
#5 = DIRECTION ( 'NONE',  ( -0.000000000000000000, -0.000000000000000000, -1.000000000000000000 ) ) ;
#6 = APPROVAL ( #77, 'NEURÈENÝ' ) ;
#7 = DIRECTION ( 'NONE',  ( 0.000000000000000000, -1.000000000000000000, 0.000000000000000000 ) ) ;
#8 = DIRECTION ( 'NONE',  ( -0.000000000000000000, -0.000000000000000000, -1.000000000000000000 ) ) ;
#9 = TOROIDAL_SURFACE ( 'NONE', #302, 8.699999999999999289, 0.6999999999999999556 ) ;
#10 = CARTESIAN_POINT ( 'NONE',  ( 6.000000000000000888, 7.347880794884119736E-16, 0.000000000000000000 ) ) ;
#11 = ADVANCED_FACE ( 'NONE', ( #39 ), #60, .T. ) ;
#12 = LINE ( 'NONE', #363, #156 ) ;
#13 = DIRECTION ( 'NONE',  ( 1.000000000000000000, 0.000000000000000000, 0.000000000000000000 ) ) ;
#14 = AXIS2_PLACEMENT_3D ( 'NONE', #15, #47, #99 ) ;
#15 = CARTESIAN_POINT ( 'NONE',  ( 0.000000000000000000, 0.000000000000000000, 7.000000000000000000 ) ) ;
#16 = AXIS2_PLACEMENT_3D ( 'NONE', #36, #5, #120 ) ;
#17 = DIRECTION ( 'NONE',  ( 0.000000000000000000, 0.000000000000000000, 1.000000000000000000 ) ) ;
#18 = DIRECTION ( 'NONE',  ( -0.000000000000000000, -0.000000000000000000, -1.000000000000000000 ) ) ;
#19 = EDGE_LOOP ( 'NONE', ( #203, #201 ) ) ;
#20 = ADVANCED_FACE ( 'NONE', ( #237 ), #92, .F. ) ;
#21 = VERTEX_POINT ( 'NONE', #149 ) ;
#22 = COORDINATED_UNIVERSAL_TIME_OFFSET ( 1, 0, .AHEAD. ) ;
#23 = ORIENTED_EDGE ( 'NONE', *, *, #28, .F. ) ;
#24 = CIRCLE ( 'NONE', #194, 0.7000000000000000666 ) ;
#25 = ORIENTED_EDGE ( 'NONE', *, *, #242, .T. ) ;
#26 = APPROVAL_DATE_TIME ( #258, #6 ) ;
#27 = ORIENTED_EDGE ( 'NONE', *, *, #37, .F. ) ;
#28 = EDGE_CURVE ( 'NONE', #349, #177, #328, .T. ) ;
#29 = ORIENTED_EDGE ( 'NONE', *, *, #188, .T. ) ;
#30 = DIRECTION ( 'NONE',  ( 0.000000000000000000, 0.000000000000000000, 1.000000000000000000 ) ) ;
#31 = CARTESIAN_POINT ( 'NONE',  ( 6.000000000000000888, 7.347880794884119736E-16, 107.0000000000000142 ) ) ;
#32 = AXIS2_PLACEMENT_3D ( 'NONE', #221, #309, #154 ) ;
#33 = CYLINDRICAL_SURFACE ( 'NONE', #246, 11.00000000000000000 ) ;
#34 = AXIS2_PLACEMENT_3D ( 'NONE', #125, #118, #63 ) ;
#35 = DIRECTION ( 'NONE',  ( -0.000000000000000000, -0.000000000000000000, -1.000000000000000000 ) ) ;
#36 = CARTESIAN_POINT ( 'NONE',  ( 0.000000000000000000, 0.000000000000000000, 107.0000000000000142 ) ) ;
#37 = EDGE_CURVE ( 'NONE', #177, #303, #338, .T. ) ;
#38 = LINE ( 'NONE', #152, #198 ) ;
#39 = FACE_OUTER_BOUND ( 'NONE', #255, .T. ) ;
#40 = FACE_OUTER_BOUND ( 'NONE', #205, .T. ) ;
#41 =( LENGTH_UNIT ( ) NAMED_UNIT ( * ) SI_UNIT ( .MILLI., .METRE. ) );
#42 = DIRECTION ( 'NONE',  ( 0.000000000000000000, 0.000000000000000000, 1.000000000000000000 ) ) ;
#43 = AXIS2_PLACEMENT_3D ( 'NONE', #241, #333, #298 ) ;
#44 = CIRCLE ( 'NONE', #43, 0.6999999999999992895 ) ;
#45 = CIRCLE ( 'NONE', #14, 11.00000000000000000 ) ;
#46 = CARTESIAN_POINT ( 'NONE',  ( 0.000000000000000000, 0.000000000000000000, 107.0000000000000142 ) ) ;
#47 = DIRECTION ( 'NONE',  ( 0.000000000000000000, 0.000000000000000000, 1.000000000000000000 ) ) ;
#48 = CYLINDRICAL_SURFACE ( 'NONE', #85, 6.000000000000000888 ) ;
#49 = ORIENTED_EDGE ( 'NONE', *, *, #218, .F. ) ;
#50 = CIRCLE ( 'NONE', #308, 8.000000000000000000 ) ;
#51 = EDGE_LOOP ( 'NONE', ( #79, #145, #324, #289 ) ) ;
#52 = CARTESIAN_POINT ( 'NONE',  ( 0.000000000000000000, 0.000000000000000000, 0.000000000000000000 ) ) ;
#53 = EDGE_CURVE ( 'NONE', #380, #291, #167, .T. ) ;
#54 = ORIENTED_EDGE ( 'NONE', *, *, #310, .T. ) ;
#55 = ORIENTED_EDGE ( 'NONE', *, *, #351, .T. ) ;
#56 = LOCAL_TIME ( 16, 20, 33.00000000000000000, #22 ) ;
#57 = ORIENTED_EDGE ( 'NONE', *, *, #327, .T. ) ;
#58 = EDGE_LOOP ( 'NONE', ( #266, #113, #371, #143 ) ) ;
#59 = DATE_TIME_ROLE ( 'classification_date' ) ;
#60 = CYLINDRICAL_SURFACE ( 'NONE', #344, 8.000000000000000000 ) ;
#61 = DIRECTION ( 'NONE',  ( 1.000000000000000000, 0.000000000000000000, 0.000000000000000000 ) ) ;
#62 = VECTOR ( 'NONE', #8, 1000.000000000000000 ) ;
#63 = DIRECTION ( 'NONE',  ( 1.000000000000000000, 0.000000000000000000, 0.000000000000000000 ) ) ;
#64 = CARTESIAN_POINT ( 'NONE',  ( 0.000000000000000000, 0.000000000000000000, 7.699999999999998401 ) ) ;
#65 = LINE ( 'NONE', #186, #307 ) ;
#66 = AXIS2_PLACEMENT_3D ( 'NONE', #343, #67, #190 ) ;
#67 = DIRECTION ( 'NONE',  ( 0.000000000000000000, 0.000000000000000000, 1.000000000000000000 ) ) ;
#68 = FACE_OUTER_BOUND ( 'NONE', #320, .T. ) ;
#69 = DIRECTION ( 'NONE',  ( -1.000000000000000000, 0.000000000000000000, 0.000000000000000000 ) ) ;
#70 =( NAMED_UNIT ( * ) PLANE_ANGLE_UNIT ( ) SI_UNIT ( $, .RADIAN. ) );
#71 = FACE_OUTER_BOUND ( 'NONE', #58, .T. ) ;
#72 = SECURITY_CLASSIFICATION ( '', '', #288 ) ;
#73 = CARTESIAN_POINT ( 'NONE',  ( 0.000000000000000000, 0.000000000000000000, 7.699999999999998401 ) ) ;
#74 = VECTOR ( 'NONE', #216, 1000.000000000000000 ) ;
#75 = CC_DESIGN_PERSON_AND_ORGANIZATION_ASSIGNMENT ( #114, #234, ( #364 ) ) ;
#76 = ORIENTED_EDGE ( 'NONE', *, *, #169, .F. ) ;
#77 = APPROVAL_STATUS ( 'not_yet_approved' ) ;
#78 = CC_DESIGN_APPROVAL ( #161, ( #72 ) ) ;
#79 = ORIENTED_EDGE ( 'NONE', *, *, #242, .F. ) ;
#80 = SHAPE_DEFINITION_REPRESENTATION ( #290, #286 ) ;
#81 = ORIENTED_EDGE ( 'NONE', *, *, #263, .T. ) ;
#82 = COORDINATED_UNIVERSAL_TIME_OFFSET ( 1, 0, .AHEAD. ) ;
#83 = ORIENTED_EDGE ( 'NONE', *, *, #188, .F. ) ;
#84 = DATE_AND_TIME ( #232, #56 ) ;
#85 = AXIS2_PLACEMENT_3D ( 'NONE', #339, #222, #283 ) ;
#86 = VERTEX_POINT ( 'NONE', #299 ) ;
#87 = CARTESIAN_POINT ( 'NONE',  ( 0.000000000000000000, 0.000000000000000000, 7.000000000000000000 ) ) ;
#88 = DIRECTION ( 'NONE',  ( -1.000000000000000000, 0.000000000000000000, 0.000000000000000000 ) ) ;
#89 = AXIS2_PLACEMENT_3D ( 'NONE', #217, #268, #334 ) ;
#90 = DIRECTION ( 'NONE',  ( -0.000000000000000000, -0.000000000000000000, -1.000000000000000000 ) ) ;
#91 = APPROVAL_PERSON_ORGANIZATION ( #375, #161, #178 ) ;
#92 = CYLINDRICAL_SURFACE ( 'NONE', #275, 6.000000000000000888 ) ;
#93 = FACE_OUTER_BOUND ( 'NONE', #111, .T. ) ;
#94 = EDGE_CURVE ( 'NONE', #116, #231, #254, .T. ) ;
#95 = CARTESIAN_POINT ( 'NONE',  ( 0.000000000000000000, 0.000000000000000000, 107.0000000000000142 ) ) ;
#96 = CIRCLE ( 'NONE', #122, 11.00000000000000000 ) ;
#97 = FACE_OUTER_BOUND ( 'NONE', #236, .T. ) ;
#98 = CARTESIAN_POINT ( 'NONE',  ( 0.000000000000000000, 0.000000000000000000, 0.000000000000000000 ) ) ;
#99 = DIRECTION ( 'NONE',  ( 1.000000000000000000, 0.000000000000000000, 0.000000000000000000 ) ) ;
#100 = PLANE ( 'NONE',  #164 ) ;
#101 = FACE_BOUND ( 'NONE', #19, .T. ) ;
#102 = CIRCLE ( 'NONE', #157, 6.000000000000000888 ) ;
#103 = ADVANCED_FACE ( 'NONE', ( #359 ), #33, .T. ) ;
#104 = AXIS2_PLACEMENT_3D ( 'NONE', #3, #238, #270 ) ;
#105 = COORDINATED_UNIVERSAL_TIME_OFFSET ( 1, 0, .AHEAD. ) ;
#106 = ORIENTED_EDGE ( 'NONE', *, *, #169, .T. ) ;
#107 = COORDINATED_UNIVERSAL_TIME_OFFSET ( 1, 0, .AHEAD. ) ;
#108 = ORIENTED_EDGE ( 'NONE', *, *, #137, .F. ) ;
#109 = CC_DESIGN_PERSON_AND_ORGANIZATION_ASSIGNMENT ( #297, #210, ( #72 ) ) ;
#110 = PERSON_AND_ORGANIZATION_ROLE ( 'creator' ) ;
#111 = EDGE_LOOP ( 'NONE', ( #54, #345 ) ) ;
#112 = PERSON_AND_ORGANIZATION ( #267, #314 ) ;
#113 = ORIENTED_EDGE ( 'NONE', *, *, #176, .T. ) ;
#114 = PERSON_AND_ORGANIZATION ( #267, #314 ) ;
#115 = AXIS2_PLACEMENT_3D ( 'NONE', #52, #30, #207 ) ;
#116 = VERTEX_POINT ( 'NONE', #271 ) ;
#117 = ADVANCED_FACE ( 'NONE', ( #331 ), #300, .T. ) ;
#118 = DIRECTION ( 'NONE',  ( -0.000000000000000000, -0.000000000000000000, -1.000000000000000000 ) ) ;
#119 = EDGE_CURVE ( 'NONE', #349, #21, #316, .T. ) ;
#120 = DIRECTION ( 'NONE',  ( -1.000000000000000000, 0.000000000000000000, 0.000000000000000000 ) ) ;
#121 = DIRECTION ( 'NONE',  ( 1.000000000000000000, 0.000000000000000000, 0.000000000000000000 ) ) ;
#122 = AXIS2_PLACEMENT_3D ( 'NONE', #131, #17, #129 ) ;
#123 = CC_DESIGN_DATE_AND_TIME_ASSIGNMENT ( #84, #59, ( #72 ) ) ;
#124 = CARTESIAN_POINT ( 'NONE',  ( 0.000000000000000000, 0.000000000000000000, 107.0000000000000142 ) ) ;
#125 = CARTESIAN_POINT ( 'NONE',  ( 0.000000000000000000, 0.000000000000000000, 7.000000000000000000 ) ) ;
#126 = CARTESIAN_POINT ( 'NONE',  ( -11.00000000000000000, 0.000000000000000000, 7.000000000000000000 ) ) ;
#127 = EDGE_CURVE ( 'NONE', #317, #291, #12, .T. ) ;
#128 = CARTESIAN_POINT ( 'NONE',  ( 8.000000000000000000, 9.797174393178825657E-16, 107.0000000000000142 ) ) ;
#129 = DIRECTION ( 'NONE',  ( 1.000000000000000000, 0.000000000000000000, 0.000000000000000000 ) ) ;
#130 = APPLICATION_CONTEXT ( 'configuration controlled 3d designs of mechanical parts and assemblies' ) ;
#131 = CARTESIAN_POINT ( 'NONE',  ( 0.000000000000000000, 0.000000000000000000, 0.000000000000000000 ) ) ;
#132 = UNCERTAINTY_MEASURE_WITH_UNIT (LENGTH_MEASURE( 1.000000000000000082E-05 ), #41, 'distance_accuracy_value', 'NONE');
#133 = APPROVAL_PERSON_ORGANIZATION ( #326, #6, #262 ) ;
#134 = ORIENTED_EDGE ( 'NONE', *, *, #37, .T. ) ;
#135 = CALENDAR_DATE ( 2022, 8, 7 ) ;
#136 = ORIENTED_EDGE ( 'NONE', *, *, #28, .T. ) ;
#137 = EDGE_CURVE ( 'NONE', #264, #116, #179, .T. ) ;
#138 = AXIS2_PLACEMENT_3D ( 'NONE', #124, #151, #274 ) ;
#139 = AXIS2_PLACEMENT_3D ( 'NONE', #340, #249, #69 ) ;
#140 = ORIENTED_EDGE ( 'NONE', *, *, #337, .T. ) ;
#141 = DATE_AND_TIME ( #202, #227 ) ;
#142 = CLOSED_SHELL ( 'NONE', ( #20, #200, #117, #103, #272, #184, #353, #11, #248, #245, #374 ) ) ;
#143 = ORIENTED_EDGE ( 'NONE', *, *, #337, .F. ) ;
#144 = CALENDAR_DATE ( 2022, 8, 7 ) ;
#145 = ORIENTED_EDGE ( 'NONE', *, *, #310, .F. ) ;
#146 = CC_DESIGN_APPROVAL ( #6, ( #214 ) ) ;
#147 = PLANE ( 'NONE',  #89 ) ;
#148 = DIRECTION ( 'NONE',  ( 0.000000000000000000, 0.000000000000000000, -1.000000000000000000 ) ) ;
#149 = CARTESIAN_POINT ( 'NONE',  ( -6.000000000000000888, 0.000000000000000000, 107.0000000000000142 ) ) ;
#150 = CARTESIAN_POINT ( 'NONE',  ( -11.00000000000000000, 0.000000000000000000, 7.000000000000000000 ) ) ;
#151 = DIRECTION ( 'NONE',  ( 0.000000000000000000, 0.000000000000000000, 1.000000000000000000 ) ) ;
#152 = CARTESIAN_POINT ( 'NONE',  ( -8.000000000000000000, 0.000000000000000000, 107.0000000000000142 ) ) ;
#153 = FACE_BOUND ( 'NONE', #226, .T. ) ;
#154 = DIRECTION ( 'NONE',  ( 1.000000000000000000, 0.000000000000000000, -0.000000000000000000 ) ) ;
#155 = CARTESIAN_POINT ( 'NONE',  ( -6.000000000000000888, 0.000000000000000000, 0.000000000000000000 ) ) ;
#156 = VECTOR ( 'NONE', #35, 1000.000000000000000 ) ;
#157 = AXIS2_PLACEMENT_3D ( 'NONE', #46, #341, #192 ) ;
#158 = LINE ( 'NONE', #304, #240 ) ;
#159 = CARTESIAN_POINT ( 'NONE',  ( 0.000000000000000000, 0.000000000000000000, 0.000000000000000000 ) ) ;
#160 = ORIENTED_EDGE ( 'NONE', *, *, #329, .T. ) ;
#161 = APPROVAL ( #230, 'NEURÈENÝ' ) ;
#162 = DIRECTION ( 'NONE',  ( 0.000000000000000000, 0.000000000000000000, 1.000000000000000000 ) ) ;
#163 = ORIENTED_EDGE ( 'NONE', *, *, #257, .F. ) ;
#164 = AXIS2_PLACEMENT_3D ( 'NONE', #98, #162, #312 ) ;
#165 = ORIENTED_EDGE ( 'NONE', *, *, #351, .F. ) ;
#166 = PRODUCT ( 'dbc6', 'dbc6', '', ( #348 ) ) ;
#167 = CIRCLE ( 'NONE', #181, 8.000000000000000000 ) ;
#168 = CC_DESIGN_PERSON_AND_ORGANIZATION_ASSIGNMENT ( #355, #350, ( #364 ) ) ;
#169 = EDGE_CURVE ( 'NONE', #317, #347, #279, .T. ) ;
#170 = ORIENTED_EDGE ( 'NONE', *, *, #206, .T. ) ;
#171 = DATE_AND_TIME ( #144, #354 ) ;
#172 = EDGE_LOOP ( 'NONE', ( #233, #174 ) ) ;
#173 = AXIS2_PLACEMENT_3D ( 'NONE', #159, #18, #280 ) ;
#174 = ORIENTED_EDGE ( 'NONE', *, *, #329, .F. ) ;
#175 = APPLICATION_PROTOCOL_DEFINITION ( 'international standard', 'config_control_design', 1994, #130 ) ;
#176 = EDGE_CURVE ( 'NONE', #380, #296, #44, .T. ) ;
#177 = VERTEX_POINT ( 'NONE', #10 ) ;
#178 = APPROVAL_ROLE ( '' ) ;
#179 = LINE ( 'NONE', #150, #62 ) ;
#180 = CARTESIAN_POINT ( 'NONE',  ( 0.000000000000000000, 0.000000000000000000, 107.0000000000000142 ) ) ;
#181 = AXIS2_PLACEMENT_3D ( 'NONE', #64, #301, #213 ) ;
#182 = CC_DESIGN_DATE_AND_TIME_ASSIGNMENT ( #141, #225, ( #214 ) ) ;
#183 = CARTESIAN_POINT ( 'NONE',  ( 0.000000000000000000, 0.000000000000000000, 0.000000000000000000 ) ) ;
#184 = ADVANCED_FACE ( 'NONE', ( #153, #93 ), #147, .T. ) ;
#185 = CARTESIAN_POINT ( 'NONE',  ( 8.699999999999999289, 0.000000000000000000, 6.999999999999999112 ) ) ;
#186 = CARTESIAN_POINT ( 'NONE',  ( -6.000000000000000888, 0.000000000000000000, 107.0000000000000142 ) ) ;
#187 = LOCAL_TIME ( 16, 20, 33.00000000000000000, #107 ) ;
#188 = EDGE_CURVE ( 'NONE', #21, #303, #65, .T. ) ;
#189 = DIRECTION ( 'NONE',  ( -0.000000000000000000, -0.000000000000000000, -1.000000000000000000 ) ) ;
#190 = DIRECTION ( 'NONE',  ( 1.000000000000000000, 0.000000000000000000, 0.000000000000000000 ) ) ;
#191 = DIRECTION ( 'NONE',  ( -0.000000000000000000, -0.000000000000000000, -1.000000000000000000 ) ) ;
#192 = DIRECTION ( 'NONE',  ( 1.000000000000000000, 0.000000000000000000, 0.000000000000000000 ) ) ;
#193 = DIRECTION ( 'NONE',  ( 0.000000000000000000, 0.000000000000000000, -1.000000000000000000 ) ) ;
#194 = AXIS2_PLACEMENT_3D ( 'NONE', #369, #7, #148 ) ;
#195 = DIRECTION ( 'NONE',  ( 1.000000000000000000, 0.000000000000000000, 0.000000000000000000 ) ) ;
#196 = CC_DESIGN_PERSON_AND_ORGANIZATION_ASSIGNMENT ( #294, #110, ( #214 ) ) ;
#197 = ORIENTED_EDGE ( 'NONE', *, *, #127, .T. ) ;
#198 = VECTOR ( 'NONE', #189, 1000.000000000000000 ) ;
#199 = APPROVAL_STATUS ( 'not_yet_approved' ) ;
#200 = ADVANCED_FACE ( 'NONE', ( #71 ), #360, .F. ) ;
#201 = ORIENTED_EDGE ( 'NONE', *, *, #119, .F. ) ;
#202 = CALENDAR_DATE ( 2022, 8, 7 ) ;
#203 = ORIENTED_EDGE ( 'NONE', *, *, #263, .F. ) ;
#204 = PERSON_AND_ORGANIZATION_ROLE ( 'design_owner' ) ;
#205 = EDGE_LOOP ( 'NONE', ( #261, #49, #140, #229 ) ) ;
#206 = EDGE_CURVE ( 'NONE', #347, #317, #335, .T. ) ;
#207 = DIRECTION ( 'NONE',  ( 1.000000000000000000, 0.000000000000000000, 0.000000000000000000 ) ) ;
#208 = LOCAL_TIME ( 16, 20, 33.00000000000000000, #105 ) ;
#209 = ORIENTED_EDGE ( 'NONE', *, *, #127, .F. ) ;
#210 = PERSON_AND_ORGANIZATION_ROLE ( 'classification_officer' ) ;
#211 = AXIS2_PLACEMENT_3D ( 'NONE', #215, #212, #61 ) ;
#212 = DIRECTION ( 'NONE',  ( 0.000000000000000000, 0.000000000000000000, 1.000000000000000000 ) ) ;
#213 = DIRECTION ( 'NONE',  ( 1.000000000000000000, 0.000000000000000000, 0.000000000000000000 ) ) ;
#214 = PRODUCT_DEFINITION ( 'NEZNÁMÝ', '', #364, #250 ) ;
#215 = CARTESIAN_POINT ( 'NONE',  ( 0.000000000000000000, 0.000000000000000000, 107.0000000000000142 ) ) ;
#216 = DIRECTION ( 'NONE',  ( 0.000000000000000000, 0.000000000000000000, -1.000000000000000000 ) ) ;
#217 = CARTESIAN_POINT ( 'NONE',  ( 0.000000000000000000, 0.000000000000000000, 7.000000000000000000 ) ) ;
#218 = EDGE_CURVE ( 'NONE', #291, #380, #50, .T. ) ;
#219 = DIRECTION ( 'NONE',  ( 0.000000000000000000, 0.000000000000000000, 1.000000000000000000 ) ) ;
#220 = CIRCLE ( 'NONE', #235, 11.00000000000000000 ) ;
#221 = CARTESIAN_POINT ( 'NONE',  ( 0.000000000000000000, 0.000000000000000000, 107.0000000000000142 ) ) ;
#222 = DIRECTION ( 'NONE',  ( 0.000000000000000000, 0.000000000000000000, -1.000000000000000000 ) ) ;
#223 = CARTESIAN_POINT ( 'NONE',  ( 0.000000000000000000, 0.000000000000000000, 7.699999999999998401 ) ) ;
#224 = FACE_OUTER_BOUND ( 'NONE', #51, .T. ) ;
#225 = DATE_TIME_ROLE ( 'creation_date' ) ;
#226 = EDGE_LOOP ( 'NONE', ( #376, #259 ) ) ;
#227 = LOCAL_TIME ( 16, 20, 33.00000000000000000, #379 ) ;
#228 = CALENDAR_DATE ( 2022, 8, 7 ) ;
#229 = ORIENTED_EDGE ( 'NONE', *, *, #1, .F. ) ;
#230 = APPROVAL_STATUS ( 'not_yet_approved' ) ;
#231 = VERTEX_POINT ( 'NONE', #244 ) ;
#232 = CALENDAR_DATE ( 2022, 8, 7 ) ;
#233 = ORIENTED_EDGE ( 'NONE', *, *, #94, .F. ) ;
#234 = PERSON_AND_ORGANIZATION_ROLE ( 'creator' ) ;
#235 = AXIS2_PLACEMENT_3D ( 'NONE', #278, #367, #13 ) ;
#236 = EDGE_LOOP ( 'NONE', ( #170, #106 ) ) ;
#237 = FACE_OUTER_BOUND ( 'NONE', #352, .T. ) ;
#238 = DIRECTION ( 'NONE',  ( -0.000000000000000000, -0.000000000000000000, -1.000000000000000000 ) ) ;
#239 = CARTESIAN_POINT ( 'NONE',  ( -8.000000000000000000, 0.000000000000000000, 107.0000000000000142 ) ) ;
#240 = VECTOR ( 'NONE', #251, 1000.000000000000000 ) ;
#241 = CARTESIAN_POINT ( 'NONE',  ( -8.699999999999999289, 1.065442715258197248E-15, 7.699999999999998401 ) ) ;
#242 = EDGE_CURVE ( 'NONE', #86, #231, #158, .T. ) ;
#243 = DIRECTION ( 'NONE',  ( -1.000000000000000000, 0.000000000000000000, 0.000000000000000000 ) ) ;
#244 = CARTESIAN_POINT ( 'NONE',  ( 11.00000000000000000, 1.347111479062088405E-15, 0.000000000000000000 ) ) ;
#245 = ADVANCED_FACE ( 'NONE', ( #40 ), #9, .F. ) ;
#246 = AXIS2_PLACEMENT_3D ( 'NONE', #87, #90, #243 ) ;
#247 = CARTESIAN_POINT ( 'NONE',  ( 8.000000000000000000, 9.797174393178825657E-16, 7.699999999999998401 ) ) ;
#248 = ADVANCED_FACE ( 'NONE', ( #101, #97 ), #366, .T. ) ;
#249 = DIRECTION ( 'NONE',  ( -0.000000000000000000, -0.000000000000000000, -1.000000000000000000 ) ) ;
#250 = DESIGN_CONTEXT ( 'detailed design', #305, 'design' ) ;
#251 = DIRECTION ( 'NONE',  ( -0.000000000000000000, -0.000000000000000000, -1.000000000000000000 ) ) ;
#252 = AXIS2_PLACEMENT_3D ( 'NONE', #253, #191, #281 ) ;
#253 = CARTESIAN_POINT ( 'NONE',  ( 0.000000000000000000, 0.000000000000000000, 7.000000000000000000 ) ) ;
#254 = CIRCLE ( 'NONE', #4, 11.00000000000000000 ) ;
#255 = EDGE_LOOP ( 'NONE', ( #209, #313, #55, #321 ) ) ;
#256 = EDGE_LOOP ( 'NONE', ( #378, #27 ) ) ;
#257 = EDGE_CURVE ( 'NONE', #86, #264, #220, .T. ) ;
#258 = DATE_AND_TIME ( #135, #208 ) ;
#259 = ORIENTED_EDGE ( 'NONE', *, *, #1, .T. ) ;
#260 = CC_DESIGN_APPROVAL ( #319, ( #364 ) ) ;
#261 = ORIENTED_EDGE ( 'NONE', *, *, #176, .F. ) ;
#262 = APPROVAL_ROLE ( '' ) ;
#263 = EDGE_CURVE ( 'NONE', #21, #349, #102, .T. ) ;
#264 = VERTEX_POINT ( 'NONE', #126 ) ;
#265 = APPLICATION_PROTOCOL_DEFINITION ( 'international standard', 'config_control_design', 1994, #305 ) ;
#266 = ORIENTED_EDGE ( 'NONE', *, *, #53, .F. ) ;
#267 = PERSON ( 'NEURÈENÝ', 'NEURÈENÝ', 'NEURÈENÝ', ('NEURÈENÝ'), ('NEURÈENÝ'), ('NEURÈENÝ') ) ;
#268 = DIRECTION ( 'NONE',  ( 0.000000000000000000, 0.000000000000000000, 1.000000000000000000 ) ) ;
#269 = FACE_BOUND ( 'NONE', #256, .T. ) ;
#270 = DIRECTION ( 'NONE',  ( 1.000000000000000000, 0.000000000000000000, 0.000000000000000000 ) ) ;
#271 = CARTESIAN_POINT ( 'NONE',  ( -11.00000000000000000, 0.000000000000000000, 0.000000000000000000 ) ) ;
#272 = ADVANCED_FACE ( 'NONE', ( #224 ), #282, .T. ) ;
#273 =( GEOMETRIC_REPRESENTATION_CONTEXT ( 3 ) GLOBAL_UNCERTAINTY_ASSIGNED_CONTEXT ( ( #132 ) ) GLOBAL_UNIT_ASSIGNED_CONTEXT ( ( #41, #70, #342 ) ) REPRESENTATION_CONTEXT ( 'NONE', 'WORKASPACE' ) );
#274 = DIRECTION ( 'NONE',  ( 1.000000000000000000, 0.000000000000000000, 0.000000000000000000 ) ) ;
#275 = AXIS2_PLACEMENT_3D ( 'NONE', #180, #356, #88 ) ;
#276 = DIRECTION ( 'NONE',  ( -0.000000000000000000, -0.000000000000000000, -1.000000000000000000 ) ) ;
#277 = FACE_OUTER_BOUND ( 'NONE', #172, .T. ) ;
#278 = CARTESIAN_POINT ( 'NONE',  ( 0.000000000000000000, 0.000000000000000000, 7.000000000000000000 ) ) ;
#279 = CIRCLE ( 'NONE', #138, 8.000000000000000000 ) ;
#280 = DIRECTION ( 'NONE',  ( 1.000000000000000000, 0.000000000000000000, 0.000000000000000000 ) ) ;
#281 = DIRECTION ( 'NONE',  ( 1.000000000000000000, 0.000000000000000000, 0.000000000000000000 ) ) ;
#282 = CYLINDRICAL_SURFACE ( 'NONE', #139, 11.00000000000000000 ) ;
#283 = DIRECTION ( 'NONE',  ( -1.000000000000000000, 0.000000000000000000, 0.000000000000000000 ) ) ;
#284 = EDGE_LOOP ( 'NONE', ( #76, #197, #373, #165 ) ) ;
#285 = CIRCLE ( 'NONE', #252, 8.699999999999999289 ) ;
#286 = ADVANCED_BREP_SHAPE_REPRESENTATION ( 'dbc6', ( #318, #115 ), #273 ) ;
#287 = EDGE_LOOP ( 'NONE', ( #163, #25, #160, #108 ) ) ;
#288 = SECURITY_CLASSIFICATION_LEVEL ( 'unclassified' ) ;
#289 = ORIENTED_EDGE ( 'NONE', *, *, #94, .T. ) ;
#290 = PRODUCT_DEFINITION_SHAPE ( 'NONE', 'NONE',  #214 ) ;
#291 = VERTEX_POINT ( 'NONE', #247 ) ;
#292 = PRODUCT_RELATED_PRODUCT_CATEGORY ( 'detail', '', ( #166 ) ) ;
#293 = CC_DESIGN_SECURITY_CLASSIFICATION ( #72, ( #364 ) ) ;
#294 = PERSON_AND_ORGANIZATION ( #267, #314 ) ;
#295 = ORIENTED_EDGE ( 'NONE', *, *, #119, .T. ) ;
#296 = VERTEX_POINT ( 'NONE', #311 ) ;
#297 = PERSON_AND_ORGANIZATION ( #267, #314 ) ;
#298 = DIRECTION ( 'NONE',  ( -1.000000000000000000, 1.224646799147353207E-16, 0.000000000000000000 ) ) ;
#299 = CARTESIAN_POINT ( 'NONE',  ( 11.00000000000000000, 1.347111479062088405E-15, 7.000000000000000000 ) ) ;
#300 = CYLINDRICAL_SURFACE ( 'NONE', #16, 8.000000000000000000 ) ;
#301 = DIRECTION ( 'NONE',  ( 0.000000000000000000, 0.000000000000000000, 1.000000000000000000 ) ) ;
#302 = AXIS2_PLACEMENT_3D ( 'NONE', #223, #219, #336 ) ;
#303 = VERTEX_POINT ( 'NONE', #155 ) ;
#304 = CARTESIAN_POINT ( 'NONE',  ( 11.00000000000000000, 1.347111479062088405E-15, 7.000000000000000000 ) ) ;
#305 = APPLICATION_CONTEXT ( 'configuration controlled 3d designs of mechanical parts and assemblies' ) ;
#306 = DIRECTION ( 'NONE',  ( 0.000000000000000000, 0.000000000000000000, 1.000000000000000000 ) ) ;
#307 = VECTOR ( 'NONE', #193, 1000.000000000000000 ) ;
#308 = AXIS2_PLACEMENT_3D ( 'NONE', #73, #42, #195 ) ;
#309 = DIRECTION ( 'NONE',  ( 0.000000000000000000, 0.000000000000000000, 1.000000000000000000 ) ) ;
#310 = EDGE_CURVE ( 'NONE', #264, #86, #45, .T. ) ;
#311 = CARTESIAN_POINT ( 'NONE',  ( -8.699999999999999289, 1.065442715258197248E-15, 6.999999999999999112 ) ) ;
#312 = DIRECTION ( 'NONE',  ( 1.000000000000000000, 0.000000000000000000, -0.000000000000000000 ) ) ;
#313 = ORIENTED_EDGE ( 'NONE', *, *, #206, .F. ) ;
#314 = ORGANIZATION ( 'NEURÈENÝ', 'NEURÈENÝ', '' ) ;
#315 = APPROVAL_DATE_TIME ( #171, #319 ) ;
#316 = CIRCLE ( 'NONE', #211, 6.000000000000000888 ) ;
#317 = VERTEX_POINT ( 'NONE', #128 ) ;
#318 = MANIFOLD_SOLID_BREP ( 'Odebrat vysunutím3', #142 ) ;
#319 = APPROVAL ( #199, 'NEURÈENÝ' ) ;
#320 = EDGE_LOOP ( 'NONE', ( #23, #295, #29, #57 ) ) ;
#321 = ORIENTED_EDGE ( 'NONE', *, *, #53, .T. ) ;
#322 = APPROVAL_PERSON_ORGANIZATION ( #112, #319, #381 ) ;
#323 = APPROVAL_DATE_TIME ( #346, #161 ) ;
#324 = ORIENTED_EDGE ( 'NONE', *, *, #137, .T. ) ;
#325 = CC_DESIGN_PERSON_AND_ORGANIZATION_ASSIGNMENT ( #372, #204, ( #166 ) ) ;
#326 = PERSON_AND_ORGANIZATION ( #267, #314 ) ;
#327 = EDGE_CURVE ( 'NONE', #303, #177, #368, .T. ) ;
#328 = LINE ( 'NONE', #31, #74 ) ;
#329 = EDGE_CURVE ( 'NONE', #231, #116, #96, .T. ) ;
#330 = DIRECTION ( 'NONE',  ( 0.000000000000000000, 0.000000000000000000, 1.000000000000000000 ) ) ;
#331 = FACE_OUTER_BOUND ( 'NONE', #284, .T. ) ;
#332 = CARTESIAN_POINT ( 'NONE',  ( 6.000000000000000888, 7.347880794884119736E-16, 107.0000000000000142 ) ) ;
#333 = DIRECTION ( 'NONE',  ( 1.224646799147353207E-16, 1.000000000000000000, -0.000000000000000000 ) ) ;
#334 = DIRECTION ( 'NONE',  ( 1.000000000000000000, 0.000000000000000000, -0.000000000000000000 ) ) ;
#335 = CIRCLE ( 'NONE', #361, 8.000000000000000000 ) ;
#336 = DIRECTION ( 'NONE',  ( 1.000000000000000000, 0.000000000000000000, 0.000000000000000000 ) ) ;
#337 = EDGE_CURVE ( 'NONE', #291, #2, #24, .T. ) ;
#338 = CIRCLE ( 'NONE', #104, 6.000000000000000888 ) ;
#339 = CARTESIAN_POINT ( 'NONE',  ( 0.000000000000000000, 0.000000000000000000, 107.0000000000000142 ) ) ;
#340 = CARTESIAN_POINT ( 'NONE',  ( 0.000000000000000000, 0.000000000000000000, 7.000000000000000000 ) ) ;
#341 = DIRECTION ( 'NONE',  ( 0.000000000000000000, 0.000000000000000000, 1.000000000000000000 ) ) ;
#342 =( NAMED_UNIT ( * ) SI_UNIT ( $, .STERADIAN. ) SOLID_ANGLE_UNIT ( ) );
#343 = CARTESIAN_POINT ( 'NONE',  ( 0.000000000000000000, 0.000000000000000000, 7.699999999999998401 ) ) ;
#344 = AXIS2_PLACEMENT_3D ( 'NONE', #362, #276, #358 ) ;
#345 = ORIENTED_EDGE ( 'NONE', *, *, #257, .T. ) ;
#346 = DATE_AND_TIME ( #228, #187 ) ;
#347 = VERTEX_POINT ( 'NONE', #239 ) ;
#348 = MECHANICAL_CONTEXT ( 'NONE', #130, 'mechanical' ) ;
#349 = VERTEX_POINT ( 'NONE', #332 ) ;
#350 = PERSON_AND_ORGANIZATION_ROLE ( 'design_supplier' ) ;
#351 = EDGE_CURVE ( 'NONE', #347, #380, #38, .T. ) ;
#352 = EDGE_LOOP ( 'NONE', ( #81, #136, #134, #83 ) ) ;
#353 = ADVANCED_FACE ( 'NONE', ( #269, #277 ), #100, .F. ) ;
#354 = LOCAL_TIME ( 16, 20, 33.00000000000000000, #82 ) ;
#355 = PERSON_AND_ORGANIZATION ( #267, #314 ) ;
#356 = DIRECTION ( 'NONE',  ( 0.000000000000000000, 0.000000000000000000, -1.000000000000000000 ) ) ;
#357 = CIRCLE ( 'NONE', #34, 8.699999999999999289 ) ;
#358 = DIRECTION ( 'NONE',  ( -1.000000000000000000, 0.000000000000000000, 0.000000000000000000 ) ) ;
#359 = FACE_OUTER_BOUND ( 'NONE', #287, .T. ) ;
#360 = TOROIDAL_SURFACE ( 'NONE', #66, 8.699999999999999289, 0.6999999999999999556 ) ;
#361 = AXIS2_PLACEMENT_3D ( 'NONE', #95, #306, #365 ) ;
#362 = CARTESIAN_POINT ( 'NONE',  ( 0.000000000000000000, 0.000000000000000000, 107.0000000000000142 ) ) ;
#363 = CARTESIAN_POINT ( 'NONE',  ( 8.000000000000000000, 9.797174393178825657E-16, 107.0000000000000142 ) ) ;
#364 = PRODUCT_DEFINITION_FORMATION_WITH_SPECIFIED_SOURCE ( 'LIBOVOLNÝ', '', #166, .NOT_KNOWN. ) ;
#365 = DIRECTION ( 'NONE',  ( 1.000000000000000000, 0.000000000000000000, 0.000000000000000000 ) ) ;
#366 = PLANE ( 'NONE',  #32 ) ;
#367 = DIRECTION ( 'NONE',  ( 0.000000000000000000, 0.000000000000000000, 1.000000000000000000 ) ) ;
#368 = CIRCLE ( 'NONE', #173, 6.000000000000000888 ) ;
#369 = CARTESIAN_POINT ( 'NONE',  ( 8.699999999999999289, 0.000000000000000000, 7.699999999999998401 ) ) ;
#370 = CARTESIAN_POINT ( 'NONE',  ( -8.000000000000000000, 0.000000000000000000, 7.699999999999998401 ) ) ;
#371 = ORIENTED_EDGE ( 'NONE', *, *, #377, .F. ) ;
#372 = PERSON_AND_ORGANIZATION ( #267, #314 ) ;
#373 = ORIENTED_EDGE ( 'NONE', *, *, #218, .T. ) ;
#374 = ADVANCED_FACE ( 'NONE', ( #68 ), #48, .F. ) ;
#375 = PERSON_AND_ORGANIZATION ( #267, #314 ) ;
#376 = ORIENTED_EDGE ( 'NONE', *, *, #377, .T. ) ;
#377 = EDGE_CURVE ( 'NONE', #2, #296, #285, .T. ) ;
#378 = ORIENTED_EDGE ( 'NONE', *, *, #327, .F. ) ;
#379 = COORDINATED_UNIVERSAL_TIME_OFFSET ( 1, 0, .AHEAD. ) ;
#380 = VERTEX_POINT ( 'NONE', #370 ) ;
#381 = APPROVAL_ROLE ( '' ) ;
ENDSEC;
END-ISO-10303-21;
