ISO-10303-21;
HEADER;
FILE_DESCRIPTION (( 'STEP AP203' ),
    '1' );
FILE_NAME ('9643.STEP',
    '2022-07-08T14:34:51',
    ( '' ),
    ( '' ),
    'SwSTEP 2.0',
    'SolidWorks 2019',
    '' );
FILE_SCHEMA (( 'CONFIG_CONTROL_DESIGN' ));
ENDSEC;

DATA;
#1 = CYLINDRICAL_SURFACE ( 'NONE', #149, 4.099999999999999645 ) ;
#2 = DIRECTION ( 'NONE',  ( 1.000000000000000000, 0.000000000000000000, 0.000000000000000000 ) ) ;
#3 = AXIS2_PLACEMENT_3D ( 'NONE', #238, #151, #66 ) ;
#4 = CARTESIAN_POINT ( 'NONE',  ( -10.00000000000000000, 0.000000000000000000, 7.000000000000000000 ) ) ;
#5 = CARTESIAN_POINT ( 'NONE',  ( 0.000000000000000000, 0.000000000000000000, 7.000000000000000000 ) ) ;
#6 = DIRECTION ( 'NONE',  ( 0.000000000000000000, 0.000000000000000000, 1.000000000000000000 ) ) ;
#7 = CC_DESIGN_DATE_AND_TIME_ASSIGNMENT ( #164, #324, ( #181 ) ) ;
#8 = DIRECTION ( 'NONE',  ( 1.000000000000000000, 0.000000000000000000, 0.000000000000000000 ) ) ;
#9 = DIRECTION ( 'NONE',  ( 1.000000000000000000, 0.000000000000000000, 0.000000000000000000 ) ) ;
#10 = LINE ( 'NONE', #63, #308 ) ;
#11 = LOCAL_TIME ( 16, 34, 51.00000000000000000, #159 ) ;
#12 = DIRECTION ( 'NONE',  ( 0.000000000000000000, -1.000000000000000000, 0.000000000000000000 ) ) ;
#13 = EDGE_LOOP ( 'NONE', ( #158, #236, #134, #275 ) ) ;
#14 = ORIENTED_EDGE ( 'NONE', *, *, #125, .F. ) ;
#15 = PRODUCT_RELATED_PRODUCT_CATEGORY ( 'detail', '', ( #53 ) ) ;
#16 = DIRECTION ( 'NONE',  ( 1.000000000000000000, 0.000000000000000000, 0.000000000000000000 ) ) ;
#17 = VERTEX_POINT ( 'NONE', #199 ) ;
#18 = CYLINDRICAL_SURFACE ( 'NONE', #273, 10.00000000000000000 ) ;
#19 = ORIENTED_EDGE ( 'NONE', *, *, #292, .T. ) ;
#20 = ADVANCED_FACE ( 'NONE', ( #27 ), #288, .T. ) ;
#21 = DIRECTION ( 'NONE',  ( -1.000000000000000000, 0.000000000000000000, 0.000000000000000000 ) ) ;
#22 = ORIENTED_EDGE ( 'NONE', *, *, #352, .F. ) ;
#23 = COORDINATED_UNIVERSAL_TIME_OFFSET ( 1, 0, .AHEAD. ) ;
#24 = AXIS2_PLACEMENT_3D ( 'NONE', #121, #330, #366 ) ;
#25 = CARTESIAN_POINT ( 'NONE',  ( -10.00000000000000000, 0.000000000000000000, 0.000000000000000000 ) ) ;
#26 = DIRECTION ( 'NONE',  ( -0.000000000000000000, -0.000000000000000000, -1.000000000000000000 ) ) ;
#27 = FACE_OUTER_BOUND ( 'NONE', #247, .T. ) ;
#28 = DIRECTION ( 'NONE',  ( 1.000000000000000000, 0.000000000000000000, 0.000000000000000000 ) ) ;
#29 = CIRCLE ( 'NONE', #254, 4.099999999999999645 ) ;
#30 = CARTESIAN_POINT ( 'NONE',  ( -6.700000000000001066, 8.205133554287267548E-16, 7.700000000000012612 ) ) ;
#31 = DIRECTION ( 'NONE',  ( 0.000000000000000000, 0.000000000000000000, 1.000000000000000000 ) ) ;
#32 = FACE_BOUND ( 'NONE', #162, .T. ) ;
#33 = DIRECTION ( 'NONE',  ( -0.000000000000000000, -0.000000000000000000, -1.000000000000000000 ) ) ;
#34 = ADVANCED_FACE ( 'NONE', ( #201, #265 ), #145, .T. ) ;
#35 = CARTESIAN_POINT ( 'NONE',  ( -4.099999999999999645, 0.000000000000000000, 207.0000000000000284 ) ) ;
#36 = DIRECTION ( 'NONE',  ( 1.000000000000000000, 0.000000000000000000, 0.000000000000000000 ) ) ;
#37 = VECTOR ( 'NONE', #239, 1000.000000000000000 ) ;
#38 = PERSON_AND_ORGANIZATION ( #257, #329 ) ;
#39 = ORIENTED_EDGE ( 'NONE', *, *, #269, .T. ) ;
#40 = PERSON_AND_ORGANIZATION_ROLE ( 'design_supplier' ) ;
#41 = ORIENTED_EDGE ( 'NONE', *, *, #340, .F. ) ;
#42 = CC_DESIGN_PERSON_AND_ORGANIZATION_ASSIGNMENT ( #370, #373, ( #260 ) ) ;
#43 = APPROVAL_ROLE ( '' ) ;
#44 = ORIENTED_EDGE ( 'NONE', *, *, #251, .F. ) ;
#45 = FACE_OUTER_BOUND ( 'NONE', #339, .T. ) ;
#46 = VERTEX_POINT ( 'NONE', #90 ) ;
#47 = CC_DESIGN_APPROVAL ( #115, ( #260 ) ) ;
#48 = ADVANCED_FACE ( 'NONE', ( #114 ), #365, .F. ) ;
#49 = EDGE_CURVE ( 'NONE', #245, #79, #117, .T. ) ;
#50 = COORDINATED_UNIVERSAL_TIME_OFFSET ( 1, 0, .AHEAD. ) ;
#51 = ORIENTED_EDGE ( 'NONE', *, *, #276, .F. ) ;
#52 = DIRECTION ( 'NONE',  ( 0.000000000000000000, 0.000000000000000000, 1.000000000000000000 ) ) ;
#53 = PRODUCT ( '9643', '9643', '', ( #212 ) ) ;
#54 = PLANE ( 'NONE',  #214 ) ;
#55 = MANIFOLD_SOLID_BREP ( 'Odebrat vysunutím3', #241 ) ;
#56 = CARTESIAN_POINT ( 'NONE',  ( 0.000000000000000000, 0.000000000000000000, 0.000000000000000000 ) ) ;
#57 = COORDINATED_UNIVERSAL_TIME_OFFSET ( 1, 0, .AHEAD. ) ;
#58 = DIRECTION ( 'NONE',  ( -1.000000000000000000, 0.000000000000000000, 0.000000000000000000 ) ) ;
#59 = CALENDAR_DATE ( 2022, 8, 7 ) ;
#60 = DIRECTION ( 'NONE',  ( 1.000000000000000000, 0.000000000000000000, 0.000000000000000000 ) ) ;
#61 = CIRCLE ( 'NONE', #210, 4.099999999999999645 ) ;
#62 = CARTESIAN_POINT ( 'NONE',  ( 0.000000000000000000, 0.000000000000000000, 7.000000000000000000 ) ) ;
#63 = CARTESIAN_POINT ( 'NONE',  ( 6.000000000000000888, 7.347880794884120722E-16, 207.0000000000000284 ) ) ;
#64 = ORIENTED_EDGE ( 'NONE', *, *, #84, .F. ) ;
#65 = UNCERTAINTY_MEASURE_WITH_UNIT (LENGTH_MEASURE( 1.000000000000000082E-05 ), #108, 'distance_accuracy_value', 'NONE');
#66 = DIRECTION ( 'NONE',  ( 1.000000000000000000, 0.000000000000000000, 0.000000000000000000 ) ) ;
#67 = CARTESIAN_POINT ( 'NONE',  ( 0.000000000000000000, 0.000000000000000000, 7.000000000000000000 ) ) ;
#68 = CC_DESIGN_DATE_AND_TIME_ASSIGNMENT ( #284, #341, ( #260 ) ) ;
#69 = CARTESIAN_POINT ( 'NONE',  ( 0.000000000000000000, 0.000000000000000000, 7.700000000000012612 ) ) ;
#70 = EDGE_CURVE ( 'NONE', #296, #137, #190, .T. ) ;
#71 = FACE_OUTER_BOUND ( 'NONE', #13, .T. ) ;
#72 = VECTOR ( 'NONE', #196, 1000.000000000000000 ) ;
#73 = APPROVAL_STATUS ( 'not_yet_approved' ) ;
#74 = ORIENTED_EDGE ( 'NONE', *, *, #298, .F. ) ;
#75 = CARTESIAN_POINT ( 'NONE',  ( 0.000000000000000000, 0.000000000000000000, 7.000000000000000000 ) ) ;
#76 = EDGE_CURVE ( 'NONE', #46, #77, #118, .T. ) ;
#77 = VERTEX_POINT ( 'NONE', #167 ) ;
#78 = DATE_AND_TIME ( #244, #11 ) ;
#79 = VERTEX_POINT ( 'NONE', #25 ) ;
#80 = AXIS2_PLACEMENT_3D ( 'NONE', #203, #302, #175 ) ;
#81 = ORIENTED_EDGE ( 'NONE', *, *, #125, .T. ) ;
#82 = VERTEX_POINT ( 'NONE', #116 ) ;
#83 = DIRECTION ( 'NONE',  ( -1.000000000000000000, 1.224646799147353454E-16, 0.000000000000000000 ) ) ;
#84 = EDGE_CURVE ( 'NONE', #17, #82, #348, .T. ) ;
#85 = PERSON_AND_ORGANIZATION ( #257, #329 ) ;
#86 = EDGE_CURVE ( 'NONE', #133, #245, #204, .T. ) ;
#87 = ADVANCED_FACE ( 'NONE', ( #92 ), #355, .T. ) ;
#88 = FACE_BOUND ( 'NONE', #315, .T. ) ;
#89 = PERSON_AND_ORGANIZATION_ROLE ( 'classification_officer' ) ;
#90 = CARTESIAN_POINT ( 'NONE',  ( -4.099999999999999645, 0.000000000000000000, 0.000000000000000000 ) ) ;
#91 = CARTESIAN_POINT ( 'NONE',  ( 0.000000000000000000, 0.000000000000000000, 207.0000000000000284 ) ) ;
#92 = FACE_OUTER_BOUND ( 'NONE', #135, .T. ) ;
#93 = TOROIDAL_SURFACE ( 'NONE', #182, 6.700000000000001066, 0.6999999999999999556 ) ;
#94 = CC_DESIGN_APPROVAL ( #186, ( #378 ) ) ;
#95 = DIRECTION ( 'NONE',  ( 0.000000000000000000, 0.000000000000000000, 1.000000000000000000 ) ) ;
#96 = DIRECTION ( 'NONE',  ( 1.000000000000000000, 0.000000000000000000, 0.000000000000000000 ) ) ;
#97 = CARTESIAN_POINT ( 'NONE',  ( 0.000000000000000000, 0.000000000000000000, 7.000000000000000000 ) ) ;
#98 = AXIS2_PLACEMENT_3D ( 'NONE', #123, #31, #96 ) ;
#99 = CARTESIAN_POINT ( 'NONE',  ( 0.000000000000000000, 0.000000000000000000, 207.0000000000000284 ) ) ;
#100 = DIRECTION ( 'NONE',  ( 0.000000000000000000, 0.000000000000000000, -1.000000000000000000 ) ) ;
#101 = PERSON_AND_ORGANIZATION ( #257, #329 ) ;
#102 = ORIENTED_EDGE ( 'NONE', *, *, #220, .F. ) ;
#103 = AXIS2_PLACEMENT_3D ( 'NONE', #336, #152, #270 ) ;
#104 = EDGE_LOOP ( 'NONE', ( #374, #347, #39, #217 ) ) ;
#105 = CARTESIAN_POINT ( 'NONE',  ( 6.000000000000000888, 7.347880794884120722E-16, 7.700000000000012612 ) ) ;
#106 = PRODUCT_DEFINITION_SHAPE ( 'NONE', 'NONE',  #260 ) ;
#107 = ORIENTED_EDGE ( 'NONE', *, *, #251, .T. ) ;
#108 =( LENGTH_UNIT ( ) NAMED_UNIT ( * ) SI_UNIT ( .MILLI., .METRE. ) );
#109 = ORIENTED_EDGE ( 'NONE', *, *, #140, .T. ) ;
#110 = AXIS2_PLACEMENT_3D ( 'NONE', #157, #100, #21 ) ;
#111 = AXIS2_PLACEMENT_3D ( 'NONE', #30, #120, #83 ) ;
#112 = ORIENTED_EDGE ( 'NONE', *, *, #298, .T. ) ;
#113 = APPROVAL_STATUS ( 'not_yet_approved' ) ;
#114 = FACE_OUTER_BOUND ( 'NONE', #350, .T. ) ;
#115 = APPROVAL ( #343, 'NEURÈENÝ' ) ;
#116 = CARTESIAN_POINT ( 'NONE',  ( -6.000000000000000888, 0.000000000000000000, 207.0000000000000284 ) ) ;
#117 = LINE ( 'NONE', #4, #72 ) ;
#118 = CIRCLE ( 'NONE', #129, 4.099999999999999645 ) ;
#119 = CARTESIAN_POINT ( 'NONE',  ( 0.000000000000000000, 0.000000000000000000, 207.0000000000000284 ) ) ;
#120 = DIRECTION ( 'NONE',  ( 1.224646799147353207E-16, 1.000000000000000000, -0.000000000000000000 ) ) ;
#121 = CARTESIAN_POINT ( 'NONE',  ( 0.000000000000000000, 0.000000000000000000, 7.000000000000000000 ) ) ;
#122 = VECTOR ( 'NONE', #131, 1000.000000000000000 ) ;
#123 = CARTESIAN_POINT ( 'NONE',  ( 0.000000000000000000, 0.000000000000000000, 0.000000000000000000 ) ) ;
#124 = ORIENTED_EDGE ( 'NONE', *, *, #321, .F. ) ;
#125 = EDGE_CURVE ( 'NONE', #333, #377, #255, .T. ) ;
#126 = CARTESIAN_POINT ( 'NONE',  ( -6.000000000000000888, 0.000000000000000000, 7.700000000000012612 ) ) ;
#127 = CARTESIAN_POINT ( 'NONE',  ( 4.099999999999999645, 5.021051876504146399E-16, 207.0000000000000284 ) ) ;
#128 = AXIS2_PLACEMENT_3D ( 'NONE', #97, #176, #279 ) ;
#129 = AXIS2_PLACEMENT_3D ( 'NONE', #325, #231, #28 ) ;
#130 = AXIS2_PLACEMENT_3D ( 'NONE', #337, #307, #16 ) ;
#131 = DIRECTION ( 'NONE',  ( 0.000000000000000000, 0.000000000000000000, -1.000000000000000000 ) ) ;
#132 = DIRECTION ( 'NONE',  ( -0.000000000000000000, -0.000000000000000000, -1.000000000000000000 ) ) ;
#133 = VERTEX_POINT ( 'NONE', #359 ) ;
#134 = ORIENTED_EDGE ( 'NONE', *, *, #165, .T. ) ;
#135 = EDGE_LOOP ( 'NONE', ( #64, #112, #253, #156 ) ) ;
#136 = VERTEX_POINT ( 'NONE', #353 ) ;
#137 = VERTEX_POINT ( 'NONE', #322 ) ;
#138 = VECTOR ( 'NONE', #271, 1000.000000000000000 ) ;
#139 = CIRCLE ( 'NONE', #235, 6.000000000000000888 ) ;
#140 = EDGE_CURVE ( 'NONE', #133, #136, #319, .T. ) ;
#141 = DIRECTION ( 'NONE',  ( -0.000000000000000000, -0.000000000000000000, -1.000000000000000000 ) ) ;
#142 = ADVANCED_FACE ( 'NONE', ( #323 ), #1, .F. ) ;
#143 = DIRECTION ( 'NONE',  ( -1.000000000000000000, 0.000000000000000000, 0.000000000000000000 ) ) ;
#144 = CARTESIAN_POINT ( 'NONE',  ( 0.000000000000000000, 0.000000000000000000, 207.0000000000000284 ) ) ;
#145 = PLANE ( 'NONE',  #289 ) ;
#146 = LINE ( 'NONE', #334, #138 ) ;
#147 = ADVANCED_FACE ( 'NONE', ( #88, #197 ), #54, .F. ) ;
#148 = DIRECTION ( 'NONE',  ( -0.000000000000000000, -0.000000000000000000, -1.000000000000000000 ) ) ;
#149 = AXIS2_PLACEMENT_3D ( 'NONE', #357, #258, #227 ) ;
#150 = CARTESIAN_POINT ( 'NONE',  ( -4.099999999999999645, 0.000000000000000000, 207.0000000000000284 ) ) ;
#151 = DIRECTION ( 'NONE',  ( -0.000000000000000000, -0.000000000000000000, -1.000000000000000000 ) ) ;
#152 = DIRECTION ( 'NONE',  ( 0.000000000000000000, 0.000000000000000000, 1.000000000000000000 ) ) ;
#153 = AXIS2_PLACEMENT_3D ( 'NONE', #62, #148, #364 ) ;
#154 = VECTOR ( 'NONE', #141, 1000.000000000000000 ) ;
#155 = APPROVAL_ROLE ( '' ) ;
#156 = ORIENTED_EDGE ( 'NONE', *, *, #331, .F. ) ;
#157 = CARTESIAN_POINT ( 'NONE',  ( 0.000000000000000000, 0.000000000000000000, 207.0000000000000284 ) ) ;
#158 = ORIENTED_EDGE ( 'NONE', *, *, #226, .F. ) ;
#159 = COORDINATED_UNIVERSAL_TIME_OFFSET ( 1, 0, .AHEAD. ) ;
#160 = VERTEX_POINT ( 'NONE', #179 ) ;
#161 = LOCAL_TIME ( 16, 34, 51.00000000000000000, #57 ) ;
#162 = EDGE_LOOP ( 'NONE', ( #362, #107 ) ) ;
#163 = ORIENTED_EDGE ( 'NONE', *, *, #229, .F. ) ;
#164 = DATE_AND_TIME ( #354, #183 ) ;
#165 = EDGE_CURVE ( 'NONE', #296, #46, #361, .T. ) ;
#166 = DIRECTION ( 'NONE',  ( 1.000000000000000000, 0.000000000000000000, 0.000000000000000000 ) ) ;
#167 = CARTESIAN_POINT ( 'NONE',  ( 4.099999999999999645, 5.021051876504146399E-16, 0.000000000000000000 ) ) ;
#168 = DIRECTION ( 'NONE',  ( 0.000000000000000000, 0.000000000000000000, 1.000000000000000000 ) ) ;
#169 = DIRECTION ( 'NONE',  ( 0.000000000000000000, 0.000000000000000000, 1.000000000000000000 ) ) ;
#170 = APPROVAL_DATE_TIME ( #293, #320 ) ;
#171 = AXIS2_PLACEMENT_3D ( 'NONE', #243, #368, #8 ) ;
#172 = CARTESIAN_POINT ( 'NONE',  ( 0.000000000000000000, 0.000000000000000000, 207.0000000000000284 ) ) ;
#173 = CIRCLE ( 'NONE', #171, 10.00000000000000000 ) ;
#174 = CARTESIAN_POINT ( 'NONE',  ( -10.00000000000000000, 0.000000000000000000, 7.000000000000000000 ) ) ;
#175 = DIRECTION ( 'NONE',  ( 1.000000000000000000, 0.000000000000000000, 0.000000000000000000 ) ) ;
#176 = DIRECTION ( 'NONE',  ( 0.000000000000000000, 0.000000000000000000, 1.000000000000000000 ) ) ;
#177 = PLANE ( 'NONE',  #191 ) ;
#178 = ADVANCED_FACE ( 'NONE', ( #208 ), #93, .F. ) ;
#179 = CARTESIAN_POINT ( 'NONE',  ( 6.700000000000001066, 0.000000000000000000, 7.000000000000006217 ) ) ;
#180 = CYLINDRICAL_SURFACE ( 'NONE', #110, 4.099999999999999645 ) ;
#181 = SECURITY_CLASSIFICATION ( '', '', #200 ) ;
#182 = AXIS2_PLACEMENT_3D ( 'NONE', #301, #209, #304 ) ;
#183 = LOCAL_TIME ( 16, 34, 51.00000000000000000, #23 ) ;
#184 = DATE_AND_TIME ( #338, #202 ) ;
#185 = ORIENTED_EDGE ( 'NONE', *, *, #70, .F. ) ;
#186 = APPROVAL ( #73, 'NEURÈENÝ' ) ;
#187 = ORIENTED_EDGE ( 'NONE', *, *, #276, .T. ) ;
#188 = APPROVAL_DATE_TIME ( #78, #115 ) ;
#189 = ORIENTED_EDGE ( 'NONE', *, *, #86, .F. ) ;
#190 = CIRCLE ( 'NONE', #281, 4.099999999999999645 ) ;
#191 = AXIS2_PLACEMENT_3D ( 'NONE', #67, #6, #272 ) ;
#192 = PERSON_AND_ORGANIZATION ( #257, #329 ) ;
#193 = ORIENTED_EDGE ( 'NONE', *, *, #229, .T. ) ;
#194 = ORIENTED_EDGE ( 'NONE', *, *, #140, .F. ) ;
#195 = APPROVAL_ROLE ( '' ) ;
#196 = DIRECTION ( 'NONE',  ( -0.000000000000000000, -0.000000000000000000, -1.000000000000000000 ) ) ;
#197 = FACE_OUTER_BOUND ( 'NONE', #252, .T. ) ;
#198 = CC_DESIGN_PERSON_AND_ORGANIZATION_ASSIGNMENT ( #309, #40, ( #378 ) ) ;
#199 = CARTESIAN_POINT ( 'NONE',  ( 6.000000000000000888, 7.347880794884120722E-16, 207.0000000000000284 ) ) ;
#200 = SECURITY_CLASSIFICATION_LEVEL ( 'unclassified' ) ;
#201 = FACE_BOUND ( 'NONE', #313, .T. ) ;
#202 = LOCAL_TIME ( 16, 34, 51.00000000000000000, #286 ) ;
#203 = CARTESIAN_POINT ( 'NONE',  ( 0.000000000000000000, 0.000000000000000000, 207.0000000000000284 ) ) ;
#204 = CIRCLE ( 'NONE', #223, 10.00000000000000000 ) ;
#205 = CIRCLE ( 'NONE', #80, 6.000000000000000888 ) ;
#206 = DIRECTION ( 'NONE',  ( 0.000000000000000000, 0.000000000000000000, -1.000000000000000000 ) ) ;
#207 = ORIENTED_EDGE ( 'NONE', *, *, #49, .T. ) ;
#208 = FACE_OUTER_BOUND ( 'NONE', #344, .T. ) ;
#209 = DIRECTION ( 'NONE',  ( 0.000000000000000000, 0.000000000000000000, 1.000000000000000000 ) ) ;
#210 = AXIS2_PLACEMENT_3D ( 'NONE', #306, #237, #9 ) ;
#211 = DIRECTION ( 'NONE',  ( 1.000000000000000000, 0.000000000000000000, 0.000000000000000000 ) ) ;
#212 = MECHANICAL_CONTEXT ( 'NONE', #311, 'mechanical' ) ;
#213 = ORIENTED_EDGE ( 'NONE', *, *, #49, .F. ) ;
#214 = AXIS2_PLACEMENT_3D ( 'NONE', #56, #168, #294 ) ;
#215 = CC_DESIGN_PERSON_AND_ORGANIZATION_ASSIGNMENT ( #85, #89, ( #181 ) ) ;
#216 = APPLICATION_PROTOCOL_DEFINITION ( 'international standard', 'config_control_design', 1994, #356 ) ;
#217 = ORIENTED_EDGE ( 'NONE', *, *, #165, .F. ) ;
#218 = ORIENTED_EDGE ( 'NONE', *, *, #303, .T. ) ;
#219 = PERSON_AND_ORGANIZATION ( #257, #329 ) ;
#220 = EDGE_CURVE ( 'NONE', #371, #333, #139, .T. ) ;
#221 = ORIENTED_EDGE ( 'NONE', *, *, #84, .T. ) ;
#222 = CC_DESIGN_SECURITY_CLASSIFICATION ( #181, ( #378 ) ) ;
#223 = AXIS2_PLACEMENT_3D ( 'NONE', #5, #381, #166 ) ;
#224 = ORIENTED_EDGE ( 'NONE', *, *, #76, .F. ) ;
#225 = CARTESIAN_POINT ( 'NONE',  ( 0.000000000000000000, 0.000000000000000000, 7.700000000000012612 ) ) ;
#226 = EDGE_CURVE ( 'NONE', #137, #77, #267, .T. ) ;
#227 = DIRECTION ( 'NONE',  ( -1.000000000000000000, 0.000000000000000000, 0.000000000000000000 ) ) ;
#228 = AXIS2_PLACEMENT_3D ( 'NONE', #225, #52, #358 ) ;
#229 = EDGE_CURVE ( 'NONE', #333, #371, #268, .T. ) ;
#230 = CC_DESIGN_APPROVAL ( #320, ( #181 ) ) ;
#231 = DIRECTION ( 'NONE',  ( -0.000000000000000000, -0.000000000000000000, -1.000000000000000000 ) ) ;
#232 = DIRECTION ( 'NONE',  ( 0.000000000000000000, 0.000000000000000000, 1.000000000000000000 ) ) ;
#233 = CIRCLE ( 'NONE', #98, 10.00000000000000000 ) ;
#234 = DIRECTION ( 'NONE',  ( 0.000000000000000000, 0.000000000000000000, 1.000000000000000000 ) ) ;
#235 = AXIS2_PLACEMENT_3D ( 'NONE', #69, #95, #36 ) ;
#236 = ORIENTED_EDGE ( 'NONE', *, *, #264, .T. ) ;
#237 = DIRECTION ( 'NONE',  ( -0.000000000000000000, -0.000000000000000000, -1.000000000000000000 ) ) ;
#238 = CARTESIAN_POINT ( 'NONE',  ( 0.000000000000000000, 0.000000000000000000, 7.000000000000000000 ) ) ;
#239 = DIRECTION ( 'NONE',  ( 0.000000000000000000, 0.000000000000000000, -1.000000000000000000 ) ) ;
#240 = AXIS2_PLACEMENT_3D ( 'NONE', #266, #12, #206 ) ;
#241 = CLOSED_SHELL ( 'NONE', ( #142, #48, #87, #283, #372, #274, #147, #20, #34, #178, #367 ) ) ;
#242 = CIRCLE ( 'NONE', #3, 6.700000000000001066 ) ;
#243 = CARTESIAN_POINT ( 'NONE',  ( 0.000000000000000000, 0.000000000000000000, 0.000000000000000000 ) ) ;
#244 = CALENDAR_DATE ( 2022, 8, 7 ) ;
#245 = VERTEX_POINT ( 'NONE', #174 ) ;
#246 =( NAMED_UNIT ( * ) SI_UNIT ( $, .STERADIAN. ) SOLID_ANGLE_UNIT ( ) );
#247 = EDGE_LOOP ( 'NONE', ( #74, #124, #375, #193 ) ) ;
#248 =( NAMED_UNIT ( * ) PLANE_ANGLE_UNIT ( ) SI_UNIT ( $, .RADIAN. ) );
#249 = ORIENTED_EDGE ( 'NONE', *, *, #264, .F. ) ;
#250 = CARTESIAN_POINT ( 'NONE',  ( -6.700000000000001066, 8.205133554287267548E-16, 7.000000000000006217 ) ) ;
#251 = EDGE_CURVE ( 'NONE', #377, #160, #262, .T. ) ;
#252 = EDGE_LOOP ( 'NONE', ( #287, #310 ) ) ;
#253 = ORIENTED_EDGE ( 'NONE', *, *, #220, .T. ) ;
#254 = AXIS2_PLACEMENT_3D ( 'NONE', #99, #234, #211 ) ;
#255 = CIRCLE ( 'NONE', #111, 0.7000000000000000666 ) ;
#256 = APPROVAL_PERSON_ORGANIZATION ( #219, #115, #155 ) ;
#257 = PERSON ( 'NEURÈENÝ', 'NEURÈENÝ', 'NEURÈENÝ', ('NEURÈENÝ'), ('NEURÈENÝ'), ('NEURÈENÝ') ) ;
#258 = DIRECTION ( 'NONE',  ( 0.000000000000000000, 0.000000000000000000, -1.000000000000000000 ) ) ;
#259 = CARTESIAN_POINT ( 'NONE',  ( 10.00000000000000000, 1.224646799147353256E-15, 7.000000000000000000 ) ) ;
#260 = PRODUCT_DEFINITION ( 'NEZNÁMÝ', '', #378, #369 ) ;
#261 = CARTESIAN_POINT ( 'NONE',  ( 0.000000000000000000, 0.000000000000000000, 207.0000000000000284 ) ) ;
#262 = CIRCLE ( 'NONE', #24, 6.700000000000001066 ) ;
#263 = EDGE_LOOP ( 'NONE', ( #285, #280 ) ) ;
#264 = EDGE_CURVE ( 'NONE', #137, #296, #29, .T. ) ;
#265 = FACE_OUTER_BOUND ( 'NONE', #278, .T. ) ;
#266 = CARTESIAN_POINT ( 'NONE',  ( 6.700000000000001066, 0.000000000000000000, 7.700000000000012612 ) ) ;
#267 = LINE ( 'NONE', #127, #122 ) ;
#268 = CIRCLE ( 'NONE', #103, 6.000000000000000888 ) ;
#269 = EDGE_CURVE ( 'NONE', #77, #46, #61, .T. ) ;
#270 = DIRECTION ( 'NONE',  ( 1.000000000000000000, 0.000000000000000000, 0.000000000000000000 ) ) ;
#271 = DIRECTION ( 'NONE',  ( -0.000000000000000000, -0.000000000000000000, -1.000000000000000000 ) ) ;
#272 = DIRECTION ( 'NONE',  ( 1.000000000000000000, 0.000000000000000000, -0.000000000000000000 ) ) ;
#273 = AXIS2_PLACEMENT_3D ( 'NONE', #75, #132, #277 ) ;
#274 = ADVANCED_FACE ( 'NONE', ( #32, #363 ), #177, .T. ) ;
#275 = ORIENTED_EDGE ( 'NONE', *, *, #76, .T. ) ;
#276 = EDGE_CURVE ( 'NONE', #371, #160, #297, .T. ) ;
#277 = DIRECTION ( 'NONE',  ( -1.000000000000000000, 0.000000000000000000, 0.000000000000000000 ) ) ;
#278 = EDGE_LOOP ( 'NONE', ( #318, #221 ) ) ;
#279 = DIRECTION ( 'NONE',  ( 1.000000000000000000, 0.000000000000000000, 0.000000000000000000 ) ) ;
#280 = ORIENTED_EDGE ( 'NONE', *, *, #86, .T. ) ;
#281 = AXIS2_PLACEMENT_3D ( 'NONE', #119, #232, #60 ) ;
#282 = APPROVAL_PERSON_ORGANIZATION ( #326, #320, #195 ) ;
#283 = ADVANCED_FACE ( 'NONE', ( #332 ), #305, .T. ) ;
#284 = DATE_AND_TIME ( #345, #349 ) ;
#285 = ORIENTED_EDGE ( 'NONE', *, *, #352, .T. ) ;
#286 = COORDINATED_UNIVERSAL_TIME_OFFSET ( 1, 0, .AHEAD. ) ;
#287 = ORIENTED_EDGE ( 'NONE', *, *, #303, .F. ) ;
#288 = CYLINDRICAL_SURFACE ( 'NONE', #299, 6.000000000000000888 ) ;
#289 = AXIS2_PLACEMENT_3D ( 'NONE', #261, #169, #327 ) ;
#290 = DIRECTION ( 'NONE',  ( 0.000000000000000000, 0.000000000000000000, 1.000000000000000000 ) ) ;
#291 = CC_DESIGN_PERSON_AND_ORGANIZATION_ASSIGNMENT ( #192, #312, ( #378 ) ) ;
#292 = EDGE_CURVE ( 'NONE', #136, #79, #173, .T. ) ;
#293 = DATE_AND_TIME ( #59, #161 ) ;
#294 = DIRECTION ( 'NONE',  ( 1.000000000000000000, 0.000000000000000000, -0.000000000000000000 ) ) ;
#295 = SHAPE_DEFINITION_REPRESENTATION ( #106, #316 ) ;
#296 = VERTEX_POINT ( 'NONE', #35 ) ;
#297 = CIRCLE ( 'NONE', #240, 0.7000000000000000666 ) ;
#298 = EDGE_CURVE ( 'NONE', #17, #371, #10, .T. ) ;
#299 = AXIS2_PLACEMENT_3D ( 'NONE', #144, #26, #58 ) ;
#300 = DIRECTION ( 'NONE',  ( -0.000000000000000000, -0.000000000000000000, -1.000000000000000000 ) ) ;
#301 = CARTESIAN_POINT ( 'NONE',  ( 0.000000000000000000, 0.000000000000000000, 7.700000000000012612 ) ) ;
#302 = DIRECTION ( 'NONE',  ( 0.000000000000000000, 0.000000000000000000, 1.000000000000000000 ) ) ;
#303 = EDGE_CURVE ( 'NONE', #79, #136, #233, .T. ) ;
#304 = DIRECTION ( 'NONE',  ( 1.000000000000000000, 0.000000000000000000, 0.000000000000000000 ) ) ;
#305 = CYLINDRICAL_SURFACE ( 'NONE', #153, 10.00000000000000000 ) ;
#306 = CARTESIAN_POINT ( 'NONE',  ( 0.000000000000000000, 0.000000000000000000, 0.000000000000000000 ) ) ;
#307 = DIRECTION ( 'NONE',  ( 0.000000000000000000, 0.000000000000000000, 1.000000000000000000 ) ) ;
#308 = VECTOR ( 'NONE', #33, 1000.000000000000000 ) ;
#309 = PERSON_AND_ORGANIZATION ( #257, #329 ) ;
#310 = ORIENTED_EDGE ( 'NONE', *, *, #292, .F. ) ;
#311 = APPLICATION_CONTEXT ( 'configuration controlled 3d designs of mechanical parts and assemblies' ) ;
#312 = PERSON_AND_ORGANIZATION_ROLE ( 'creator' ) ;
#313 = EDGE_LOOP ( 'NONE', ( #185, #249 ) ) ;
#314 = APPROVAL_DATE_TIME ( #184, #186 ) ;
#315 = EDGE_LOOP ( 'NONE', ( #224, #379 ) ) ;
#316 = ADVANCED_BREP_SHAPE_REPRESENTATION ( '9643', ( #55, #130 ), #346 ) ;
#317 = PERSON_AND_ORGANIZATION_ROLE ( 'design_owner' ) ;
#318 = ORIENTED_EDGE ( 'NONE', *, *, #321, .T. ) ;
#319 = LINE ( 'NONE', #259, #154 ) ;
#320 = APPROVAL ( #113, 'NEURÈENÝ' ) ;
#321 = EDGE_CURVE ( 'NONE', #82, #17, #205, .T. ) ;
#322 = CARTESIAN_POINT ( 'NONE',  ( 4.099999999999999645, 5.021051876504146399E-16, 207.0000000000000284 ) ) ;
#323 = FACE_OUTER_BOUND ( 'NONE', #104, .T. ) ;
#324 = DATE_TIME_ROLE ( 'classification_date' ) ;
#325 = CARTESIAN_POINT ( 'NONE',  ( 0.000000000000000000, 0.000000000000000000, 0.000000000000000000 ) ) ;
#326 = PERSON_AND_ORGANIZATION ( #257, #329 ) ;
#327 = DIRECTION ( 'NONE',  ( 1.000000000000000000, 0.000000000000000000, -0.000000000000000000 ) ) ;
#328 = AXIS2_PLACEMENT_3D ( 'NONE', #172, #300, #143 ) ;
#329 = ORGANIZATION ( 'NEURÈENÝ', 'NEURÈENÝ', '' ) ;
#330 = DIRECTION ( 'NONE',  ( -0.000000000000000000, -0.000000000000000000, -1.000000000000000000 ) ) ;
#331 = EDGE_CURVE ( 'NONE', #82, #333, #146, .T. ) ;
#332 = FACE_OUTER_BOUND ( 'NONE', #342, .T. ) ;
#333 = VERTEX_POINT ( 'NONE', #126 ) ;
#334 = CARTESIAN_POINT ( 'NONE',  ( -6.000000000000000888, 0.000000000000000000, 207.0000000000000284 ) ) ;
#335 = APPROVAL_PERSON_ORGANIZATION ( #101, #186, #43 ) ;
#336 = CARTESIAN_POINT ( 'NONE',  ( 0.000000000000000000, 0.000000000000000000, 7.700000000000012612 ) ) ;
#337 = CARTESIAN_POINT ( 'NONE',  ( 0.000000000000000000, 0.000000000000000000, 0.000000000000000000 ) ) ;
#338 = CALENDAR_DATE ( 2022, 8, 7 ) ;
#339 = EDGE_LOOP ( 'NONE', ( #194, #22, #207, #218 ) ) ;
#340 = EDGE_CURVE ( 'NONE', #160, #377, #242, .T. ) ;
#341 = DATE_TIME_ROLE ( 'creation_date' ) ;
#342 = EDGE_LOOP ( 'NONE', ( #189, #109, #19, #213 ) ) ;
#343 = APPROVAL_STATUS ( 'not_yet_approved' ) ;
#344 = EDGE_LOOP ( 'NONE', ( #14, #102, #187, #44 ) ) ;
#345 = CALENDAR_DATE ( 2022, 8, 7 ) ;
#346 =( GEOMETRIC_REPRESENTATION_CONTEXT ( 3 ) GLOBAL_UNCERTAINTY_ASSIGNED_CONTEXT ( ( #65 ) ) GLOBAL_UNIT_ASSIGNED_CONTEXT ( ( #108, #248, #246 ) ) REPRESENTATION_CONTEXT ( 'NONE', 'WORKASPACE' ) );
#347 = ORIENTED_EDGE ( 'NONE', *, *, #226, .T. ) ;
#348 = CIRCLE ( 'NONE', #380, 6.000000000000000888 ) ;
#349 = LOCAL_TIME ( 16, 34, 51.00000000000000000, #50 ) ;
#350 = EDGE_LOOP ( 'NONE', ( #163, #81, #41, #51 ) ) ;
#351 = CC_DESIGN_PERSON_AND_ORGANIZATION_ASSIGNMENT ( #38, #317, ( #53 ) ) ;
#352 = EDGE_CURVE ( 'NONE', #245, #133, #360, .T. ) ;
#353 = CARTESIAN_POINT ( 'NONE',  ( 10.00000000000000000, 1.224646799147353256E-15, 0.000000000000000000 ) ) ;
#354 = CALENDAR_DATE ( 2022, 8, 7 ) ;
#355 = CYLINDRICAL_SURFACE ( 'NONE', #328, 6.000000000000000888 ) ;
#356 = APPLICATION_CONTEXT ( 'configuration controlled 3d designs of mechanical parts and assemblies' ) ;
#357 = CARTESIAN_POINT ( 'NONE',  ( 0.000000000000000000, 0.000000000000000000, 207.0000000000000284 ) ) ;
#358 = DIRECTION ( 'NONE',  ( 1.000000000000000000, 0.000000000000000000, 0.000000000000000000 ) ) ;
#359 = CARTESIAN_POINT ( 'NONE',  ( 10.00000000000000000, 1.224646799147353256E-15, 7.000000000000000000 ) ) ;
#360 = CIRCLE ( 'NONE', #128, 10.00000000000000000 ) ;
#361 = LINE ( 'NONE', #150, #37 ) ;
#362 = ORIENTED_EDGE ( 'NONE', *, *, #340, .T. ) ;
#363 = FACE_OUTER_BOUND ( 'NONE', #263, .T. ) ;
#364 = DIRECTION ( 'NONE',  ( -1.000000000000000000, 0.000000000000000000, 0.000000000000000000 ) ) ;
#365 = TOROIDAL_SURFACE ( 'NONE', #228, 6.700000000000001066, 0.6999999999999999556 ) ;
#366 = DIRECTION ( 'NONE',  ( 1.000000000000000000, 0.000000000000000000, 0.000000000000000000 ) ) ;
#367 = ADVANCED_FACE ( 'NONE', ( #71 ), #180, .F. ) ;
#368 = DIRECTION ( 'NONE',  ( 0.000000000000000000, 0.000000000000000000, 1.000000000000000000 ) ) ;
#369 = DESIGN_CONTEXT ( 'detailed design', #356, 'design' ) ;
#370 = PERSON_AND_ORGANIZATION ( #257, #329 ) ;
#371 = VERTEX_POINT ( 'NONE', #105 ) ;
#372 = ADVANCED_FACE ( 'NONE', ( #45 ), #18, .T. ) ;
#373 = PERSON_AND_ORGANIZATION_ROLE ( 'creator' ) ;
#374 = ORIENTED_EDGE ( 'NONE', *, *, #70, .T. ) ;
#375 = ORIENTED_EDGE ( 'NONE', *, *, #331, .T. ) ;
#376 = APPLICATION_PROTOCOL_DEFINITION ( 'international standard', 'config_control_design', 1994, #311 ) ;
#377 = VERTEX_POINT ( 'NONE', #250 ) ;
#378 = PRODUCT_DEFINITION_FORMATION_WITH_SPECIFIED_SOURCE ( 'LIBOVOLNÝ', '', #53, .NOT_KNOWN. ) ;
#379 = ORIENTED_EDGE ( 'NONE', *, *, #269, .F. ) ;
#380 = AXIS2_PLACEMENT_3D ( 'NONE', #91, #290, #2 ) ;
#381 = DIRECTION ( 'NONE',  ( 0.000000000000000000, 0.000000000000000000, 1.000000000000000000 ) ) ;
ENDSEC;
END-ISO-10303-21;
