ISO-10303-21;
HEADER;
FILE_DESCRIPTION (( 'STEP AP203' ),
    '1' );
FILE_NAME ('e571.STEP',
    '2022-07-08T15:38:15',
    ( '' ),
    ( '' ),
    'SwSTEP 2.0',
    'SolidWorks 2019',
    '' );
FILE_SCHEMA (( 'CONFIG_CONTROL_DESIGN' ));
ENDSEC;

DATA;
#1 = CIRCLE ( 'NONE', #301, 3.000000000000000444 ) ;
#2 = CARTESIAN_POINT ( 'NONE',  ( 3.500000000000000444, 0.000000000000000000, 5.000000000000002665 ) ) ;
#3 = CIRCLE ( 'NONE', #293, 3.000000000000000444 ) ;
#4 = LOCAL_TIME ( 17, 38, 15.00000000000000000, #347 ) ;
#5 = CARTESIAN_POINT ( 'NONE',  ( -3.000000000000000444, 0.000000000000000000, 5.500000000000005329 ) ) ;
#6 = APPROVAL_DATE_TIME ( #121, #219 ) ;
#7 = DIRECTION ( 'NONE',  ( -0.000000000000000000, -0.000000000000000000, -1.000000000000000000 ) ) ;
#8 = ADVANCED_FACE ( 'NONE', ( #52 ), #133, .F. ) ;
#9 = CARTESIAN_POINT ( 'NONE',  ( -3.500000000000000444, 4.286263797015737088E-16, 5.000000000000002665 ) ) ;
#10 = CC_DESIGN_APPROVAL ( #209, ( #113 ) ) ;
#11 = AXIS2_PLACEMENT_3D ( 'NONE', #188, #248, #70 ) ;
#12 = CARTESIAN_POINT ( 'NONE',  ( 0.000000000000000000, 0.000000000000000000, 5.500000000000005329 ) ) ;
#13 = CARTESIAN_POINT ( 'NONE',  ( 3.000000000000000444, 3.673940397442060361E-16, 355.0000000000000000 ) ) ;
#14 = DIRECTION ( 'NONE',  ( 0.000000000000000000, 0.000000000000000000, 1.000000000000000000 ) ) ;
#15 = DIRECTION ( 'NONE',  ( 1.000000000000000000, 0.000000000000000000, 0.000000000000000000 ) ) ;
#16 = CARTESIAN_POINT ( 'NONE',  ( 3.500000000000000444, 0.000000000000000000, 5.500000000000005329 ) ) ;
#17 = PERSON_AND_ORGANIZATION ( #168, #175 ) ;
#18 = ORIENTED_EDGE ( 'NONE', *, *, #240, .F. ) ;
#19 = APPLICATION_CONTEXT ( 'configuration controlled 3d designs of mechanical parts and assemblies' ) ;
#20 = DATE_TIME_ROLE ( 'creation_date' ) ;
#21 = EDGE_CURVE ( 'NONE', #274, #143, #153, .T. ) ;
#22 = ORIENTED_EDGE ( 'NONE', *, *, #21, .T. ) ;
#23 = APPROVAL_STATUS ( 'not_yet_approved' ) ;
#24 = ORIENTED_EDGE ( 'NONE', *, *, #374, .F. ) ;
#25 = ADVANCED_FACE ( 'NONE', ( #283, #239 ), #354, .T. ) ;
#26 = CIRCLE ( 'NONE', #31, 3.000000000000000444 ) ;
#27 = LINE ( 'NONE', #381, #181 ) ;
#28 = FACE_BOUND ( 'NONE', #169, .T. ) ;
#29 = DIRECTION ( 'NONE',  ( 1.000000000000000000, 0.000000000000000000, -0.000000000000000000 ) ) ;
#30 = LOCAL_TIME ( 17, 38, 15.00000000000000000, #257 ) ;
#31 = AXIS2_PLACEMENT_3D ( 'NONE', #12, #244, #218 ) ;
#32 = FACE_OUTER_BOUND ( 'NONE', #201, .T. ) ;
#33 = CC_DESIGN_PERSON_AND_ORGANIZATION_ASSIGNMENT ( #144, #56, ( #84 ) ) ;
#34 = CARTESIAN_POINT ( 'NONE',  ( 0.000000000000000000, 0.000000000000000000, 5.000000000000000000 ) ) ;
#35 = AXIS2_PLACEMENT_3D ( 'NONE', #297, #300, #213 ) ;
#36 = CARTESIAN_POINT ( 'NONE',  ( 0.000000000000000000, 0.000000000000000000, 5.000000000000000000 ) ) ;
#37 = CC_DESIGN_PERSON_AND_ORGANIZATION_ASSIGNMENT ( #17, #372, ( #113 ) ) ;
#38 = CIRCLE ( 'NONE', #159, 3.000000000000000444 ) ;
#39 = CARTESIAN_POINT ( 'NONE',  ( -3.000000000000000444, 0.000000000000000000, 355.0000000000000000 ) ) ;
#40 = ORIENTED_EDGE ( 'NONE', *, *, #332, .T. ) ;
#41 = DIRECTION ( 'NONE',  ( -0.000000000000000000, -0.000000000000000000, -1.000000000000000000 ) ) ;
#42 = VERTEX_POINT ( 'NONE', #324 ) ;
#43 = CIRCLE ( 'NONE', #96, 6.000000000000000888 ) ;
#44 = FACE_OUTER_BOUND ( 'NONE', #75, .T. ) ;
#45 = LOCAL_TIME ( 17, 38, 15.00000000000000000, #287 ) ;
#46 = DIRECTION ( 'NONE',  ( -1.000000000000000000, 0.000000000000000000, 0.000000000000000000 ) ) ;
#47 = ADVANCED_FACE ( 'NONE', ( #28, #298 ), #263, .T. ) ;
#48 = VERTEX_POINT ( 'NONE', #64 ) ;
#49 = PERSON_AND_ORGANIZATION ( #168, #175 ) ;
#50 = ORIENTED_EDGE ( 'NONE', *, *, #66, .T. ) ;
#51 = AXIS2_PLACEMENT_3D ( 'NONE', #355, #7, #123 ) ;
#52 = FACE_OUTER_BOUND ( 'NONE', #252, .T. ) ;
#53 = DIRECTION ( 'NONE',  ( 1.000000000000000000, 0.000000000000000000, 0.000000000000000000 ) ) ;
#54 = CIRCLE ( 'NONE', #316, 1.750000000000000000 ) ;
#55 = PERSON_AND_ORGANIZATION ( #168, #175 ) ;
#56 = PERSON_AND_ORGANIZATION_ROLE ( 'design_supplier' ) ;
#57 = VERTEX_POINT ( 'NONE', #2 ) ;
#58 = DIRECTION ( 'NONE',  ( 0.000000000000000000, 0.000000000000000000, 1.000000000000000000 ) ) ;
#59 = CALENDAR_DATE ( 2022, 8, 7 ) ;
#60 = CARTESIAN_POINT ( 'NONE',  ( -6.000000000000000888, 0.000000000000000000, 5.000000000000000000 ) ) ;
#61 = DIRECTION ( 'NONE',  ( 0.000000000000000000, 0.000000000000000000, -1.000000000000000000 ) ) ;
#62 = EDGE_CURVE ( 'NONE', #48, #228, #375, .T. ) ;
#63 = CARTESIAN_POINT ( 'NONE',  ( 0.000000000000000000, 0.000000000000000000, 0.000000000000000000 ) ) ;
#64 = CARTESIAN_POINT ( 'NONE',  ( 1.750000000000000000, 2.143131898507868297E-16, 355.0000000000000000 ) ) ;
#65 = DIRECTION ( 'NONE',  ( 1.000000000000000000, 0.000000000000000000, 0.000000000000000000 ) ) ;
#66 = EDGE_CURVE ( 'NONE', #147, #197, #43, .T. ) ;
#67 = DIRECTION ( 'NONE',  ( -1.000000000000000000, 0.000000000000000000, 0.000000000000000000 ) ) ;
#68 = VERTEX_POINT ( 'NONE', #150 ) ;
#69 = CIRCLE ( 'NONE', #198, 3.500000000000000444 ) ;
#70 = DIRECTION ( 'NONE',  ( 1.000000000000000000, 0.000000000000000000, 0.000000000000000000 ) ) ;
#71 = ORIENTED_EDGE ( 'NONE', *, *, #374, .T. ) ;
#72 = CYLINDRICAL_SURFACE ( 'NONE', #222, 6.000000000000000888 ) ;
#73 = EDGE_CURVE ( 'NONE', #57, #118, #145, .T. ) ;
#74 = DIRECTION ( 'NONE',  ( -0.000000000000000000, -0.000000000000000000, -1.000000000000000000 ) ) ;
#75 = EDGE_LOOP ( 'NONE', ( #110, #194, #112, #305 ) ) ;
#76 = APPROVAL_DATE_TIME ( #231, #296 ) ;
#77 = CIRCLE ( 'NONE', #264, 1.750000000000000000 ) ;
#78 = ORIENTED_EDGE ( 'NONE', *, *, #362, .F. ) ;
#79 =( NAMED_UNIT ( * ) PLANE_ANGLE_UNIT ( ) SI_UNIT ( $, .RADIAN. ) );
#80 = ORIENTED_EDGE ( 'NONE', *, *, #338, .T. ) ;
#81 = CLOSED_SHELL ( 'NONE', ( #179, #312, #292, #215, #255, #47, #94, #151, #25, #8, #243 ) ) ;
#82 = ORIENTED_EDGE ( 'NONE', *, *, #362, .T. ) ;
#83 = DATE_TIME_ROLE ( 'classification_date' ) ;
#84 = PRODUCT_DEFINITION_FORMATION_WITH_SPECIFIED_SOURCE ( 'LIBOVOLNÝ', '', #189, .NOT_KNOWN. ) ;
#85 = EDGE_LOOP ( 'NONE', ( #371, #320, #105, #71 ) ) ;
#86 = DATE_AND_TIME ( #341, #4 ) ;
#87 = VERTEX_POINT ( 'NONE', #271 ) ;
#88 = DIRECTION ( 'NONE',  ( 0.000000000000000000, 0.000000000000000000, 1.000000000000000000 ) ) ;
#89 = CIRCLE ( 'NONE', #195, 0.4999999999999995559 ) ;
#90 = DIRECTION ( 'NONE',  ( -1.000000000000000000, 0.000000000000000000, 0.000000000000000000 ) ) ;
#91 = SECURITY_CLASSIFICATION ( '', '', #199 ) ;
#92 = VECTOR ( 'NONE', #184, 1000.000000000000000 ) ;
#93 = CARTESIAN_POINT ( 'NONE',  ( -6.000000000000000888, 0.000000000000000000, 0.000000000000000000 ) ) ;
#94 = ADVANCED_FACE ( 'NONE', ( #267, #32 ), #325, .F. ) ;
#95 = DIRECTION ( 'NONE',  ( 1.000000000000000000, 0.000000000000000000, 0.000000000000000000 ) ) ;
#96 = AXIS2_PLACEMENT_3D ( 'NONE', #212, #295, #95 ) ;
#97 = DIRECTION ( 'NONE',  ( 0.000000000000000000, 0.000000000000000000, -1.000000000000000000 ) ) ;
#98 = ADVANCED_BREP_SHAPE_REPRESENTATION ( 'e571', ( #256, #128 ), #129 ) ;
#99 = EDGE_CURVE ( 'NONE', #207, #118, #89, .T. ) ;
#100 = DIRECTION ( 'NONE',  ( 0.000000000000000000, 0.000000000000000000, 1.000000000000000000 ) ) ;
#101 = DIRECTION ( 'NONE',  ( 0.000000000000000000, 0.000000000000000000, 1.000000000000000000 ) ) ;
#102 = EDGE_LOOP ( 'NONE', ( #348, #18 ) ) ;
#103 = VECTOR ( 'NONE', #97, 1000.000000000000000 ) ;
#104 = CARTESIAN_POINT ( 'NONE',  ( 0.000000000000000000, 0.000000000000000000, 355.0000000000000000 ) ) ;
#105 = ORIENTED_EDGE ( 'NONE', *, *, #380, .T. ) ;
#106 = AXIS2_PLACEMENT_3D ( 'NONE', #139, #166, #46 ) ;
#107 = CARTESIAN_POINT ( 'NONE',  ( 0.000000000000000000, 0.000000000000000000, 0.000000000000000000 ) ) ;
#108 = CC_DESIGN_PERSON_AND_ORGANIZATION_ASSIGNMENT ( #49, #254, ( #189 ) ) ;
#109 = FACE_OUTER_BOUND ( 'NONE', #233, .T. ) ;
#110 = ORIENTED_EDGE ( 'NONE', *, *, #21, .F. ) ;
#111 = DIRECTION ( 'NONE',  ( 1.000000000000000000, 0.000000000000000000, 0.000000000000000000 ) ) ;
#112 = ORIENTED_EDGE ( 'NONE', *, *, #356, .T. ) ;
#113 = PRODUCT_DEFINITION ( 'NEZNÁMÝ', '', #84, #235 ) ;
#114 = ORIENTED_EDGE ( 'NONE', *, *, #99, .T. ) ;
#115 = APPROVAL_ROLE ( '' ) ;
#116 = DIRECTION ( 'NONE',  ( -0.000000000000000000, -0.000000000000000000, -1.000000000000000000 ) ) ;
#117 = AXIS2_PLACEMENT_3D ( 'NONE', #261, #315, #349 ) ;
#118 = VERTEX_POINT ( 'NONE', #9 ) ;
#119 = VECTOR ( 'NONE', #41, 1000.000000000000000 ) ;
#120 = ORIENTED_EDGE ( 'NONE', *, *, #170, .T. ) ;
#121 = DATE_AND_TIME ( #59, #227 ) ;
#122 = DIRECTION ( 'NONE',  ( 1.000000000000000000, 0.000000000000000000, -0.000000000000000000 ) ) ;
#123 = DIRECTION ( 'NONE',  ( 1.000000000000000000, 0.000000000000000000, 0.000000000000000000 ) ) ;
#124 = APPROVAL_PERSON_ORGANIZATION ( #55, #296, #251 ) ;
#125 = DIRECTION ( 'NONE',  ( -1.000000000000000000, 1.224646799147354440E-16, 0.000000000000000000 ) ) ;
#126 = DIRECTION ( 'NONE',  ( 1.000000000000000000, 0.000000000000000000, 0.000000000000000000 ) ) ;
#127 = CARTESIAN_POINT ( 'NONE',  ( 0.000000000000000000, 0.000000000000000000, 355.0000000000000000 ) ) ;
#128 = AXIS2_PLACEMENT_3D ( 'NONE', #291, #178, #53 ) ;
#129 =( GEOMETRIC_REPRESENTATION_CONTEXT ( 3 ) GLOBAL_UNCERTAINTY_ASSIGNED_CONTEXT ( ( #266 ) ) GLOBAL_UNIT_ASSIGNED_CONTEXT ( ( #340, #79, #204 ) ) REPRESENTATION_CONTEXT ( 'NONE', 'WORKASPACE' ) );
#130 = LINE ( 'NONE', #363, #137 ) ;
#131 = CARTESIAN_POINT ( 'NONE',  ( -1.750000000000000000, 0.000000000000000000, 355.0000000000000000 ) ) ;
#132 = ORIENTED_EDGE ( 'NONE', *, *, #307, .T. ) ;
#133 = TOROIDAL_SURFACE ( 'NONE', #117, 3.500000000000000444, 0.5000000000000000000 ) ;
#134 = FACE_OUTER_BOUND ( 'NONE', #200, .T. ) ;
#135 = EDGE_CURVE ( 'NONE', #310, #207, #1, .T. ) ;
#136 = ORIENTED_EDGE ( 'NONE', *, *, #338, .F. ) ;
#137 = VECTOR ( 'NONE', #359, 1000.000000000000000 ) ;
#138 = CARTESIAN_POINT ( 'NONE',  ( 3.000000000000000444, 3.673940397442060361E-16, 5.500000000000005329 ) ) ;
#139 = CARTESIAN_POINT ( 'NONE',  ( 0.000000000000000000, 0.000000000000000000, 355.0000000000000000 ) ) ;
#140 = EDGE_CURVE ( 'NONE', #48, #42, #241, .T. ) ;
#141 = CALENDAR_DATE ( 2022, 8, 7 ) ;
#142 = ORIENTED_EDGE ( 'NONE', *, *, #135, .F. ) ;
#143 = VERTEX_POINT ( 'NONE', #152 ) ;
#144 = PERSON_AND_ORGANIZATION ( #168, #175 ) ;
#145 = CIRCLE ( 'NONE', #51, 3.500000000000000444 ) ;
#146 = PERSON_AND_ORGANIZATION ( #168, #175 ) ;
#147 = VERTEX_POINT ( 'NONE', #93 ) ;
#148 = DATE_AND_TIME ( #141, #30 ) ;
#149 = EDGE_LOOP ( 'NONE', ( #334, #164, #329, #191 ) ) ;
#150 = CARTESIAN_POINT ( 'NONE',  ( -3.000000000000000444, 0.000000000000000000, 355.0000000000000000 ) ) ;
#151 = ADVANCED_FACE ( 'NONE', ( #216 ), #294, .T. ) ;
#152 = CARTESIAN_POINT ( 'NONE',  ( -6.000000000000000888, 0.000000000000000000, 5.000000000000000000 ) ) ;
#153 = CIRCLE ( 'NONE', #172, 6.000000000000000888 ) ;
#154 = CARTESIAN_POINT ( 'NONE',  ( 6.000000000000000888, 7.347880794884120722E-16, 0.000000000000000000 ) ) ;
#155 = CIRCLE ( 'NONE', #326, 1.750000000000000000 ) ;
#156 = DIRECTION ( 'NONE',  ( 1.224646799147353207E-16, 1.000000000000000000, -0.000000000000000000 ) ) ;
#157 = DIRECTION ( 'NONE',  ( 1.000000000000000000, 0.000000000000000000, 0.000000000000000000 ) ) ;
#158 = DIRECTION ( 'NONE',  ( 1.000000000000000000, 0.000000000000000000, 0.000000000000000000 ) ) ;
#159 = AXIS2_PLACEMENT_3D ( 'NONE', #104, #14, #220 ) ;
#160 = CYLINDRICAL_SURFACE ( 'NONE', #299, 3.000000000000000444 ) ;
#161 = ORIENTED_EDGE ( 'NONE', *, *, #272, .T. ) ;
#162 = EDGE_CURVE ( 'NONE', #143, #274, #174, .T. ) ;
#163 = CARTESIAN_POINT ( 'NONE',  ( 0.000000000000000000, 0.000000000000000000, 355.0000000000000000 ) ) ;
#164 = ORIENTED_EDGE ( 'NONE', *, *, #268, .T. ) ;
#165 = AXIS2_PLACEMENT_3D ( 'NONE', #34, #58, #122 ) ;
#166 = DIRECTION ( 'NONE',  ( 0.000000000000000000, 0.000000000000000000, -1.000000000000000000 ) ) ;
#167 = DIRECTION ( 'NONE',  ( 1.000000000000000000, 0.000000000000000000, 0.000000000000000000 ) ) ;
#168 = PERSON ( 'NEURÈENÝ', 'NEURÈENÝ', 'NEURÈENÝ', ('NEURÈENÝ'), ('NEURÈENÝ'), ('NEURÈENÝ') ) ;
#169 = EDGE_LOOP ( 'NONE', ( #318, #82 ) ) ;
#170 = EDGE_CURVE ( 'NONE', #228, #208, #27, .T. ) ;
#171 = ORIENTED_EDGE ( 'NONE', *, *, #99, .F. ) ;
#172 = AXIS2_PLACEMENT_3D ( 'NONE', #177, #88, #288 ) ;
#173 = APPROVAL_STATUS ( 'not_yet_approved' ) ;
#174 = CIRCLE ( 'NONE', #253, 6.000000000000000888 ) ;
#175 = ORGANIZATION ( 'NEURÈENÝ', 'NEURÈENÝ', '' ) ;
#176 = APPROVAL_DATE_TIME ( #313, #209 ) ;
#177 = CARTESIAN_POINT ( 'NONE',  ( 0.000000000000000000, 0.000000000000000000, 5.000000000000000000 ) ) ;
#178 = DIRECTION ( 'NONE',  ( 0.000000000000000000, 0.000000000000000000, 1.000000000000000000 ) ) ;
#179 = ADVANCED_FACE ( 'NONE', ( #353 ), #234, .F. ) ;
#180 = DIRECTION ( 'NONE',  ( 0.000000000000000000, 0.000000000000000000, 1.000000000000000000 ) ) ;
#181 = VECTOR ( 'NONE', #236, 1000.000000000000000 ) ;
#182 = EDGE_CURVE ( 'NONE', #143, #147, #210, .T. ) ;
#183 = DIRECTION ( 'NONE',  ( 0.000000000000000000, 0.000000000000000000, 1.000000000000000000 ) ) ;
#184 = DIRECTION ( 'NONE',  ( -0.000000000000000000, -0.000000000000000000, -1.000000000000000000 ) ) ;
#185 = DIRECTION ( 'NONE',  ( 0.000000000000000000, 0.000000000000000000, 1.000000000000000000 ) ) ;
#186 = APPROVAL_PERSON_ORGANIZATION ( #260, #219, #337 ) ;
#187 = DIRECTION ( 'NONE',  ( -0.000000000000000000, -0.000000000000000000, -1.000000000000000000 ) ) ;
#188 = CARTESIAN_POINT ( 'NONE',  ( 0.000000000000000000, 0.000000000000000000, 5.500000000000005329 ) ) ;
#189 = PRODUCT ( 'e571', 'e571', '', ( #285 ) ) ;
#190 = DIRECTION ( 'NONE',  ( -1.000000000000000000, 0.000000000000000000, 0.000000000000000000 ) ) ;
#191 = ORIENTED_EDGE ( 'NONE', *, *, #380, .F. ) ;
#192 = CARTESIAN_POINT ( 'NONE',  ( 0.000000000000000000, 0.000000000000000000, 355.0000000000000000 ) ) ;
#193 = CYLINDRICAL_SURFACE ( 'NONE', #237, 6.000000000000000888 ) ;
#194 = ORIENTED_EDGE ( 'NONE', *, *, #230, .T. ) ;
#195 = AXIS2_PLACEMENT_3D ( 'NONE', #323, #156, #125 ) ;
#196 = FACE_OUTER_BOUND ( 'NONE', #226, .T. ) ;
#197 = VERTEX_POINT ( 'NONE', #154 ) ;
#198 = AXIS2_PLACEMENT_3D ( 'NONE', #36, #302, #158 ) ;
#199 = SECURITY_CLASSIFICATION_LEVEL ( 'unclassified' ) ;
#200 = EDGE_LOOP ( 'NONE', ( #24, #114, #232, #136 ) ) ;
#201 = EDGE_LOOP ( 'NONE', ( #246, #342 ) ) ;
#202 = APPLICATION_PROTOCOL_DEFINITION ( 'international standard', 'config_control_design', 1994, #19 ) ;
#203 = CC_DESIGN_PERSON_AND_ORGANIZATION_ASSIGNMENT ( #146, #259, ( #84 ) ) ;
#204 =( NAMED_UNIT ( * ) SI_UNIT ( $, .STERADIAN. ) SOLID_ANGLE_UNIT ( ) );
#205 = ORIENTED_EDGE ( 'NONE', *, *, #240, .T. ) ;
#206 = COORDINATED_UNIVERSAL_TIME_OFFSET ( 1, 0, .AHEAD. ) ;
#207 = VERTEX_POINT ( 'NONE', #5 ) ;
#208 = VERTEX_POINT ( 'NONE', #276 ) ;
#209 = APPROVAL ( #173, 'NEURÈENÝ' ) ;
#210 = LINE ( 'NONE', #60, #92 ) ;
#211 = CIRCLE ( 'NONE', #364, 6.000000000000000888 ) ;
#212 = CARTESIAN_POINT ( 'NONE',  ( 0.000000000000000000, 0.000000000000000000, 0.000000000000000000 ) ) ;
#213 = DIRECTION ( 'NONE',  ( 1.000000000000000000, 0.000000000000000000, -0.000000000000000000 ) ) ;
#214 = AXIS2_PLACEMENT_3D ( 'NONE', #127, #180, #157 ) ;
#215 = ADVANCED_FACE ( 'NONE', ( #44 ), #72, .T. ) ;
#216 = FACE_OUTER_BOUND ( 'NONE', #85, .T. ) ;
#217 = DIRECTION ( 'NONE',  ( 1.000000000000000000, 0.000000000000000000, 0.000000000000000000 ) ) ;
#218 = DIRECTION ( 'NONE',  ( 1.000000000000000000, 0.000000000000000000, 0.000000000000000000 ) ) ;
#219 = APPROVAL ( #367, 'NEURÈENÝ' ) ;
#220 = DIRECTION ( 'NONE',  ( 1.000000000000000000, 0.000000000000000000, 0.000000000000000000 ) ) ;
#221 = CIRCLE ( 'NONE', #357, 0.5000000000000004441 ) ;
#222 = AXIS2_PLACEMENT_3D ( 'NONE', #275, #224, #330 ) ;
#223 = FACE_OUTER_BOUND ( 'NONE', #149, .T. ) ;
#224 = DIRECTION ( 'NONE',  ( -0.000000000000000000, -0.000000000000000000, -1.000000000000000000 ) ) ;
#225 = APPLICATION_CONTEXT ( 'configuration controlled 3d designs of mechanical parts and assemblies' ) ;
#226 = EDGE_LOOP ( 'NONE', ( #373, #247, #379, #50 ) ) ;
#227 = LOCAL_TIME ( 17, 38, 15.00000000000000000, #378 ) ;
#228 = VERTEX_POINT ( 'NONE', #131 ) ;
#229 = CALENDAR_DATE ( 2022, 8, 7 ) ;
#230 = EDGE_CURVE ( 'NONE', #274, #197, #130, .T. ) ;
#231 = DATE_AND_TIME ( #289, #344 ) ;
#232 = ORIENTED_EDGE ( 'NONE', *, *, #73, .F. ) ;
#233 = EDGE_LOOP ( 'NONE', ( #250, #377, #120, #40 ) ) ;
#234 = CYLINDRICAL_SURFACE ( 'NONE', #321, 1.750000000000000000 ) ;
#235 = DESIGN_CONTEXT ( 'detailed design', #225, 'design' ) ;
#236 = DIRECTION ( 'NONE',  ( 0.000000000000000000, 0.000000000000000000, -1.000000000000000000 ) ) ;
#237 = AXIS2_PLACEMENT_3D ( 'NONE', #303, #361, #67 ) ;
#238 = SHAPE_DEFINITION_REPRESENTATION ( #360, #98 ) ;
#239 = FACE_OUTER_BOUND ( 'NONE', #280, .T. ) ;
#240 = EDGE_CURVE ( 'NONE', #42, #208, #77, .T. ) ;
#241 = LINE ( 'NONE', #262, #103 ) ;
#242 = CARTESIAN_POINT ( 'NONE',  ( 0.000000000000000000, 0.000000000000000000, 355.0000000000000000 ) ) ;
#243 = ADVANCED_FACE ( 'NONE', ( #109 ), #327, .F. ) ;
#244 = DIRECTION ( 'NONE',  ( 0.000000000000000000, 0.000000000000000000, 1.000000000000000000 ) ) ;
#245 = CARTESIAN_POINT ( 'NONE',  ( 0.000000000000000000, 0.000000000000000000, 355.0000000000000000 ) ) ;
#246 = ORIENTED_EDGE ( 'NONE', *, *, #66, .F. ) ;
#247 = ORIENTED_EDGE ( 'NONE', *, *, #162, .F. ) ;
#248 = DIRECTION ( 'NONE',  ( 0.000000000000000000, 0.000000000000000000, 1.000000000000000000 ) ) ;
#249 = DIRECTION ( 'NONE',  ( 0.000000000000000000, -1.000000000000000000, 0.000000000000000000 ) ) ;
#250 = ORIENTED_EDGE ( 'NONE', *, *, #140, .F. ) ;
#251 = APPROVAL_ROLE ( '' ) ;
#252 = EDGE_LOOP ( 'NONE', ( #171, #142, #80, #78 ) ) ;
#253 = AXIS2_PLACEMENT_3D ( 'NONE', #322, #100, #217 ) ;
#254 = PERSON_AND_ORGANIZATION_ROLE ( 'design_owner' ) ;
#255 = ADVANCED_FACE ( 'NONE', ( #196 ), #193, .T. ) ;
#256 = MANIFOLD_SOLID_BREP ( 'Odebrat vysunutím3', #81 ) ;
#257 = COORDINATED_UNIVERSAL_TIME_OFFSET ( 1, 0, .AHEAD. ) ;
#258 = EDGE_LOOP ( 'NONE', ( #314, #277 ) ) ;
#259 = PERSON_AND_ORGANIZATION_ROLE ( 'creator' ) ;
#260 = PERSON_AND_ORGANIZATION ( #168, #175 ) ;
#261 = CARTESIAN_POINT ( 'NONE',  ( 0.000000000000000000, 0.000000000000000000, 5.500000000000005329 ) ) ;
#262 = CARTESIAN_POINT ( 'NONE',  ( 1.750000000000000000, 2.143131898507868297E-16, 355.0000000000000000 ) ) ;
#263 = PLANE ( 'NONE',  #165 ) ;
#264 = AXIS2_PLACEMENT_3D ( 'NONE', #107, #74, #15 ) ;
#265 = CC_DESIGN_APPROVAL ( #219, ( #91 ) ) ;
#266 = UNCERTAINTY_MEASURE_WITH_UNIT (LENGTH_MEASURE( 1.000000000000000082E-05 ), #340, 'distance_accuracy_value', 'NONE');
#267 = FACE_BOUND ( 'NONE', #102, .T. ) ;
#268 = EDGE_CURVE ( 'NONE', #87, #310, #281, .T. ) ;
#269 = AXIS2_PLACEMENT_3D ( 'NONE', #242, #187, #358 ) ;
#270 = CARTESIAN_POINT ( 'NONE',  ( 0.000000000000000000, 0.000000000000000000, 5.500000000000005329 ) ) ;
#271 = CARTESIAN_POINT ( 'NONE',  ( 3.000000000000000444, 3.673940397442060361E-16, 355.0000000000000000 ) ) ;
#272 = EDGE_CURVE ( 'NONE', #68, #87, #3, .T. ) ;
#273 = DIRECTION ( 'NONE',  ( 0.000000000000000000, 0.000000000000000000, -1.000000000000000000 ) ) ;
#274 = VERTEX_POINT ( 'NONE', #278 ) ;
#275 = CARTESIAN_POINT ( 'NONE',  ( 0.000000000000000000, 0.000000000000000000, 5.000000000000000000 ) ) ;
#276 = CARTESIAN_POINT ( 'NONE',  ( -1.750000000000000000, 0.000000000000000000, 0.000000000000000000 ) ) ;
#277 = ORIENTED_EDGE ( 'NONE', *, *, #62, .F. ) ;
#278 = CARTESIAN_POINT ( 'NONE',  ( 6.000000000000000888, 7.347880794884120722E-16, 5.000000000000000000 ) ) ;
#279 = PRODUCT_RELATED_PRODUCT_CATEGORY ( 'detail', '', ( #189 ) ) ;
#280 = EDGE_LOOP ( 'NONE', ( #161, #132 ) ) ;
#281 = LINE ( 'NONE', #13, #119 ) ;
#282 = ORIENTED_EDGE ( 'NONE', *, *, #140, .T. ) ;
#283 = FACE_BOUND ( 'NONE', #258, .T. ) ;
#284 = CC_DESIGN_PERSON_AND_ORGANIZATION_ASSIGNMENT ( #343, #376, ( #91 ) ) ;
#285 = MECHANICAL_CONTEXT ( 'NONE', #19, 'mechanical' ) ;
#286 = EDGE_LOOP ( 'NONE', ( #339, #22 ) ) ;
#287 = COORDINATED_UNIVERSAL_TIME_OFFSET ( 1, 0, .AHEAD. ) ;
#288 = DIRECTION ( 'NONE',  ( 1.000000000000000000, 0.000000000000000000, 0.000000000000000000 ) ) ;
#289 = CALENDAR_DATE ( 2022, 8, 7 ) ;
#290 = EDGE_LOOP ( 'NONE', ( #369, #282, #205, #311 ) ) ;
#291 = CARTESIAN_POINT ( 'NONE',  ( 0.000000000000000000, 0.000000000000000000, 0.000000000000000000 ) ) ;
#292 = ADVANCED_FACE ( 'NONE', ( #223 ), #160, .T. ) ;
#293 = AXIS2_PLACEMENT_3D ( 'NONE', #245, #308, #65 ) ;
#294 = CYLINDRICAL_SURFACE ( 'NONE', #269, 3.000000000000000444 ) ;
#295 = DIRECTION ( 'NONE',  ( 0.000000000000000000, 0.000000000000000000, 1.000000000000000000 ) ) ;
#296 = APPROVAL ( #23, 'NEURÈENÝ' ) ;
#297 = CARTESIAN_POINT ( 'NONE',  ( 0.000000000000000000, 0.000000000000000000, 355.0000000000000000 ) ) ;
#298 = FACE_OUTER_BOUND ( 'NONE', #286, .T. ) ;
#299 = AXIS2_PLACEMENT_3D ( 'NONE', #163, #333, #190 ) ;
#300 = DIRECTION ( 'NONE',  ( 0.000000000000000000, 0.000000000000000000, 1.000000000000000000 ) ) ;
#301 = AXIS2_PLACEMENT_3D ( 'NONE', #270, #183, #126 ) ;
#302 = DIRECTION ( 'NONE',  ( -0.000000000000000000, -0.000000000000000000, -1.000000000000000000 ) ) ;
#303 = CARTESIAN_POINT ( 'NONE',  ( 0.000000000000000000, 0.000000000000000000, 5.000000000000000000 ) ) ;
#304 = CC_DESIGN_SECURITY_CLASSIFICATION ( #91, ( #84 ) ) ;
#305 = ORIENTED_EDGE ( 'NONE', *, *, #182, .F. ) ;
#306 = DIRECTION ( 'NONE',  ( 1.000000000000000000, 0.000000000000000000, 0.000000000000000000 ) ) ;
#307 = EDGE_CURVE ( 'NONE', #87, #68, #38, .T. ) ;
#308 = DIRECTION ( 'NONE',  ( 0.000000000000000000, 0.000000000000000000, 1.000000000000000000 ) ) ;
#309 = DIRECTION ( 'NONE',  ( -0.000000000000000000, -0.000000000000000000, -1.000000000000000000 ) ) ;
#310 = VERTEX_POINT ( 'NONE', #138 ) ;
#311 = ORIENTED_EDGE ( 'NONE', *, *, #170, .F. ) ;
#312 = ADVANCED_FACE ( 'NONE', ( #134 ), #346, .F. ) ;
#313 = DATE_AND_TIME ( #229, #45 ) ;
#314 = ORIENTED_EDGE ( 'NONE', *, *, #319, .F. ) ;
#315 = DIRECTION ( 'NONE',  ( 0.000000000000000000, 0.000000000000000000, 1.000000000000000000 ) ) ;
#316 = AXIS2_PLACEMENT_3D ( 'NONE', #365, #309, #167 ) ;
#317 = PERSON_AND_ORGANIZATION ( #168, #175 ) ;
#318 = ORIENTED_EDGE ( 'NONE', *, *, #73, .T. ) ;
#319 = EDGE_CURVE ( 'NONE', #228, #48, #155, .T. ) ;
#320 = ORIENTED_EDGE ( 'NONE', *, *, #272, .F. ) ;
#321 = AXIS2_PLACEMENT_3D ( 'NONE', #350, #61, #90 ) ;
#322 = CARTESIAN_POINT ( 'NONE',  ( 0.000000000000000000, 0.000000000000000000, 5.000000000000000000 ) ) ;
#323 = CARTESIAN_POINT ( 'NONE',  ( -3.500000000000000444, 4.286263797015737088E-16, 5.500000000000005329 ) ) ;
#324 = CARTESIAN_POINT ( 'NONE',  ( 1.750000000000000000, 2.143131898507868297E-16, 0.000000000000000000 ) ) ;
#325 = PLANE ( 'NONE',  #336 ) ;
#326 = AXIS2_PLACEMENT_3D ( 'NONE', #192, #335, #306 ) ;
#327 = CYLINDRICAL_SURFACE ( 'NONE', #106, 1.750000000000000000 ) ;
#328 = LINE ( 'NONE', #39, #352 ) ;
#329 = ORIENTED_EDGE ( 'NONE', *, *, #135, .T. ) ;
#330 = DIRECTION ( 'NONE',  ( -1.000000000000000000, 0.000000000000000000, 0.000000000000000000 ) ) ;
#331 = APPROVAL_PERSON_ORGANIZATION ( #317, #209, #115 ) ;
#332 = EDGE_CURVE ( 'NONE', #208, #42, #54, .T. ) ;
#333 = DIRECTION ( 'NONE',  ( -0.000000000000000000, -0.000000000000000000, -1.000000000000000000 ) ) ;
#334 = ORIENTED_EDGE ( 'NONE', *, *, #307, .F. ) ;
#335 = DIRECTION ( 'NONE',  ( 0.000000000000000000, 0.000000000000000000, 1.000000000000000000 ) ) ;
#336 = AXIS2_PLACEMENT_3D ( 'NONE', #63, #185, #29 ) ;
#337 = APPROVAL_ROLE ( '' ) ;
#338 = EDGE_CURVE ( 'NONE', #310, #57, #221, .T. ) ;
#339 = ORIENTED_EDGE ( 'NONE', *, *, #162, .T. ) ;
#340 =( LENGTH_UNIT ( ) NAMED_UNIT ( * ) SI_UNIT ( .MILLI., .METRE. ) );
#341 = CALENDAR_DATE ( 2022, 8, 7 ) ;
#342 = ORIENTED_EDGE ( 'NONE', *, *, #356, .F. ) ;
#343 = PERSON_AND_ORGANIZATION ( #168, #175 ) ;
#344 = LOCAL_TIME ( 17, 38, 15.00000000000000000, #206 ) ;
#345 = CC_DESIGN_DATE_AND_TIME_ASSIGNMENT ( #148, #83, ( #91 ) ) ;
#346 = TOROIDAL_SURFACE ( 'NONE', #11, 3.500000000000000444, 0.5000000000000000000 ) ;
#347 = COORDINATED_UNIVERSAL_TIME_OFFSET ( 1, 0, .AHEAD. ) ;
#348 = ORIENTED_EDGE ( 'NONE', *, *, #332, .F. ) ;
#349 = DIRECTION ( 'NONE',  ( 1.000000000000000000, 0.000000000000000000, 0.000000000000000000 ) ) ;
#350 = CARTESIAN_POINT ( 'NONE',  ( 0.000000000000000000, 0.000000000000000000, 355.0000000000000000 ) ) ;
#351 = CC_DESIGN_DATE_AND_TIME_ASSIGNMENT ( #86, #20, ( #113 ) ) ;
#352 = VECTOR ( 'NONE', #116, 1000.000000000000000 ) ;
#353 = FACE_OUTER_BOUND ( 'NONE', #290, .T. ) ;
#354 = PLANE ( 'NONE',  #35 ) ;
#355 = CARTESIAN_POINT ( 'NONE',  ( 0.000000000000000000, 0.000000000000000000, 5.000000000000000000 ) ) ;
#356 = EDGE_CURVE ( 'NONE', #197, #147, #211, .T. ) ;
#357 = AXIS2_PLACEMENT_3D ( 'NONE', #16, #249, #273 ) ;
#358 = DIRECTION ( 'NONE',  ( -1.000000000000000000, 0.000000000000000000, 0.000000000000000000 ) ) ;
#359 = DIRECTION ( 'NONE',  ( -0.000000000000000000, -0.000000000000000000, -1.000000000000000000 ) ) ;
#360 = PRODUCT_DEFINITION_SHAPE ( 'NONE', 'NONE',  #113 ) ;
#361 = DIRECTION ( 'NONE',  ( -0.000000000000000000, -0.000000000000000000, -1.000000000000000000 ) ) ;
#362 = EDGE_CURVE ( 'NONE', #118, #57, #69, .T. ) ;
#363 = CARTESIAN_POINT ( 'NONE',  ( 6.000000000000000888, 7.347880794884120722E-16, 5.000000000000000000 ) ) ;
#364 = AXIS2_PLACEMENT_3D ( 'NONE', #366, #101, #111 ) ;
#365 = CARTESIAN_POINT ( 'NONE',  ( 0.000000000000000000, 0.000000000000000000, 0.000000000000000000 ) ) ;
#366 = CARTESIAN_POINT ( 'NONE',  ( 0.000000000000000000, 0.000000000000000000, 0.000000000000000000 ) ) ;
#367 = APPROVAL_STATUS ( 'not_yet_approved' ) ;
#368 = CC_DESIGN_APPROVAL ( #296, ( #84 ) ) ;
#369 = ORIENTED_EDGE ( 'NONE', *, *, #319, .T. ) ;
#370 = APPLICATION_PROTOCOL_DEFINITION ( 'international standard', 'config_control_design', 1994, #225 ) ;
#371 = ORIENTED_EDGE ( 'NONE', *, *, #268, .F. ) ;
#372 = PERSON_AND_ORGANIZATION_ROLE ( 'creator' ) ;
#373 = ORIENTED_EDGE ( 'NONE', *, *, #230, .F. ) ;
#374 = EDGE_CURVE ( 'NONE', #207, #310, #26, .T. ) ;
#375 = CIRCLE ( 'NONE', #214, 1.750000000000000000 ) ;
#376 = PERSON_AND_ORGANIZATION_ROLE ( 'classification_officer' ) ;
#377 = ORIENTED_EDGE ( 'NONE', *, *, #62, .T. ) ;
#378 = COORDINATED_UNIVERSAL_TIME_OFFSET ( 1, 0, .AHEAD. ) ;
#379 = ORIENTED_EDGE ( 'NONE', *, *, #182, .T. ) ;
#380 = EDGE_CURVE ( 'NONE', #68, #207, #328, .T. ) ;
#381 = CARTESIAN_POINT ( 'NONE',  ( -1.750000000000000000, 0.000000000000000000, 355.0000000000000000 ) ) ;
ENDSEC;
END-ISO-10303-21;
