ISO-10303-21;
HEADER;
FILE_DESCRIPTION (( 'STEP AP203' ),
    '1' );
FILE_NAME ('dcd0.STEP',
    '2022-07-08T15:37:48',
    ( '' ),
    ( '' ),
    'SwSTEP 2.0',
    'SolidWorks 2019',
    '' );
FILE_SCHEMA (( 'CONFIG_CONTROL_DESIGN' ));
ENDSEC;

DATA;
#1 = CARTESIAN_POINT ( 'NONE',  ( 0.000000000000000000, 0.000000000000000000, 5.500000000000005329 ) ) ;
#2 = ORIENTED_EDGE ( 'NONE', *, *, #271, .F. ) ;
#3 = CALENDAR_DATE ( 2022, 8, 7 ) ;
#4 = ORIENTED_EDGE ( 'NONE', *, *, #374, .T. ) ;
#5 = APPROVAL_STATUS ( 'not_yet_approved' ) ;
#6 = ORIENTED_EDGE ( 'NONE', *, *, #47, .T. ) ;
#7 = EDGE_CURVE ( 'NONE', #30, #127, #42, .T. ) ;
#8 = CARTESIAN_POINT ( 'NONE',  ( 0.000000000000000000, 0.000000000000000000, 505.0000000000000000 ) ) ;
#9 = ORIENTED_EDGE ( 'NONE', *, *, #40, .F. ) ;
#10 = DESIGN_CONTEXT ( 'detailed design', #180, 'design' ) ;
#11 = DIRECTION ( 'NONE',  ( -1.000000000000000000, 0.000000000000000000, 0.000000000000000000 ) ) ;
#12 = APPROVAL_DATE_TIME ( #272, #227 ) ;
#13 = CARTESIAN_POINT ( 'NONE',  ( 0.000000000000000000, 0.000000000000000000, 505.0000000000000000 ) ) ;
#14 = EDGE_CURVE ( 'NONE', #128, #181, #76, .T. ) ;
#15 = DIRECTION ( 'NONE',  ( 0.000000000000000000, 0.000000000000000000, 1.000000000000000000 ) ) ;
#16 = MANIFOLD_SOLID_BREP ( 'Odebrat vysunutím3', #119 ) ;
#17 = CARTESIAN_POINT ( 'NONE',  ( 6.000000000000000888, 7.347880794884120722E-16, 5.000000000000000000 ) ) ;
#18 = DIRECTION ( 'NONE',  ( 1.000000000000000000, 0.000000000000000000, 0.000000000000000000 ) ) ;
#19 = SECURITY_CLASSIFICATION ( '', '', #162 ) ;
#20 = CARTESIAN_POINT ( 'NONE',  ( 0.000000000000000000, 0.000000000000000000, 0.000000000000000000 ) ) ;
#21 = CARTESIAN_POINT ( 'NONE',  ( 0.000000000000000000, 0.000000000000000000, 5.500000000000005329 ) ) ;
#22 = CARTESIAN_POINT ( 'NONE',  ( 0.000000000000000000, 0.000000000000000000, 0.000000000000000000 ) ) ;
#23 = CC_DESIGN_PERSON_AND_ORGANIZATION_ASSIGNMENT ( #151, #316, ( #28 ) ) ;
#24 = LOCAL_TIME ( 17, 37, 48.00000000000000000, #184 ) ;
#25 = DIRECTION ( 'NONE',  ( 0.000000000000000000, 0.000000000000000000, 1.000000000000000000 ) ) ;
#26 = DIRECTION ( 'NONE',  ( 1.224646799147353207E-16, 1.000000000000000000, -0.000000000000000000 ) ) ;
#27 = VECTOR ( 'NONE', #109, 1000.000000000000000 ) ;
#28 = PRODUCT_DEFINITION ( 'NEZNÁMÝ', '', #137, #10 ) ;
#29 = APPROVAL_ROLE ( '' ) ;
#30 = VERTEX_POINT ( 'NONE', #277 ) ;
#31 = CARTESIAN_POINT ( 'NONE',  ( 0.000000000000000000, 0.000000000000000000, 505.0000000000000000 ) ) ;
#32 = VERTEX_POINT ( 'NONE', #364 ) ;
#33 = COORDINATED_UNIVERSAL_TIME_OFFSET ( 1, 0, .AHEAD. ) ;
#34 = ORIENTED_EDGE ( 'NONE', *, *, #73, .F. ) ;
#35 = AXIS2_PLACEMENT_3D ( 'NONE', #309, #84, #310 ) ;
#36 = EDGE_LOOP ( 'NONE', ( #150, #2 ) ) ;
#37 = PLANE ( 'NONE',  #179 ) ;
#38 = ORIENTED_EDGE ( 'NONE', *, *, #258, .T. ) ;
#39 = CYLINDRICAL_SURFACE ( 'NONE', #235, 1.750000000000000000 ) ;
#40 = EDGE_CURVE ( 'NONE', #63, #125, #74, .T. ) ;
#41 = DIRECTION ( 'NONE',  ( -0.000000000000000000, -0.000000000000000000, -1.000000000000000000 ) ) ;
#42 = LINE ( 'NONE', #160, #144 ) ;
#43 = LINE ( 'NONE', #108, #371 ) ;
#44 = PERSON_AND_ORGANIZATION ( #153, #198 ) ;
#45 = CARTESIAN_POINT ( 'NONE',  ( 3.500000000000000444, 0.000000000000000000, 5.000000000000002665 ) ) ;
#46 = CIRCLE ( 'NONE', #35, 3.000000000000000444 ) ;
#47 = EDGE_CURVE ( 'NONE', #360, #230, #201, .T. ) ;
#48 = CARTESIAN_POINT ( 'NONE',  ( 0.000000000000000000, 0.000000000000000000, 5.000000000000000000 ) ) ;
#49 = APPROVAL_PERSON_ORGANIZATION ( #133, #240, #249 ) ;
#50 = DIRECTION ( 'NONE',  ( -0.000000000000000000, -0.000000000000000000, -1.000000000000000000 ) ) ;
#51 = ORIENTED_EDGE ( 'NONE', *, *, #283, .T. ) ;
#52 = CIRCLE ( 'NONE', #264, 6.000000000000000888 ) ;
#53 = PLANE ( 'NONE',  #338 ) ;
#54 = VECTOR ( 'NONE', #104, 1000.000000000000000 ) ;
#55 = DIRECTION ( 'NONE',  ( 1.000000000000000000, 0.000000000000000000, -0.000000000000000000 ) ) ;
#56 = CARTESIAN_POINT ( 'NONE',  ( 0.000000000000000000, 0.000000000000000000, 5.000000000000000000 ) ) ;
#57 = EDGE_LOOP ( 'NONE', ( #64, #265, #357, #326 ) ) ;
#58 = ADVANCED_FACE ( 'NONE', ( #189 ), #87, .F. ) ;
#59 = PRODUCT_DEFINITION_SHAPE ( 'NONE', 'NONE',  #28 ) ;
#60 = CARTESIAN_POINT ( 'NONE',  ( 0.000000000000000000, 0.000000000000000000, 505.0000000000000000 ) ) ;
#61 = AXIS2_PLACEMENT_3D ( 'NONE', #106, #303, #252 ) ;
#62 = APPLICATION_PROTOCOL_DEFINITION ( 'international standard', 'config_control_design', 1994, #180 ) ;
#63 = VERTEX_POINT ( 'NONE', #17 ) ;
#64 = ORIENTED_EDGE ( 'NONE', *, *, #96, .F. ) ;
#65 = CARTESIAN_POINT ( 'NONE',  ( 0.000000000000000000, 0.000000000000000000, 0.000000000000000000 ) ) ;
#66 = CC_DESIGN_DATE_AND_TIME_ASSIGNMENT ( #333, #304, ( #19 ) ) ;
#67 = EDGE_LOOP ( 'NONE', ( #118, #6 ) ) ;
#68 = AXIS2_PLACEMENT_3D ( 'NONE', #302, #168, #281 ) ;
#69 = ORIENTED_EDGE ( 'NONE', *, *, #271, .T. ) ;
#70 = CIRCLE ( 'NONE', #327, 1.750000000000000000 ) ;
#71 = PERSON_AND_ORGANIZATION_ROLE ( 'design_supplier' ) ;
#72 = ORIENTED_EDGE ( 'NONE', *, *, #194, .T. ) ;
#73 = EDGE_CURVE ( 'NONE', #197, #156, #245, .T. ) ;
#74 = LINE ( 'NONE', #336, #27 ) ;
#75 = SHAPE_DEFINITION_REPRESENTATION ( #59, #236 ) ;
#76 = LINE ( 'NONE', #273, #377 ) ;
#77 = VECTOR ( 'NONE', #221, 1000.000000000000000 ) ;
#78 = DIRECTION ( 'NONE',  ( 1.000000000000000000, 0.000000000000000000, 0.000000000000000000 ) ) ;
#79 = LOCAL_TIME ( 17, 37, 48.00000000000000000, #146 ) ;
#80 = CARTESIAN_POINT ( 'NONE',  ( -6.000000000000000888, 0.000000000000000000, 5.000000000000000000 ) ) ;
#81 = DIRECTION ( 'NONE',  ( 1.000000000000000000, 0.000000000000000000, 0.000000000000000000 ) ) ;
#82 = CARTESIAN_POINT ( 'NONE',  ( 0.000000000000000000, 0.000000000000000000, 5.000000000000000000 ) ) ;
#83 = EDGE_CURVE ( 'NONE', #156, #197, #274, .T. ) ;
#84 = DIRECTION ( 'NONE',  ( 0.000000000000000000, 0.000000000000000000, 1.000000000000000000 ) ) ;
#85 = CARTESIAN_POINT ( 'NONE',  ( 0.000000000000000000, 0.000000000000000000, 0.000000000000000000 ) ) ;
#86 = CIRCLE ( 'NONE', #297, 0.5000000000000004441 ) ;
#87 = TOROIDAL_SURFACE ( 'NONE', #318, 3.500000000000000444, 0.5000000000000000000 ) ;
#88 = DIRECTION ( 'NONE',  ( 1.000000000000000000, 0.000000000000000000, 0.000000000000000000 ) ) ;
#89 = EDGE_LOOP ( 'NONE', ( #182, #209 ) ) ;
#90 = DIRECTION ( 'NONE',  ( 0.000000000000000000, 0.000000000000000000, 1.000000000000000000 ) ) ;
#91 = AXIS2_PLACEMENT_3D ( 'NONE', #22, #141, #255 ) ;
#92 = APPLICATION_PROTOCOL_DEFINITION ( 'international standard', 'config_control_design', 1994, #177 ) ;
#93 = ORIENTED_EDGE ( 'NONE', *, *, #306, .T. ) ;
#94 = DIRECTION ( 'NONE',  ( 0.000000000000000000, 0.000000000000000000, 1.000000000000000000 ) ) ;
#95 = EDGE_LOOP ( 'NONE', ( #98, #260, #244, #152 ) ) ;
#96 = EDGE_CURVE ( 'NONE', #360, #32, #43, .T. ) ;
#97 = DATE_AND_TIME ( #210, #191 ) ;
#98 = ORIENTED_EDGE ( 'NONE', *, *, #306, .F. ) ;
#99 = ORIENTED_EDGE ( 'NONE', *, *, #14, .T. ) ;
#100 = AXIS2_PLACEMENT_3D ( 'NONE', #48, #378, #88 ) ;
#101 = DATE_AND_TIME ( #134, #24 ) ;
#102 = ORIENTED_EDGE ( 'NONE', *, *, #73, .T. ) ;
#103 = ADVANCED_FACE ( 'NONE', ( #192 ), #39, .F. ) ;
#104 = DIRECTION ( 'NONE',  ( 0.000000000000000000, 0.000000000000000000, -1.000000000000000000 ) ) ;
#105 = APPROVAL_STATUS ( 'not_yet_approved' ) ;
#106 = CARTESIAN_POINT ( 'NONE',  ( 0.000000000000000000, 0.000000000000000000, 5.000000000000000000 ) ) ;
#107 = AXIS2_PLACEMENT_3D ( 'NONE', #202, #315, #288 ) ;
#108 = CARTESIAN_POINT ( 'NONE',  ( 3.000000000000000444, 3.673940397442060361E-16, 505.0000000000000000 ) ) ;
#109 = DIRECTION ( 'NONE',  ( -0.000000000000000000, -0.000000000000000000, -1.000000000000000000 ) ) ;
#110 = AXIS2_PLACEMENT_3D ( 'NONE', #65, #352, #262 ) ;
#111 = DIRECTION ( 'NONE',  ( 0.000000000000000000, 0.000000000000000000, -1.000000000000000000 ) ) ;
#112 = CARTESIAN_POINT ( 'NONE',  ( -3.500000000000000444, 4.286263797015737088E-16, 5.500000000000005329 ) ) ;
#113 = AXIS2_PLACEMENT_3D ( 'NONE', #163, #15, #18 ) ;
#114 = ADVANCED_FACE ( 'NONE', ( #135 ), #251, .F. ) ;
#115 = DIRECTION ( 'NONE',  ( 1.000000000000000000, 0.000000000000000000, 0.000000000000000000 ) ) ;
#116 = FACE_BOUND ( 'NONE', #36, .T. ) ;
#117 = CYLINDRICAL_SURFACE ( 'NONE', #107, 6.000000000000000888 ) ;
#118 = ORIENTED_EDGE ( 'NONE', *, *, #183, .T. ) ;
#119 = CLOSED_SHELL ( 'NONE', ( #103, #58, #149, #320, #217, #247, #289, #254, #359, #211, #114 ) ) ;
#120 = EDGE_CURVE ( 'NONE', #230, #238, #187, .T. ) ;
#121 = CIRCLE ( 'NONE', #110, 1.750000000000000000 ) ;
#122 =( NAMED_UNIT ( * ) PLANE_ANGLE_UNIT ( ) SI_UNIT ( $, .RADIAN. ) );
#123 = ORIENTED_EDGE ( 'NONE', *, *, #120, .F. ) ;
#124 =( LENGTH_UNIT ( ) NAMED_UNIT ( * ) SI_UNIT ( .MILLI., .METRE. ) );
#125 = VERTEX_POINT ( 'NONE', #185 ) ;
#126 = COORDINATED_UNIVERSAL_TIME_OFFSET ( 1, 0, .AHEAD. ) ;
#127 = VERTEX_POINT ( 'NONE', #223 ) ;
#128 = VERTEX_POINT ( 'NONE', #80 ) ;
#129 = EDGE_CURVE ( 'NONE', #233, #131, #301, .T. ) ;
#130 = DIRECTION ( 'NONE',  ( 1.000000000000000000, 0.000000000000000000, -0.000000000000000000 ) ) ;
#131 = VERTEX_POINT ( 'NONE', #216 ) ;
#132 = AXIS2_PLACEMENT_3D ( 'NONE', #56, #50, #175 ) ;
#133 = PERSON_AND_ORGANIZATION ( #153, #198 ) ;
#134 = CALENDAR_DATE ( 2022, 8, 7 ) ;
#135 = FACE_OUTER_BOUND ( 'NONE', #300, .T. ) ;
#136 = DIRECTION ( 'NONE',  ( 1.000000000000000000, 0.000000000000000000, 0.000000000000000000 ) ) ;
#137 = PRODUCT_DEFINITION_FORMATION_WITH_SPECIFIED_SOURCE ( 'LIBOVOLNÝ', '', #140, .NOT_KNOWN. ) ;
#138 = FACE_OUTER_BOUND ( 'NONE', #158, .T. ) ;
#139 = DIRECTION ( 'NONE',  ( -1.000000000000000000, 1.224646799147354440E-16, 0.000000000000000000 ) ) ;
#140 = PRODUCT ( 'dcd0', 'dcd0', '', ( #267 ) ) ;
#141 = DIRECTION ( 'NONE',  ( 0.000000000000000000, 0.000000000000000000, 1.000000000000000000 ) ) ;
#142 = DIRECTION ( 'NONE',  ( 1.000000000000000000, 0.000000000000000000, 0.000000000000000000 ) ) ;
#143 = CARTESIAN_POINT ( 'NONE',  ( -3.500000000000000444, 4.286263797015737088E-16, 5.000000000000002665 ) ) ;
#144 = VECTOR ( 'NONE', #111, 1000.000000000000000 ) ;
#145 = AXIS2_PLACEMENT_3D ( 'NONE', #21, #200, #81 ) ;
#146 = COORDINATED_UNIVERSAL_TIME_OFFSET ( 1, 0, .AHEAD. ) ;
#147 = EDGE_LOOP ( 'NONE', ( #242, #38, #263, #319 ) ) ;
#148 = FACE_BOUND ( 'NONE', #89, .T. ) ;
#149 = ADVANCED_FACE ( 'NONE', ( #248 ), #193, .T. ) ;
#150 = ORIENTED_EDGE ( 'NONE', *, *, #374, .F. ) ;
#151 = PERSON_AND_ORGANIZATION ( #153, #198 ) ;
#152 = ORIENTED_EDGE ( 'NONE', *, *, #14, .F. ) ;
#153 = PERSON ( 'NEURÈENÝ', 'NEURÈENÝ', 'NEURÈENÝ', ('NEURÈENÝ'), ('NEURÈENÝ'), ('NEURÈENÝ') ) ;
#154 = CARTESIAN_POINT ( 'NONE',  ( 0.000000000000000000, 0.000000000000000000, 0.000000000000000000 ) ) ;
#155 = CIRCLE ( 'NONE', #346, 0.4999999999999995559 ) ;
#156 = VERTEX_POINT ( 'NONE', #45 ) ;
#157 = PERSON_AND_ORGANIZATION_ROLE ( 'design_owner' ) ;
#158 = EDGE_LOOP ( 'NONE', ( #212, #328, #72, #34 ) ) ;
#159 = CIRCLE ( 'NONE', #222, 3.000000000000000444 ) ;
#160 = CARTESIAN_POINT ( 'NONE',  ( 1.750000000000000000, 2.143131898507868297E-16, 505.0000000000000000 ) ) ;
#161 = AXIS2_PLACEMENT_3D ( 'NONE', #335, #41, #78 ) ;
#162 = SECURITY_CLASSIFICATION_LEVEL ( 'unclassified' ) ;
#163 = CARTESIAN_POINT ( 'NONE',  ( 0.000000000000000000, 0.000000000000000000, 505.0000000000000000 ) ) ;
#164 = DIRECTION ( 'NONE',  ( -0.000000000000000000, -0.000000000000000000, -1.000000000000000000 ) ) ;
#165 = EDGE_CURVE ( 'NONE', #125, #181, #313, .T. ) ;
#166 = AXIS2_PLACEMENT_3D ( 'NONE', #1, #321, #349 ) ;
#167 = CARTESIAN_POINT ( 'NONE',  ( 0.000000000000000000, 0.000000000000000000, 505.0000000000000000 ) ) ;
#168 = DIRECTION ( 'NONE',  ( 0.000000000000000000, 0.000000000000000000, 1.000000000000000000 ) ) ;
#169 = CARTESIAN_POINT ( 'NONE',  ( -1.750000000000000000, 0.000000000000000000, 505.0000000000000000 ) ) ;
#170 = LOCAL_TIME ( 17, 37, 48.00000000000000000, #358 ) ;
#171 = DIRECTION ( 'NONE',  ( 0.000000000000000000, -1.000000000000000000, 0.000000000000000000 ) ) ;
#172 = CYLINDRICAL_SURFACE ( 'NONE', #298, 3.000000000000000444 ) ;
#173 = CARTESIAN_POINT ( 'NONE',  ( 0.000000000000000000, 0.000000000000000000, 5.000000000000000000 ) ) ;
#174 = PRODUCT_RELATED_PRODUCT_CATEGORY ( 'detail', '', ( #140 ) ) ;
#175 = DIRECTION ( 'NONE',  ( -1.000000000000000000, 0.000000000000000000, 0.000000000000000000 ) ) ;
#176 = DIRECTION ( 'NONE',  ( 0.000000000000000000, 0.000000000000000000, 1.000000000000000000 ) ) ;
#177 = APPLICATION_CONTEXT ( 'configuration controlled 3d designs of mechanical parts and assemblies' ) ;
#178 = ORIENTED_EDGE ( 'NONE', *, *, #351, .T. ) ;
#179 = AXIS2_PLACEMENT_3D ( 'NONE', #8, #176, #130 ) ;
#180 = APPLICATION_CONTEXT ( 'configuration controlled 3d designs of mechanical parts and assemblies' ) ;
#181 = VERTEX_POINT ( 'NONE', #257 ) ;
#182 = ORIENTED_EDGE ( 'NONE', *, *, #351, .F. ) ;
#183 = EDGE_CURVE ( 'NONE', #230, #360, #46, .T. ) ;
#184 = COORDINATED_UNIVERSAL_TIME_OFFSET ( 1, 0, .AHEAD. ) ;
#185 = CARTESIAN_POINT ( 'NONE',  ( 6.000000000000000888, 7.347880794884120722E-16, 0.000000000000000000 ) ) ;
#186 = UNCERTAINTY_MEASURE_WITH_UNIT (LENGTH_MEASURE( 1.000000000000000082E-05 ), #124, 'distance_accuracy_value', 'NONE');
#187 = LINE ( 'NONE', #246, #77 ) ;
#188 = CC_DESIGN_PERSON_AND_ORGANIZATION_ASSIGNMENT ( #292, #157, ( #140 ) ) ;
#189 = FACE_OUTER_BOUND ( 'NONE', #147, .T. ) ;
#190 = PERSON_AND_ORGANIZATION_ROLE ( 'classification_officer' ) ;
#191 = LOCAL_TIME ( 17, 37, 48.00000000000000000, #126 ) ;
#192 = FACE_OUTER_BOUND ( 'NONE', #206, .T. ) ;
#193 = CYLINDRICAL_SURFACE ( 'NONE', #213, 3.000000000000000444 ) ;
#194 = EDGE_CURVE ( 'NONE', #32, #156, #86, .T. ) ;
#195 = CYLINDRICAL_SURFACE ( 'NONE', #132, 6.000000000000000888 ) ;
#196 = FACE_OUTER_BOUND ( 'NONE', #381, .T. ) ;
#197 = VERTEX_POINT ( 'NONE', #143 ) ;
#198 = ORGANIZATION ( 'NEURÈENÝ', 'NEURÈENÝ', '' ) ;
#199 = CC_DESIGN_PERSON_AND_ORGANIZATION_ASSIGNMENT ( #44, #190, ( #19 ) ) ;
#200 = DIRECTION ( 'NONE',  ( 0.000000000000000000, 0.000000000000000000, 1.000000000000000000 ) ) ;
#201 = CIRCLE ( 'NONE', #113, 3.000000000000000444 ) ;
#202 = CARTESIAN_POINT ( 'NONE',  ( 0.000000000000000000, 0.000000000000000000, 5.000000000000000000 ) ) ;
#203 = APPROVAL_DATE_TIME ( #269, #367 ) ;
#204 = EDGE_CURVE ( 'NONE', #128, #63, #308, .T. ) ;
#205 = DIRECTION ( 'NONE',  ( 1.000000000000000000, 0.000000000000000000, 0.000000000000000000 ) ) ;
#206 = EDGE_LOOP ( 'NONE', ( #178, #268, #69, #340 ) ) ;
#207 = DIRECTION ( 'NONE',  ( 1.000000000000000000, 0.000000000000000000, 0.000000000000000000 ) ) ;
#208 = ORIENTED_EDGE ( 'NONE', *, *, #83, .T. ) ;
#209 = ORIENTED_EDGE ( 'NONE', *, *, #332, .F. ) ;
#210 = CALENDAR_DATE ( 2022, 8, 7 ) ;
#211 = ADVANCED_FACE ( 'NONE', ( #138 ), #275, .F. ) ;
#212 = ORIENTED_EDGE ( 'NONE', *, *, #258, .F. ) ;
#213 = AXIS2_PLACEMENT_3D ( 'NONE', #362, #307, #330 ) ;
#214 = ORIENTED_EDGE ( 'NONE', *, *, #47, .F. ) ;
#215 = CALENDAR_DATE ( 2022, 8, 7 ) ;
#216 = CARTESIAN_POINT ( 'NONE',  ( -1.750000000000000000, 0.000000000000000000, 0.000000000000000000 ) ) ;
#217 = ADVANCED_FACE ( 'NONE', ( #229 ), #195, .T. ) ;
#218 = PERSON_AND_ORGANIZATION_ROLE ( 'creator' ) ;
#219 = DIRECTION ( 'NONE',  ( -0.000000000000000000, -0.000000000000000000, -1.000000000000000000 ) ) ;
#220 = AXIS2_PLACEMENT_3D ( 'NONE', #154, #90, #205 ) ;
#221 = DIRECTION ( 'NONE',  ( -0.000000000000000000, -0.000000000000000000, -1.000000000000000000 ) ) ;
#222 = AXIS2_PLACEMENT_3D ( 'NONE', #224, #225, #286 ) ;
#223 = CARTESIAN_POINT ( 'NONE',  ( 1.750000000000000000, 2.143131898507868297E-16, 0.000000000000000000 ) ) ;
#224 = CARTESIAN_POINT ( 'NONE',  ( 0.000000000000000000, 0.000000000000000000, 5.500000000000005329 ) ) ;
#225 = DIRECTION ( 'NONE',  ( 0.000000000000000000, 0.000000000000000000, 1.000000000000000000 ) ) ;
#226 = CC_DESIGN_APPROVAL ( #367, ( #28 ) ) ;
#227 = APPROVAL ( #299, 'NEURÈENÝ' ) ;
#228 = FACE_OUTER_BOUND ( 'NONE', #353, .T. ) ;
#229 = FACE_OUTER_BOUND ( 'NONE', #296, .T. ) ;
#230 = VERTEX_POINT ( 'NONE', #345 ) ;
#231 = APPROVAL_PERSON_ORGANIZATION ( #325, #227, #29 ) ;
#232 = FACE_OUTER_BOUND ( 'NONE', #67, .T. ) ;
#233 = VERTEX_POINT ( 'NONE', #169 ) ;
#234 = APPROVAL_ROLE ( '' ) ;
#235 = AXIS2_PLACEMENT_3D ( 'NONE', #167, #278, #11 ) ;
#236 = ADVANCED_BREP_SHAPE_REPRESENTATION ( 'dcd0', ( #16, #220 ), #305 ) ;
#237 = DIRECTION ( 'NONE',  ( 0.000000000000000000, 0.000000000000000000, 1.000000000000000000 ) ) ;
#238 = VERTEX_POINT ( 'NONE', #339 ) ;
#239 = CC_DESIGN_APPROVAL ( #240, ( #19 ) ) ;
#240 = APPROVAL ( #105, 'NEURÈENÝ' ) ;
#241 = DIRECTION ( 'NONE',  ( 1.000000000000000000, 0.000000000000000000, 0.000000000000000000 ) ) ;
#242 = ORIENTED_EDGE ( 'NONE', *, *, #363, .F. ) ;
#243 = PERSON_AND_ORGANIZATION ( #153, #198 ) ;
#244 = ORIENTED_EDGE ( 'NONE', *, *, #165, .T. ) ;
#245 = CIRCLE ( 'NONE', #61, 3.500000000000000444 ) ;
#246 = CARTESIAN_POINT ( 'NONE',  ( -3.000000000000000444, 0.000000000000000000, 505.0000000000000000 ) ) ;
#247 = ADVANCED_FACE ( 'NONE', ( #312, #196 ), #53, .T. ) ;
#248 = FACE_OUTER_BOUND ( 'NONE', #322, .T. ) ;
#249 = APPROVAL_ROLE ( '' ) ;
#250 = DIRECTION ( 'NONE',  ( 0.000000000000000000, 0.000000000000000000, 1.000000000000000000 ) ) ;
#251 = CYLINDRICAL_SURFACE ( 'NONE', #285, 1.750000000000000000 ) ;
#252 = DIRECTION ( 'NONE',  ( 1.000000000000000000, 0.000000000000000000, 0.000000000000000000 ) ) ;
#253 = FACE_OUTER_BOUND ( 'NONE', #57, .T. ) ;
#254 = ADVANCED_FACE ( 'NONE', ( #253 ), #172, .T. ) ;
#255 = DIRECTION ( 'NONE',  ( 1.000000000000000000, 0.000000000000000000, 0.000000000000000000 ) ) ;
#256 = CIRCLE ( 'NONE', #166, 3.000000000000000444 ) ;
#257 = CARTESIAN_POINT ( 'NONE',  ( -6.000000000000000888, 0.000000000000000000, 0.000000000000000000 ) ) ;
#258 = EDGE_CURVE ( 'NONE', #238, #197, #155, .T. ) ;
#259 = CARTESIAN_POINT ( 'NONE',  ( 3.500000000000000444, 0.000000000000000000, 5.500000000000005329 ) ) ;
#260 = ORIENTED_EDGE ( 'NONE', *, *, #40, .T. ) ;
#261 = AXIS2_PLACEMENT_3D ( 'NONE', #31, #237, #207 ) ;
#262 = DIRECTION ( 'NONE',  ( 1.000000000000000000, 0.000000000000000000, 0.000000000000000000 ) ) ;
#263 = ORIENTED_EDGE ( 'NONE', *, *, #83, .F. ) ;
#264 = AXIS2_PLACEMENT_3D ( 'NONE', #173, #25, #142 ) ;
#265 = ORIENTED_EDGE ( 'NONE', *, *, #183, .F. ) ;
#266 = CC_DESIGN_PERSON_AND_ORGANIZATION_ASSIGNMENT ( #243, #71, ( #137 ) ) ;
#267 = MECHANICAL_CONTEXT ( 'NONE', #177, 'mechanical' ) ;
#268 = ORIENTED_EDGE ( 'NONE', *, *, #7, .T. ) ;
#269 = DATE_AND_TIME ( #3, #355 ) ;
#270 = ORIENTED_EDGE ( 'NONE', *, *, #283, .F. ) ;
#271 = EDGE_CURVE ( 'NONE', #127, #131, #70, .T. ) ;
#272 = DATE_AND_TIME ( #379, #79 ) ;
#273 = CARTESIAN_POINT ( 'NONE',  ( -6.000000000000000888, 0.000000000000000000, 5.000000000000000000 ) ) ;
#274 = CIRCLE ( 'NONE', #161, 3.500000000000000444 ) ;
#275 = TOROIDAL_SURFACE ( 'NONE', #145, 3.500000000000000444, 0.5000000000000000000 ) ;
#276 = CARTESIAN_POINT ( 'NONE',  ( 0.000000000000000000, 0.000000000000000000, 5.500000000000005329 ) ) ;
#277 = CARTESIAN_POINT ( 'NONE',  ( 1.750000000000000000, 2.143131898507868297E-16, 505.0000000000000000 ) ) ;
#278 = DIRECTION ( 'NONE',  ( 0.000000000000000000, 0.000000000000000000, -1.000000000000000000 ) ) ;
#279 = CIRCLE ( 'NONE', #366, 1.750000000000000000 ) ;
#280 = EDGE_CURVE ( 'NONE', #32, #238, #159, .T. ) ;
#281 = DIRECTION ( 'NONE',  ( 1.000000000000000000, 0.000000000000000000, 0.000000000000000000 ) ) ;
#282 = DIRECTION ( 'NONE',  ( 0.000000000000000000, 0.000000000000000000, 1.000000000000000000 ) ) ;
#283 = EDGE_CURVE ( 'NONE', #181, #125, #369, .T. ) ;
#284 = DIRECTION ( 'NONE',  ( 0.000000000000000000, 0.000000000000000000, -1.000000000000000000 ) ) ;
#285 = AXIS2_PLACEMENT_3D ( 'NONE', #13, #368, #365 ) ;
#286 = DIRECTION ( 'NONE',  ( 1.000000000000000000, 0.000000000000000000, 0.000000000000000000 ) ) ;
#287 = DIRECTION ( 'NONE',  ( -1.000000000000000000, 0.000000000000000000, 0.000000000000000000 ) ) ;
#288 = DIRECTION ( 'NONE',  ( -1.000000000000000000, 0.000000000000000000, 0.000000000000000000 ) ) ;
#289 = ADVANCED_FACE ( 'NONE', ( #116, #228 ), #343, .F. ) ;
#290 = ORIENTED_EDGE ( 'NONE', *, *, #332, .T. ) ;
#291 = ORIENTED_EDGE ( 'NONE', *, *, #204, .T. ) ;
#292 = PERSON_AND_ORGANIZATION ( #153, #198 ) ;
#293 = CC_DESIGN_DATE_AND_TIME_ASSIGNMENT ( #97, #323, ( #28 ) ) ;
#294 = ORIENTED_EDGE ( 'NONE', *, *, #165, .F. ) ;
#295 =( NAMED_UNIT ( * ) SI_UNIT ( $, .STERADIAN. ) SOLID_ANGLE_UNIT ( ) );
#296 = EDGE_LOOP ( 'NONE', ( #9, #311, #99, #51 ) ) ;
#297 = AXIS2_PLACEMENT_3D ( 'NONE', #259, #171, #284 ) ;
#298 = AXIS2_PLACEMENT_3D ( 'NONE', #342, #372, #287 ) ;
#299 = APPROVAL_STATUS ( 'not_yet_approved' ) ;
#300 = EDGE_LOOP ( 'NONE', ( #344, #290, #350, #4 ) ) ;
#301 = LINE ( 'NONE', #361, #54 ) ;
#302 = CARTESIAN_POINT ( 'NONE',  ( 0.000000000000000000, 0.000000000000000000, 0.000000000000000000 ) ) ;
#303 = DIRECTION ( 'NONE',  ( -0.000000000000000000, -0.000000000000000000, -1.000000000000000000 ) ) ;
#304 = DATE_TIME_ROLE ( 'classification_date' ) ;
#305 =( GEOMETRIC_REPRESENTATION_CONTEXT ( 3 ) GLOBAL_UNCERTAINTY_ASSIGNED_CONTEXT ( ( #186 ) ) GLOBAL_UNIT_ASSIGNED_CONTEXT ( ( #124, #122, #295 ) ) REPRESENTATION_CONTEXT ( 'NONE', 'WORKASPACE' ) );
#306 = EDGE_CURVE ( 'NONE', #63, #128, #52, .T. ) ;
#307 = DIRECTION ( 'NONE',  ( -0.000000000000000000, -0.000000000000000000, -1.000000000000000000 ) ) ;
#308 = CIRCLE ( 'NONE', #100, 6.000000000000000888 ) ;
#309 = CARTESIAN_POINT ( 'NONE',  ( 0.000000000000000000, 0.000000000000000000, 505.0000000000000000 ) ) ;
#310 = DIRECTION ( 'NONE',  ( 1.000000000000000000, 0.000000000000000000, 0.000000000000000000 ) ) ;
#311 = ORIENTED_EDGE ( 'NONE', *, *, #204, .F. ) ;
#312 = FACE_BOUND ( 'NONE', #376, .T. ) ;
#313 = CIRCLE ( 'NONE', #68, 6.000000000000000888 ) ;
#314 = DIRECTION ( 'NONE',  ( 0.000000000000000000, 0.000000000000000000, 1.000000000000000000 ) ) ;
#315 = DIRECTION ( 'NONE',  ( -0.000000000000000000, -0.000000000000000000, -1.000000000000000000 ) ) ;
#316 = PERSON_AND_ORGANIZATION_ROLE ( 'creator' ) ;
#317 = CARTESIAN_POINT ( 'NONE',  ( 3.000000000000000444, 3.673940397442060361E-16, 505.0000000000000000 ) ) ;
#318 = AXIS2_PLACEMENT_3D ( 'NONE', #276, #250, #136 ) ;
#319 = ORIENTED_EDGE ( 'NONE', *, *, #194, .F. ) ;
#320 = ADVANCED_FACE ( 'NONE', ( #375 ), #117, .T. ) ;
#321 = DIRECTION ( 'NONE',  ( 0.000000000000000000, 0.000000000000000000, 1.000000000000000000 ) ) ;
#322 = EDGE_LOOP ( 'NONE', ( #214, #354, #324, #123 ) ) ;
#323 = DATE_TIME_ROLE ( 'creation_date' ) ;
#324 = ORIENTED_EDGE ( 'NONE', *, *, #280, .T. ) ;
#325 = PERSON_AND_ORGANIZATION ( #153, #198 ) ;
#326 = ORIENTED_EDGE ( 'NONE', *, *, #363, .T. ) ;
#327 = AXIS2_PLACEMENT_3D ( 'NONE', #20, #370, #115 ) ;
#328 = ORIENTED_EDGE ( 'NONE', *, *, #280, .F. ) ;
#329 = CC_DESIGN_APPROVAL ( #227, ( #137 ) ) ;
#330 = DIRECTION ( 'NONE',  ( -1.000000000000000000, 0.000000000000000000, 0.000000000000000000 ) ) ;
#331 = APPROVAL_DATE_TIME ( #101, #240 ) ;
#332 = EDGE_CURVE ( 'NONE', #30, #233, #279, .T. ) ;
#333 = DATE_AND_TIME ( #215, #170 ) ;
#334 = PERSON_AND_ORGANIZATION ( #153, #198 ) ;
#335 = CARTESIAN_POINT ( 'NONE',  ( 0.000000000000000000, 0.000000000000000000, 5.000000000000000000 ) ) ;
#336 = CARTESIAN_POINT ( 'NONE',  ( 6.000000000000000888, 7.347880794884120722E-16, 5.000000000000000000 ) ) ;
#337 = CC_DESIGN_PERSON_AND_ORGANIZATION_ASSIGNMENT ( #334, #218, ( #137 ) ) ;
#338 = AXIS2_PLACEMENT_3D ( 'NONE', #82, #282, #373 ) ;
#339 = CARTESIAN_POINT ( 'NONE',  ( -3.000000000000000444, 0.000000000000000000, 5.500000000000005329 ) ) ;
#340 = ORIENTED_EDGE ( 'NONE', *, *, #129, .F. ) ;
#341 = APPROVAL_PERSON_ORGANIZATION ( #356, #367, #234 ) ;
#342 = CARTESIAN_POINT ( 'NONE',  ( 0.000000000000000000, 0.000000000000000000, 505.0000000000000000 ) ) ;
#343 = PLANE ( 'NONE',  #348 ) ;
#344 = ORIENTED_EDGE ( 'NONE', *, *, #7, .F. ) ;
#345 = CARTESIAN_POINT ( 'NONE',  ( -3.000000000000000444, 0.000000000000000000, 505.0000000000000000 ) ) ;
#346 = AXIS2_PLACEMENT_3D ( 'NONE', #112, #26, #139 ) ;
#347 = CIRCLE ( 'NONE', #261, 1.750000000000000000 ) ;
#348 = AXIS2_PLACEMENT_3D ( 'NONE', #85, #314, #55 ) ;
#349 = DIRECTION ( 'NONE',  ( 1.000000000000000000, 0.000000000000000000, 0.000000000000000000 ) ) ;
#350 = ORIENTED_EDGE ( 'NONE', *, *, #129, .T. ) ;
#351 = EDGE_CURVE ( 'NONE', #233, #30, #347, .T. ) ;
#352 = DIRECTION ( 'NONE',  ( -0.000000000000000000, -0.000000000000000000, -1.000000000000000000 ) ) ;
#353 = EDGE_LOOP ( 'NONE', ( #270, #294 ) ) ;
#354 = ORIENTED_EDGE ( 'NONE', *, *, #96, .T. ) ;
#355 = LOCAL_TIME ( 17, 37, 48.00000000000000000, #33 ) ;
#356 = PERSON_AND_ORGANIZATION ( #153, #198 ) ;
#357 = ORIENTED_EDGE ( 'NONE', *, *, #120, .T. ) ;
#358 = COORDINATED_UNIVERSAL_TIME_OFFSET ( 1, 0, .AHEAD. ) ;
#359 = ADVANCED_FACE ( 'NONE', ( #148, #232 ), #37, .T. ) ;
#360 = VERTEX_POINT ( 'NONE', #317 ) ;
#361 = CARTESIAN_POINT ( 'NONE',  ( -1.750000000000000000, 0.000000000000000000, 505.0000000000000000 ) ) ;
#362 = CARTESIAN_POINT ( 'NONE',  ( 0.000000000000000000, 0.000000000000000000, 505.0000000000000000 ) ) ;
#363 = EDGE_CURVE ( 'NONE', #238, #32, #256, .T. ) ;
#364 = CARTESIAN_POINT ( 'NONE',  ( 3.000000000000000444, 3.673940397442060361E-16, 5.500000000000005329 ) ) ;
#365 = DIRECTION ( 'NONE',  ( -1.000000000000000000, 0.000000000000000000, 0.000000000000000000 ) ) ;
#366 = AXIS2_PLACEMENT_3D ( 'NONE', #60, #94, #241 ) ;
#367 = APPROVAL ( #5, 'NEURÈENÝ' ) ;
#368 = DIRECTION ( 'NONE',  ( 0.000000000000000000, 0.000000000000000000, -1.000000000000000000 ) ) ;
#369 = CIRCLE ( 'NONE', #91, 6.000000000000000888 ) ;
#370 = DIRECTION ( 'NONE',  ( -0.000000000000000000, -0.000000000000000000, -1.000000000000000000 ) ) ;
#371 = VECTOR ( 'NONE', #219, 1000.000000000000000 ) ;
#372 = DIRECTION ( 'NONE',  ( -0.000000000000000000, -0.000000000000000000, -1.000000000000000000 ) ) ;
#373 = DIRECTION ( 'NONE',  ( 1.000000000000000000, 0.000000000000000000, -0.000000000000000000 ) ) ;
#374 = EDGE_CURVE ( 'NONE', #131, #127, #121, .T. ) ;
#375 = FACE_OUTER_BOUND ( 'NONE', #95, .T. ) ;
#376 = EDGE_LOOP ( 'NONE', ( #208, #102 ) ) ;
#377 = VECTOR ( 'NONE', #164, 1000.000000000000000 ) ;
#378 = DIRECTION ( 'NONE',  ( 0.000000000000000000, 0.000000000000000000, 1.000000000000000000 ) ) ;
#379 = CALENDAR_DATE ( 2022, 8, 7 ) ;
#380 = CC_DESIGN_SECURITY_CLASSIFICATION ( #19, ( #137 ) ) ;
#381 = EDGE_LOOP ( 'NONE', ( #291, #93 ) ) ;
ENDSEC;
END-ISO-10303-21;
