ISO-10303-21;
HEADER;
FILE_DESCRIPTION (( 'STEP AP203' ),
    '1' );
FILE_NAME ('4eba.STEP',
    '2022-07-08T15:18:25',
    ( '' ),
    ( '' ),
    'SwSTEP 2.0',
    'SolidWorks 2019',
    '' );
FILE_SCHEMA (( 'CONFIG_CONTROL_DESIGN' ));
ENDSEC;

DATA;
#1 = CARTESIAN_POINT ( 'NONE',  ( 0.000000000000000000, 0.000000000000000000, 0.000000000000000000 ) ) ;
#2 = DIRECTION ( 'NONE',  ( 0.000000000000000000, 0.000000000000000000, 1.000000000000000000 ) ) ;
#3 = PERSON_AND_ORGANIZATION ( #302, #265 ) ;
#4 = ORIENTED_EDGE ( 'NONE', *, *, #153, .F. ) ;
#5 = ADVANCED_FACE ( 'NONE', ( #35 ), #239, .F. ) ;
#6 = DATE_AND_TIME ( #174, #156 ) ;
#7 = ORIENTED_EDGE ( 'NONE', *, *, #285, .T. ) ;
#8 = DIRECTION ( 'NONE',  ( 0.000000000000000000, 0.000000000000000000, 1.000000000000000000 ) ) ;
#9 = TOROIDAL_SURFACE ( 'NONE', #332, 4.500000000000000888, 0.5000000000000000000 ) ;
#10 = FACE_BOUND ( 'NONE', #56, .T. ) ;
#11 = CARTESIAN_POINT ( 'NONE',  ( -4.500000000000000888, 5.510910596163089556E-16, 5.499999999999949374 ) ) ;
#12 = DIRECTION ( 'NONE',  ( 1.000000000000000000, 0.000000000000000000, -0.000000000000000000 ) ) ;
#13 = AXIS2_PLACEMENT_3D ( 'NONE', #352, #93, #281 ) ;
#14 = CC_DESIGN_APPROVAL ( #41, ( #173 ) ) ;
#15 = PLANE ( 'NONE',  #164 ) ;
#16 = COORDINATED_UNIVERSAL_TIME_OFFSET ( 1, 0, .AHEAD. ) ;
#17 = APPROVAL ( #146, 'NEURÈENÝ' ) ;
#18 = PERSON_AND_ORGANIZATION ( #302, #265 ) ;
#19 = ORIENTED_EDGE ( 'NONE', *, *, #153, .T. ) ;
#20 = DIRECTION ( 'NONE',  ( -0.000000000000000000, -0.000000000000000000, -1.000000000000000000 ) ) ;
#21 = VECTOR ( 'NONE', #268, 1000.000000000000000 ) ;
#22 = ADVANCED_FACE ( 'NONE', ( #116, #208 ), #322, .F. ) ;
#23 = VERTEX_POINT ( 'NONE', #229 ) ;
#24 = DIRECTION ( 'NONE',  ( 1.000000000000000000, 0.000000000000000000, 0.000000000000000000 ) ) ;
#25 = ORIENTED_EDGE ( 'NONE', *, *, #126, .T. ) ;
#26 = VERTEX_POINT ( 'NONE', #145 ) ;
#27 = ORIENTED_EDGE ( 'NONE', *, *, #228, .F. ) ;
#28 = DIRECTION ( 'NONE',  ( -1.000000000000000000, 0.000000000000000000, 0.000000000000000000 ) ) ;
#29 = CC_DESIGN_DATE_AND_TIME_ASSIGNMENT ( #129, #365, ( #262 ) ) ;
#30 = DIRECTION ( 'NONE',  ( 1.000000000000000000, 0.000000000000000000, 0.000000000000000000 ) ) ;
#31 = VECTOR ( 'NONE', #20, 1000.000000000000000 ) ;
#32 = LINE ( 'NONE', #144, #21 ) ;
#33 = APPLICATION_PROTOCOL_DEFINITION ( 'international standard', 'config_control_design', 1994, #366 ) ;
#34 = CARTESIAN_POINT ( 'NONE',  ( 0.000000000000000000, 0.000000000000000000, 5.499999999999949374 ) ) ;
#35 = FACE_OUTER_BOUND ( 'NONE', #189, .T. ) ;
#36 = DIRECTION ( 'NONE',  ( 1.000000000000000000, 0.000000000000000000, 0.000000000000000000 ) ) ;
#37 = CARTESIAN_POINT ( 'NONE',  ( -2.500000000000000000, 0.000000000000000000, 705.0000000000000000 ) ) ;
#38 = CIRCLE ( 'NONE', #238, 2.500000000000000000 ) ;
#39 = APPROVAL_PERSON_ORGANIZATION ( #18, #328, #131 ) ;
#40 = DIRECTION ( 'NONE',  ( -0.000000000000000000, -0.000000000000000000, -1.000000000000000000 ) ) ;
#41 = APPROVAL ( #219, 'NEURÈENÝ' ) ;
#42 = FACE_OUTER_BOUND ( 'NONE', #139, .T. ) ;
#43 = VECTOR ( 'NONE', #69, 1000.000000000000000 ) ;
#44 = APPROVAL_DATE_TIME ( #275, #328 ) ;
#45 = LOCAL_TIME ( 17, 18, 25.00000000000000000, #74 ) ;
#46 = ORIENTED_EDGE ( 'NONE', *, *, #315, .F. ) ;
#47 = PERSON_AND_ORGANIZATION ( #302, #265 ) ;
#48 = DIRECTION ( 'NONE',  ( 1.000000000000000000, 0.000000000000000000, 0.000000000000000000 ) ) ;
#49 = EDGE_CURVE ( 'NONE', #316, #160, #128, .T. ) ;
#50 = VERTEX_POINT ( 'NONE', #37 ) ;
#51 = DIRECTION ( 'NONE',  ( 1.000000000000000000, 0.000000000000000000, 0.000000000000000000 ) ) ;
#52 = ORIENTED_EDGE ( 'NONE', *, *, #92, .F. ) ;
#53 = EDGE_LOOP ( 'NONE', ( #312, #68 ) ) ;
#54 = CARTESIAN_POINT ( 'NONE',  ( 0.000000000000000000, 0.000000000000000000, 705.0000000000000000 ) ) ;
#55 = CIRCLE ( 'NONE', #107, 4.000000000000000000 ) ;
#56 = EDGE_LOOP ( 'NONE', ( #263, #84 ) ) ;
#57 = EDGE_CURVE ( 'NONE', #160, #316, #217, .T. ) ;
#58 = FACE_OUTER_BOUND ( 'NONE', #367, .T. ) ;
#59 = DIRECTION ( 'NONE',  ( 0.000000000000000000, -1.000000000000000000, 0.000000000000000000 ) ) ;
#60 = CARTESIAN_POINT ( 'NONE',  ( 0.000000000000000000, 0.000000000000000000, 705.0000000000000000 ) ) ;
#61 = UNCERTAINTY_MEASURE_WITH_UNIT (LENGTH_MEASURE( 1.000000000000000082E-05 ), #242, 'distance_accuracy_value', 'NONE');
#62 = CARTESIAN_POINT ( 'NONE',  ( 4.500000000000000888, 0.000000000000000000, 5.499999999999949374 ) ) ;
#63 = EDGE_CURVE ( 'NONE', #299, #341, #337, .T. ) ;
#64 = CARTESIAN_POINT ( 'NONE',  ( 2.500000000000000000, 3.061616997868383141E-16, 705.0000000000000000 ) ) ;
#65 = APPROVAL_ROLE ( '' ) ;
#66 = DIRECTION ( 'NONE',  ( -0.000000000000000000, -0.000000000000000000, -1.000000000000000000 ) ) ;
#67 = CARTESIAN_POINT ( 'NONE',  ( -4.000000000000000000, 0.000000000000000000, 705.0000000000000000 ) ) ;
#68 = ORIENTED_EDGE ( 'NONE', *, *, #370, .T. ) ;
#69 = DIRECTION ( 'NONE',  ( 0.000000000000000000, 0.000000000000000000, -1.000000000000000000 ) ) ;
#70 = AXIS2_PLACEMENT_3D ( 'NONE', #354, #148, #212 ) ;
#71 = ADVANCED_FACE ( 'NONE', ( #58 ), #147, .T. ) ;
#72 = CARTESIAN_POINT ( 'NONE',  ( 7.000000000000000000, 8.572527594031473190E-16, 5.000000000000000000 ) ) ;
#73 = AXIS2_PLACEMENT_3D ( 'NONE', #266, #168, #30 ) ;
#74 = COORDINATED_UNIVERSAL_TIME_OFFSET ( 1, 0, .AHEAD. ) ;
#75 = DIRECTION ( 'NONE',  ( 0.000000000000000000, 0.000000000000000000, 1.000000000000000000 ) ) ;
#76 = EDGE_CURVE ( 'NONE', #166, #350, #90, .T. ) ;
#77 = CALENDAR_DATE ( 2022, 8, 7 ) ;
#78 = PERSON_AND_ORGANIZATION_ROLE ( 'design_supplier' ) ;
#79 = ORIENTED_EDGE ( 'NONE', *, *, #177, .F. ) ;
#80 = CARTESIAN_POINT ( 'NONE',  ( 4.000000000000000000, 4.898587196589412829E-16, 705.0000000000000000 ) ) ;
#81 = EDGE_LOOP ( 'NONE', ( #135, #236, #117, #104 ) ) ;
#82 = AXIS2_PLACEMENT_3D ( 'NONE', #89, #227, #24 ) ;
#83 = CARTESIAN_POINT ( 'NONE',  ( 0.000000000000000000, 0.000000000000000000, 0.000000000000000000 ) ) ;
#84 = ORIENTED_EDGE ( 'NONE', *, *, #285, .F. ) ;
#85 = LINE ( 'NONE', #162, #372 ) ;
#86 = ORIENTED_EDGE ( 'NONE', *, *, #228, .T. ) ;
#87 = FACE_OUTER_BOUND ( 'NONE', #81, .T. ) ;
#88 = CIRCLE ( 'NONE', #82, 2.500000000000000000 ) ;
#89 = CARTESIAN_POINT ( 'NONE',  ( 0.000000000000000000, 0.000000000000000000, 705.0000000000000000 ) ) ;
#90 = CIRCLE ( 'NONE', #185, 4.000000000000000000 ) ;
#91 = VERTEX_POINT ( 'NONE', #64 ) ;
#92 = EDGE_CURVE ( 'NONE', #91, #197, #32, .T. ) ;
#93 = DIRECTION ( 'NONE',  ( -0.000000000000000000, -0.000000000000000000, -1.000000000000000000 ) ) ;
#94 = ORIENTED_EDGE ( 'NONE', *, *, #244, .F. ) ;
#95 = PERSON_AND_ORGANIZATION_ROLE ( 'design_owner' ) ;
#96 = DIRECTION ( 'NONE',  ( 1.000000000000000000, 0.000000000000000000, 0.000000000000000000 ) ) ;
#97 = SECURITY_CLASSIFICATION ( '', '', #186 ) ;
#98 = EDGE_LOOP ( 'NONE', ( #279, #346, #201, #267 ) ) ;
#99 = DIRECTION ( 'NONE',  ( -0.000000000000000000, -0.000000000000000000, -1.000000000000000000 ) ) ;
#100 = PRODUCT_RELATED_PRODUCT_CATEGORY ( 'detail', '', ( #276 ) ) ;
#101 = CARTESIAN_POINT ( 'NONE',  ( -2.500000000000000000, 0.000000000000000000, 705.0000000000000000 ) ) ;
#102 = CALENDAR_DATE ( 2022, 8, 7 ) ;
#103 =( GEOMETRIC_REPRESENTATION_CONTEXT ( 3 ) GLOBAL_UNCERTAINTY_ASSIGNED_CONTEXT ( ( #61 ) ) GLOBAL_UNIT_ASSIGNED_CONTEXT ( ( #242, #180, #152 ) ) REPRESENTATION_CONTEXT ( 'NONE', 'WORKASPACE' ) );
#104 = ORIENTED_EDGE ( 'NONE', *, *, #274, .T. ) ;
#105 = CARTESIAN_POINT ( 'NONE',  ( 2.500000000000000000, 3.061616997868383141E-16, 0.000000000000000000 ) ) ;
#106 = ORIENTED_EDGE ( 'NONE', *, *, #169, .T. ) ;
#107 = AXIS2_PLACEMENT_3D ( 'NONE', #214, #159, #48 ) ;
#108 = CYLINDRICAL_SURFACE ( 'NONE', #181, 7.000000000000000000 ) ;
#109 = VERTEX_POINT ( 'NONE', #119 ) ;
#110 = ADVANCED_FACE ( 'NONE', ( #348 ), #232, .F. ) ;
#111 = CARTESIAN_POINT ( 'NONE',  ( -7.000000000000000000, 0.000000000000000000, 0.000000000000000000 ) ) ;
#112 = CC_DESIGN_SECURITY_CLASSIFICATION ( #97, ( #173 ) ) ;
#113 = EDGE_LOOP ( 'NONE', ( #52, #7, #25, #19 ) ) ;
#114 = ADVANCED_FACE ( 'NONE', ( #198 ), #9, .F. ) ;
#115 = CARTESIAN_POINT ( 'NONE',  ( -7.000000000000000000, 0.000000000000000000, 5.000000000000000000 ) ) ;
#116 = FACE_BOUND ( 'NONE', #234, .T. ) ;
#117 = ORIENTED_EDGE ( 'NONE', *, *, #121, .T. ) ;
#118 = APPROVAL_DATE_TIME ( #6, #17 ) ;
#119 = CARTESIAN_POINT ( 'NONE',  ( 4.000000000000000000, 4.898587196589412829E-16, 705.0000000000000000 ) ) ;
#120 = APPROVAL_PERSON_ORGANIZATION ( #325, #17, #65 ) ;
#121 = EDGE_CURVE ( 'NONE', #316, #284, #294, .T. ) ;
#122 = DIRECTION ( 'NONE',  ( 1.000000000000000000, 0.000000000000000000, 0.000000000000000000 ) ) ;
#123 = CYLINDRICAL_SURFACE ( 'NONE', #319, 2.500000000000000000 ) ;
#124 = CARTESIAN_POINT ( 'NONE',  ( 0.000000000000000000, 0.000000000000000000, 705.0000000000000000 ) ) ;
#125 = AXIS2_PLACEMENT_3D ( 'NONE', #62, #59, #141 ) ;
#126 = EDGE_CURVE ( 'NONE', #50, #23, #368, .T. ) ;
#127 = DIRECTION ( 'NONE',  ( 0.000000000000000000, 0.000000000000000000, 1.000000000000000000 ) ) ;
#128 = CIRCLE ( 'NONE', #375, 7.000000000000000000 ) ;
#129 = DATE_AND_TIME ( #363, #278 ) ;
#130 = VECTOR ( 'NONE', #150, 1000.000000000000000 ) ;
#131 = APPROVAL_ROLE ( '' ) ;
#132 = EDGE_CURVE ( 'NONE', #160, #26, #360, .T. ) ;
#133 = ORIENTED_EDGE ( 'NONE', *, *, #49, .T. ) ;
#134 = CARTESIAN_POINT ( 'NONE',  ( 0.000000000000000000, 0.000000000000000000, 5.000000000000000000 ) ) ;
#135 = ORIENTED_EDGE ( 'NONE', *, *, #132, .F. ) ;
#136 = CC_DESIGN_DATE_AND_TIME_ASSIGNMENT ( #215, #334, ( #97 ) ) ;
#137 = CC_DESIGN_APPROVAL ( #328, ( #97 ) ) ;
#138 = ORIENTED_EDGE ( 'NONE', *, *, #253, .T. ) ;
#139 = EDGE_LOOP ( 'NONE', ( #133, #256 ) ) ;
#140 = DIRECTION ( 'NONE',  ( -0.000000000000000000, -0.000000000000000000, -1.000000000000000000 ) ) ;
#141 = DIRECTION ( 'NONE',  ( 0.000000000000000000, 0.000000000000000000, -1.000000000000000000 ) ) ;
#142 = AXIS2_PLACEMENT_3D ( 'NONE', #246, #75, #330 ) ;
#143 = AXIS2_PLACEMENT_3D ( 'NONE', #11, #171, #293 ) ;
#144 = CARTESIAN_POINT ( 'NONE',  ( 2.500000000000000000, 3.061616997868383141E-16, 705.0000000000000000 ) ) ;
#145 = CARTESIAN_POINT ( 'NONE',  ( 7.000000000000000000, 8.572527594031473190E-16, 0.000000000000000000 ) ) ;
#146 = APPROVAL_STATUS ( 'not_yet_approved' ) ;
#147 = CYLINDRICAL_SURFACE ( 'NONE', #351, 4.000000000000000000 ) ;
#148 = DIRECTION ( 'NONE',  ( 0.000000000000000000, 0.000000000000000000, 1.000000000000000000 ) ) ;
#149 = CARTESIAN_POINT ( 'NONE',  ( 0.000000000000000000, 0.000000000000000000, 5.000000000000000000 ) ) ;
#150 = DIRECTION ( 'NONE',  ( -0.000000000000000000, -0.000000000000000000, -1.000000000000000000 ) ) ;
#151 = AXIS2_PLACEMENT_3D ( 'NONE', #355, #2, #353 ) ;
#152 =( NAMED_UNIT ( * ) SI_UNIT ( $, .STERADIAN. ) SOLID_ANGLE_UNIT ( ) );
#153 = EDGE_CURVE ( 'NONE', #23, #197, #38, .T. ) ;
#154 = CARTESIAN_POINT ( 'NONE',  ( 0.000000000000000000, 0.000000000000000000, 5.000000000000000000 ) ) ;
#155 = DIRECTION ( 'NONE',  ( 0.000000000000000000, 0.000000000000000000, 1.000000000000000000 ) ) ;
#156 = LOCAL_TIME ( 17, 18, 25.00000000000000000, #209 ) ;
#157 = ADVANCED_FACE ( 'NONE', ( #255, #42 ), #191, .T. ) ;
#158 = ORIENTED_EDGE ( 'NONE', *, *, #76, .T. ) ;
#159 = DIRECTION ( 'NONE',  ( 0.000000000000000000, 0.000000000000000000, 1.000000000000000000 ) ) ;
#160 = VERTEX_POINT ( 'NONE', #241 ) ;
#161 = EDGE_LOOP ( 'NONE', ( #318, #224, #259, #286 ) ) ;
#162 = CARTESIAN_POINT ( 'NONE',  ( -4.000000000000000000, 0.000000000000000000, 705.0000000000000000 ) ) ;
#163 = ORIENTED_EDGE ( 'NONE', *, *, #244, .T. ) ;
#164 = AXIS2_PLACEMENT_3D ( 'NONE', #222, #127, #342 ) ;
#165 = DIRECTION ( 'NONE',  ( 0.000000000000000000, 0.000000000000000000, 1.000000000000000000 ) ) ;
#166 = VERTEX_POINT ( 'NONE', #273 ) ;
#167 = AXIS2_PLACEMENT_3D ( 'NONE', #326, #231, #320 ) ;
#168 = DIRECTION ( 'NONE',  ( 0.000000000000000000, 0.000000000000000000, 1.000000000000000000 ) ) ;
#169 = EDGE_CURVE ( 'NONE', #50, #91, #305, .T. ) ;
#170 = DIRECTION ( 'NONE',  ( 0.000000000000000000, 0.000000000000000000, 1.000000000000000000 ) ) ;
#171 = DIRECTION ( 'NONE',  ( 1.224646799147353207E-16, 1.000000000000000000, -0.000000000000000000 ) ) ;
#172 = CIRCLE ( 'NONE', #13, 4.500000000000000888 ) ;
#173 = PRODUCT_DEFINITION_FORMATION_WITH_SPECIFIED_SOURCE ( 'LIBOVOLNÝ', '', #276, .NOT_KNOWN. ) ;
#174 = CALENDAR_DATE ( 2022, 8, 7 ) ;
#175 = CLOSED_SHELL ( 'NONE', ( #5, #114, #71, #184, #300, #157, #22, #270, #235, #110, #361 ) ) ;
#176 = CARTESIAN_POINT ( 'NONE',  ( 0.000000000000000000, 0.000000000000000000, 5.499999999999949374 ) ) ;
#177 = EDGE_CURVE ( 'NONE', #369, #109, #324, .T. ) ;
#178 = DIRECTION ( 'NONE',  ( 0.000000000000000000, 0.000000000000000000, -1.000000000000000000 ) ) ;
#179 = CARTESIAN_POINT ( 'NONE',  ( 0.000000000000000000, 0.000000000000000000, 5.000000000000000000 ) ) ;
#180 =( NAMED_UNIT ( * ) PLANE_ANGLE_UNIT ( ) SI_UNIT ( $, .RADIAN. ) );
#181 = AXIS2_PLACEMENT_3D ( 'NONE', #283, #287, #28 ) ;
#182 = DIRECTION ( 'NONE',  ( 1.000000000000000000, 0.000000000000000000, 0.000000000000000000 ) ) ;
#183 = MECHANICAL_CONTEXT ( 'NONE', #366, 'mechanical' ) ;
#184 = ADVANCED_FACE ( 'NONE', ( #359 ), #210, .T. ) ;
#185 = AXIS2_PLACEMENT_3D ( 'NONE', #176, #170, #297 ) ;
#186 = SECURITY_CLASSIFICATION_LEVEL ( 'unclassified' ) ;
#187 = AXIS2_PLACEMENT_3D ( 'NONE', #124, #310, #333 ) ;
#188 = CALENDAR_DATE ( 2022, 8, 7 ) ;
#189 = EDGE_LOOP ( 'NONE', ( #106, #225, #280, #374 ) ) ;
#190 = PERSON_AND_ORGANIZATION_ROLE ( 'creator' ) ;
#191 = PLANE ( 'NONE',  #311 ) ;
#192 = ORIENTED_EDGE ( 'NONE', *, *, #253, .F. ) ;
#193 = DIRECTION ( 'NONE',  ( -0.000000000000000000, -0.000000000000000000, -1.000000000000000000 ) ) ;
#194 = ORIENTED_EDGE ( 'NONE', *, *, #370, .F. ) ;
#195 = ORIENTED_EDGE ( 'NONE', *, *, #364, .T. ) ;
#196 = FACE_OUTER_BOUND ( 'NONE', #378, .T. ) ;
#197 = VERTEX_POINT ( 'NONE', #105 ) ;
#198 = FACE_OUTER_BOUND ( 'NONE', #254, .T. ) ;
#199 = CC_DESIGN_PERSON_AND_ORGANIZATION_ASSIGNMENT ( #3, #95, ( #276 ) ) ;
#200 = DIRECTION ( 'NONE',  ( -0.000000000000000000, -0.000000000000000000, -1.000000000000000000 ) ) ;
#201 = ORIENTED_EDGE ( 'NONE', *, *, #315, .T. ) ;
#202 = ORIENTED_EDGE ( 'NONE', *, *, #345, .T. ) ;
#203 = APPLICATION_PROTOCOL_DEFINITION ( 'international standard', 'config_control_design', 1994, #216 ) ;
#204 = AXIS2_PLACEMENT_3D ( 'NONE', #54, #371, #289 ) ;
#205 = CC_DESIGN_APPROVAL ( #17, ( #262 ) ) ;
#206 = EDGE_CURVE ( 'NONE', #26, #284, #335, .T. ) ;
#207 = DIRECTION ( 'NONE',  ( 0.000000000000000000, 0.000000000000000000, 1.000000000000000000 ) ) ;
#208 = FACE_OUTER_BOUND ( 'NONE', #261, .T. ) ;
#209 = COORDINATED_UNIVERSAL_TIME_OFFSET ( 1, 0, .AHEAD. ) ;
#210 = CYLINDRICAL_SURFACE ( 'NONE', #211, 7.000000000000000000 ) ;
#211 = AXIS2_PLACEMENT_3D ( 'NONE', #134, #40, #340 ) ;
#212 = DIRECTION ( 'NONE',  ( 1.000000000000000000, 0.000000000000000000, 0.000000000000000000 ) ) ;
#213 = PERSON_AND_ORGANIZATION ( #302, #265 ) ;
#214 = CARTESIAN_POINT ( 'NONE',  ( 0.000000000000000000, 0.000000000000000000, 5.499999999999949374 ) ) ;
#215 = DATE_AND_TIME ( #102, #301 ) ;
#216 = APPLICATION_CONTEXT ( 'configuration controlled 3d designs of mechanical parts and assemblies' ) ;
#217 = CIRCLE ( 'NONE', #358, 7.000000000000000000 ) ;
#218 = ORIENTED_EDGE ( 'NONE', *, *, #63, .T. ) ;
#219 = APPROVAL_STATUS ( 'not_yet_approved' ) ;
#220 = ORIENTED_EDGE ( 'NONE', *, *, #309, .F. ) ;
#221 = APPROVAL_ROLE ( '' ) ;
#222 = CARTESIAN_POINT ( 'NONE',  ( 0.000000000000000000, 0.000000000000000000, 705.0000000000000000 ) ) ;
#223 = ORIENTED_EDGE ( 'NONE', *, *, #345, .F. ) ;
#224 = ORIENTED_EDGE ( 'NONE', *, *, #132, .T. ) ;
#225 = ORIENTED_EDGE ( 'NONE', *, *, #92, .T. ) ;
#226 = PRODUCT_DEFINITION_SHAPE ( 'NONE', 'NONE',  #262 ) ;
#227 = DIRECTION ( 'NONE',  ( 0.000000000000000000, 0.000000000000000000, 1.000000000000000000 ) ) ;
#228 = EDGE_CURVE ( 'NONE', #109, #166, #271, .T. ) ;
#229 = CARTESIAN_POINT ( 'NONE',  ( -2.500000000000000000, 0.000000000000000000, 0.000000000000000000 ) ) ;
#230 = CARTESIAN_POINT ( 'NONE',  ( 0.000000000000000000, 0.000000000000000000, 0.000000000000000000 ) ) ;
#231 = DIRECTION ( 'NONE',  ( -0.000000000000000000, -0.000000000000000000, -1.000000000000000000 ) ) ;
#232 = TOROIDAL_SURFACE ( 'NONE', #73, 4.500000000000000888, 0.5000000000000000000 ) ;
#233 = CARTESIAN_POINT ( 'NONE',  ( 4.500000000000000888, 0.000000000000000000, 4.999999999999975131 ) ) ;
#234 = EDGE_LOOP ( 'NONE', ( #4, #220 ) ) ;
#235 = ADVANCED_FACE ( 'NONE', ( #10, #243 ), #15, .T. ) ;
#236 = ORIENTED_EDGE ( 'NONE', *, *, #49, .F. ) ;
#237 = PERSON_AND_ORGANIZATION ( #302, #265 ) ;
#238 = AXIS2_PLACEMENT_3D ( 'NONE', #83, #193, #182 ) ;
#239 = CYLINDRICAL_SURFACE ( 'NONE', #295, 2.500000000000000000 ) ;
#240 = CARTESIAN_POINT ( 'NONE',  ( 0.000000000000000000, 0.000000000000000000, 705.0000000000000000 ) ) ;
#241 = CARTESIAN_POINT ( 'NONE',  ( 7.000000000000000000, 8.572527594031473190E-16, 5.000000000000000000 ) ) ;
#242 =( LENGTH_UNIT ( ) NAMED_UNIT ( * ) SI_UNIT ( .MILLI., .METRE. ) );
#243 = FACE_OUTER_BOUND ( 'NONE', #53, .T. ) ;
#244 = EDGE_CURVE ( 'NONE', #350, #166, #55, .T. ) ;
#245 = CIRCLE ( 'NONE', #251, 7.000000000000000000 ) ;
#246 = CARTESIAN_POINT ( 'NONE',  ( 0.000000000000000000, 0.000000000000000000, 0.000000000000000000 ) ) ;
#247 = COORDINATED_UNIVERSAL_TIME_OFFSET ( 1, 0, .AHEAD. ) ;
#248 = PERSON_AND_ORGANIZATION_ROLE ( 'classification_officer' ) ;
#249 = CC_DESIGN_PERSON_AND_ORGANIZATION_ASSIGNMENT ( #237, #356, ( #262 ) ) ;
#250 = DATE_AND_TIME ( #188, #45 ) ;
#251 = AXIS2_PLACEMENT_3D ( 'NONE', #1, #165, #377 ) ;
#252 = COORDINATED_UNIVERSAL_TIME_OFFSET ( 1, 0, .AHEAD. ) ;
#253 = EDGE_CURVE ( 'NONE', #369, #350, #85, .T. ) ;
#254 = EDGE_LOOP ( 'NONE', ( #94, #195, #223, #46 ) ) ;
#255 = FACE_BOUND ( 'NONE', #282, .T. ) ;
#256 = ORIENTED_EDGE ( 'NONE', *, *, #57, .T. ) ;
#257 = CARTESIAN_POINT ( 'NONE',  ( -4.000000000000000000, 0.000000000000000000, 5.499999999999949374 ) ) ;
#258 = MANIFOLD_SOLID_BREP ( 'Odebrat vysunutím3', #175 ) ;
#259 = ORIENTED_EDGE ( 'NONE', *, *, #206, .T. ) ;
#260 = LOCAL_TIME ( 17, 18, 25.00000000000000000, #252 ) ;
#261 = EDGE_LOOP ( 'NONE', ( #308, #338 ) ) ;
#262 = PRODUCT_DEFINITION ( 'NEZNÁMÝ', '', #173, #291 ) ;
#263 = ORIENTED_EDGE ( 'NONE', *, *, #169, .F. ) ;
#264 = DIRECTION ( 'NONE',  ( 0.000000000000000000, 0.000000000000000000, 1.000000000000000000 ) ) ;
#265 = ORGANIZATION ( 'NEURÈENÝ', 'NEURÈENÝ', '' ) ;
#266 = CARTESIAN_POINT ( 'NONE',  ( 0.000000000000000000, 0.000000000000000000, 5.499999999999949374 ) ) ;
#267 = ORIENTED_EDGE ( 'NONE', *, *, #63, .F. ) ;
#268 = DIRECTION ( 'NONE',  ( 0.000000000000000000, 0.000000000000000000, -1.000000000000000000 ) ) ;
#269 = DIRECTION ( 'NONE',  ( 1.000000000000000000, 0.000000000000000000, 0.000000000000000000 ) ) ;
#270 = ADVANCED_FACE ( 'NONE', ( #196 ), #317, .T. ) ;
#271 = LINE ( 'NONE', #80, #130 ) ;
#272 = APPROVAL_STATUS ( 'not_yet_approved' ) ;
#273 = CARTESIAN_POINT ( 'NONE',  ( 4.000000000000000000, 4.898587196589412829E-16, 5.499999999999949374 ) ) ;
#274 = EDGE_CURVE ( 'NONE', #284, #26, #245, .T. ) ;
#275 = DATE_AND_TIME ( #77, #260 ) ;
#276 = PRODUCT ( '4eba', '4eba', '', ( #183 ) ) ;
#277 = PERSON_AND_ORGANIZATION ( #302, #265 ) ;
#278 = LOCAL_TIME ( 17, 18, 25.00000000000000000, #16 ) ;
#279 = ORIENTED_EDGE ( 'NONE', *, *, #364, .F. ) ;
#280 = ORIENTED_EDGE ( 'NONE', *, *, #309, .T. ) ;
#281 = DIRECTION ( 'NONE',  ( 1.000000000000000000, 0.000000000000000000, 0.000000000000000000 ) ) ;
#282 = EDGE_LOOP ( 'NONE', ( #202, #218 ) ) ;
#283 = CARTESIAN_POINT ( 'NONE',  ( 0.000000000000000000, 0.000000000000000000, 5.000000000000000000 ) ) ;
#284 = VERTEX_POINT ( 'NONE', #111 ) ;
#285 = EDGE_CURVE ( 'NONE', #91, #50, #88, .T. ) ;
#286 = ORIENTED_EDGE ( 'NONE', *, *, #121, .F. ) ;
#287 = DIRECTION ( 'NONE',  ( -0.000000000000000000, -0.000000000000000000, -1.000000000000000000 ) ) ;
#288 = DIRECTION ( 'NONE',  ( -1.000000000000000000, 0.000000000000000000, 0.000000000000000000 ) ) ;
#289 = DIRECTION ( 'NONE',  ( -1.000000000000000000, 0.000000000000000000, 0.000000000000000000 ) ) ;
#290 = CC_DESIGN_PERSON_AND_ORGANIZATION_ASSIGNMENT ( #47, #248, ( #97 ) ) ;
#291 = DESIGN_CONTEXT ( 'detailed design', #216, 'design' ) ;
#292 = AXIS2_PLACEMENT_3D ( 'NONE', #230, #200, #321 ) ;
#293 = DIRECTION ( 'NONE',  ( -1.000000000000000000, 1.224646799147351482E-16, 0.000000000000000000 ) ) ;
#294 = LINE ( 'NONE', #331, #314 ) ;
#295 = AXIS2_PLACEMENT_3D ( 'NONE', #357, #380, #288 ) ;
#296 = DIRECTION ( 'NONE',  ( -1.000000000000000000, 0.000000000000000000, 0.000000000000000000 ) ) ;
#297 = DIRECTION ( 'NONE',  ( 1.000000000000000000, 0.000000000000000000, 0.000000000000000000 ) ) ;
#298 = DIRECTION ( 'NONE',  ( 0.000000000000000000, 0.000000000000000000, 1.000000000000000000 ) ) ;
#299 = VERTEX_POINT ( 'NONE', #347 ) ;
#300 = ADVANCED_FACE ( 'NONE', ( #87 ), #108, .T. ) ;
#301 = LOCAL_TIME ( 17, 18, 25.00000000000000000, #247 ) ;
#302 = PERSON ( 'NEURÈENÝ', 'NEURÈENÝ', 'NEURÈENÝ', ('NEURÈENÝ'), ('NEURÈENÝ'), ('NEURÈENÝ') ) ;
#303 = CC_DESIGN_PERSON_AND_ORGANIZATION_ASSIGNMENT ( #213, #190, ( #173 ) ) ;
#304 = DIRECTION ( 'NONE',  ( 0.000000000000000000, 0.000000000000000000, 1.000000000000000000 ) ) ;
#305 = CIRCLE ( 'NONE', #381, 2.500000000000000000 ) ;
#306 = APPROVAL_PERSON_ORGANIZATION ( #307, #41, #221 ) ;
#307 = PERSON_AND_ORGANIZATION ( #302, #265 ) ;
#308 = ORIENTED_EDGE ( 'NONE', *, *, #274, .F. ) ;
#309 = EDGE_CURVE ( 'NONE', #197, #23, #349, .T. ) ;
#310 = DIRECTION ( 'NONE',  ( 0.000000000000000000, 0.000000000000000000, 1.000000000000000000 ) ) ;
#311 = AXIS2_PLACEMENT_3D ( 'NONE', #154, #155, #12 ) ;
#312 = ORIENTED_EDGE ( 'NONE', *, *, #177, .T. ) ;
#313 = CARTESIAN_POINT ( 'NONE',  ( 0.000000000000000000, 0.000000000000000000, 705.0000000000000000 ) ) ;
#314 = VECTOR ( 'NONE', #99, 1000.000000000000000 ) ;
#315 = EDGE_CURVE ( 'NONE', #166, #341, #343, .T. ) ;
#316 = VERTEX_POINT ( 'NONE', #115 ) ;
#317 = CYLINDRICAL_SURFACE ( 'NONE', #204, 4.000000000000000000 ) ;
#318 = ORIENTED_EDGE ( 'NONE', *, *, #57, .F. ) ;
#319 = AXIS2_PLACEMENT_3D ( 'NONE', #240, #178, #296 ) ;
#320 = DIRECTION ( 'NONE',  ( 1.000000000000000000, 0.000000000000000000, 0.000000000000000000 ) ) ;
#321 = DIRECTION ( 'NONE',  ( 1.000000000000000000, 0.000000000000000000, 0.000000000000000000 ) ) ;
#322 = PLANE ( 'NONE',  #151 ) ;
#323 = DIRECTION ( 'NONE',  ( -1.000000000000000000, 0.000000000000000000, 0.000000000000000000 ) ) ;
#324 = CIRCLE ( 'NONE', #187, 4.000000000000000000 ) ;
#325 = PERSON_AND_ORGANIZATION ( #302, #265 ) ;
#326 = CARTESIAN_POINT ( 'NONE',  ( 0.000000000000000000, 0.000000000000000000, 5.000000000000000000 ) ) ;
#327 = FACE_OUTER_BOUND ( 'NONE', #113, .T. ) ;
#328 = APPROVAL ( #272, 'NEURÈENÝ' ) ;
#329 = CARTESIAN_POINT ( 'NONE',  ( 0.000000000000000000, 0.000000000000000000, 705.0000000000000000 ) ) ;
#330 = DIRECTION ( 'NONE',  ( 1.000000000000000000, 0.000000000000000000, 0.000000000000000000 ) ) ;
#331 = CARTESIAN_POINT ( 'NONE',  ( -7.000000000000000000, 0.000000000000000000, 5.000000000000000000 ) ) ;
#332 = AXIS2_PLACEMENT_3D ( 'NONE', #34, #8, #122 ) ;
#333 = DIRECTION ( 'NONE',  ( 1.000000000000000000, 0.000000000000000000, 0.000000000000000000 ) ) ;
#334 = DATE_TIME_ROLE ( 'classification_date' ) ;
#335 = CIRCLE ( 'NONE', #142, 7.000000000000000000 ) ;
#336 = APPROVAL_DATE_TIME ( #250, #41 ) ;
#337 = CIRCLE ( 'NONE', #167, 4.500000000000000888 ) ;
#338 = ORIENTED_EDGE ( 'NONE', *, *, #206, .F. ) ;
#339 = SHAPE_DEFINITION_REPRESENTATION ( #226, #376 ) ;
#340 = DIRECTION ( 'NONE',  ( -1.000000000000000000, 0.000000000000000000, 0.000000000000000000 ) ) ;
#341 = VERTEX_POINT ( 'NONE', #233 ) ;
#342 = DIRECTION ( 'NONE',  ( 1.000000000000000000, 0.000000000000000000, -0.000000000000000000 ) ) ;
#343 = CIRCLE ( 'NONE', #125, 0.5000000000000004441 ) ;
#344 = CIRCLE ( 'NONE', #143, 0.5000000000000004441 ) ;
#345 = EDGE_CURVE ( 'NONE', #341, #299, #172, .T. ) ;
#346 = ORIENTED_EDGE ( 'NONE', *, *, #76, .F. ) ;
#347 = CARTESIAN_POINT ( 'NONE',  ( -4.500000000000000888, 5.510910596163088569E-16, 4.999999999999975131 ) ) ;
#348 = FACE_OUTER_BOUND ( 'NONE', #98, .T. ) ;
#349 = CIRCLE ( 'NONE', #292, 2.500000000000000000 ) ;
#350 = VERTEX_POINT ( 'NONE', #257 ) ;
#351 = AXIS2_PLACEMENT_3D ( 'NONE', #60, #66, #323 ) ;
#352 = CARTESIAN_POINT ( 'NONE',  ( 0.000000000000000000, 0.000000000000000000, 5.000000000000000000 ) ) ;
#353 = DIRECTION ( 'NONE',  ( 1.000000000000000000, 0.000000000000000000, -0.000000000000000000 ) ) ;
#354 = CARTESIAN_POINT ( 'NONE',  ( 0.000000000000000000, 0.000000000000000000, 0.000000000000000000 ) ) ;
#355 = CARTESIAN_POINT ( 'NONE',  ( 0.000000000000000000, 0.000000000000000000, 0.000000000000000000 ) ) ;
#356 = PERSON_AND_ORGANIZATION_ROLE ( 'creator' ) ;
#357 = CARTESIAN_POINT ( 'NONE',  ( 0.000000000000000000, 0.000000000000000000, 705.0000000000000000 ) ) ;
#358 = AXIS2_PLACEMENT_3D ( 'NONE', #149, #207, #269 ) ;
#359 = FACE_OUTER_BOUND ( 'NONE', #161, .T. ) ;
#360 = LINE ( 'NONE', #72, #31 ) ;
#361 = ADVANCED_FACE ( 'NONE', ( #327 ), #123, .F. ) ;
#362 = AXIS2_PLACEMENT_3D ( 'NONE', #329, #298, #36 ) ;
#363 = CALENDAR_DATE ( 2022, 8, 7 ) ;
#364 = EDGE_CURVE ( 'NONE', #350, #299, #344, .T. ) ;
#365 = DATE_TIME_ROLE ( 'creation_date' ) ;
#366 = APPLICATION_CONTEXT ( 'configuration controlled 3d designs of mechanical parts and assemblies' ) ;
#367 = EDGE_LOOP ( 'NONE', ( #194, #86, #158, #192 ) ) ;
#368 = LINE ( 'NONE', #101, #43 ) ;
#369 = VERTEX_POINT ( 'NONE', #67 ) ;
#370 = EDGE_CURVE ( 'NONE', #109, #369, #373, .T. ) ;
#371 = DIRECTION ( 'NONE',  ( -0.000000000000000000, -0.000000000000000000, -1.000000000000000000 ) ) ;
#372 = VECTOR ( 'NONE', #140, 1000.000000000000000 ) ;
#373 = CIRCLE ( 'NONE', #362, 4.000000000000000000 ) ;
#374 = ORIENTED_EDGE ( 'NONE', *, *, #126, .F. ) ;
#375 = AXIS2_PLACEMENT_3D ( 'NONE', #179, #264, #96 ) ;
#376 = ADVANCED_BREP_SHAPE_REPRESENTATION ( '4eba', ( #258, #70 ), #103 ) ;
#377 = DIRECTION ( 'NONE',  ( 1.000000000000000000, 0.000000000000000000, 0.000000000000000000 ) ) ;
#378 = EDGE_LOOP ( 'NONE', ( #27, #79, #138, #163 ) ) ;
#379 = CC_DESIGN_PERSON_AND_ORGANIZATION_ASSIGNMENT ( #277, #78, ( #173 ) ) ;
#380 = DIRECTION ( 'NONE',  ( 0.000000000000000000, 0.000000000000000000, -1.000000000000000000 ) ) ;
#381 = AXIS2_PLACEMENT_3D ( 'NONE', #313, #304, #51 ) ;
ENDSEC;
END-ISO-10303-21;
