ISO-10303-21;
HEADER;
FILE_DESCRIPTION (( 'STEP AP203' ),
    '1' );
FILE_NAME ('8e07.STEP',
    '2022-07-08T14:35:08',
    ( '' ),
    ( '' ),
    'SwSTEP 2.0',
    'SolidWorks 2019',
    '' );
FILE_SCHEMA (( 'CONFIG_CONTROL_DESIGN' ));
ENDSEC;

DATA;
#1 = AXIS2_PLACEMENT_3D ( 'NONE', #347, #200, #143 ) ;
#2 = TOROIDAL_SURFACE ( 'NONE', #138, 6.700000000000001066, 0.6999999999999999556 ) ;
#3 = CARTESIAN_POINT ( 'NONE',  ( 0.000000000000000000, 0.000000000000000000, 167.0000000000000000 ) ) ;
#4 = DIRECTION ( 'NONE',  ( -0.000000000000000000, -0.000000000000000000, -1.000000000000000000 ) ) ;
#5 = CARTESIAN_POINT ( 'NONE',  ( 0.000000000000000000, 0.000000000000000000, 167.0000000000000000 ) ) ;
#6 = ORIENTED_EDGE ( 'NONE', *, *, #295, .F. ) ;
#7 = ADVANCED_BREP_SHAPE_REPRESENTATION ( '8e07', ( #198, #43 ), #104 ) ;
#8 = ADVANCED_FACE ( 'NONE', ( #238 ), #260, .T. ) ;
#9 = DIRECTION ( 'NONE',  ( 0.000000000000000000, 0.000000000000000000, 1.000000000000000000 ) ) ;
#10 = ORGANIZATION ( 'NEURÈENÝ', 'NEURÈENÝ', '' ) ;
#11 = FACE_OUTER_BOUND ( 'NONE', #18, .T. ) ;
#12 = DIRECTION ( 'NONE',  ( 0.000000000000000000, 0.000000000000000000, 1.000000000000000000 ) ) ;
#13 = VERTEX_POINT ( 'NONE', #56 ) ;
#14 = ORIENTED_EDGE ( 'NONE', *, *, #267, .F. ) ;
#15 = LOCAL_TIME ( 16, 35, 8.000000000000000000, #199 ) ;
#16 = CARTESIAN_POINT ( 'NONE',  ( 0.000000000000000000, 0.000000000000000000, 0.000000000000000000 ) ) ;
#17 = VERTEX_POINT ( 'NONE', #114 ) ;
#18 = EDGE_LOOP ( 'NONE', ( #275, #45 ) ) ;
#19 = APPROVAL_STATUS ( 'not_yet_approved' ) ;
#20 = APPROVAL_STATUS ( 'not_yet_approved' ) ;
#21 = APPROVAL_PERSON_ORGANIZATION ( #142, #192, #170 ) ;
#22 = DIRECTION ( 'NONE',  ( 1.000000000000000000, 0.000000000000000000, 0.000000000000000000 ) ) ;
#23 = CARTESIAN_POINT ( 'NONE',  ( 0.000000000000000000, 0.000000000000000000, 167.0000000000000000 ) ) ;
#24 = CARTESIAN_POINT ( 'NONE',  ( 0.000000000000000000, 0.000000000000000000, 167.0000000000000000 ) ) ;
#25 = DIRECTION ( 'NONE',  ( 0.000000000000000000, 0.000000000000000000, -1.000000000000000000 ) ) ;
#26 = APPROVAL_DATE_TIME ( #262, #59 ) ;
#27 = DIRECTION ( 'NONE',  ( 0.000000000000000000, 0.000000000000000000, 1.000000000000000000 ) ) ;
#28 = EDGE_CURVE ( 'NONE', #301, #137, #162, .T. ) ;
#29 = CARTESIAN_POINT ( 'NONE',  ( -4.099999999999999645, 0.000000000000000000, 167.0000000000000000 ) ) ;
#30 = CARTESIAN_POINT ( 'NONE',  ( 0.000000000000000000, 0.000000000000000000, 0.000000000000000000 ) ) ;
#31 = AXIS2_PLACEMENT_3D ( 'NONE', #93, #9, #300 ) ;
#32 = FACE_OUTER_BOUND ( 'NONE', #73, .T. ) ;
#33 = CARTESIAN_POINT ( 'NONE',  ( -6.000000000000000888, 0.000000000000000000, 167.0000000000000000 ) ) ;
#34 = DIRECTION ( 'NONE',  ( 1.000000000000000000, 0.000000000000000000, 0.000000000000000000 ) ) ;
#35 = AXIS2_PLACEMENT_3D ( 'NONE', #140, #145, #204 ) ;
#36 = EDGE_LOOP ( 'NONE', ( #99, #194 ) ) ;
#37 = LOCAL_TIME ( 16, 35, 8.000000000000000000, #239 ) ;
#38 = ADVANCED_FACE ( 'NONE', ( #240, #319 ), #86, .F. ) ;
#39 = DIRECTION ( 'NONE',  ( -0.000000000000000000, -0.000000000000000000, -1.000000000000000000 ) ) ;
#40 = DIRECTION ( 'NONE',  ( 0.000000000000000000, 0.000000000000000000, 1.000000000000000000 ) ) ;
#41 = ORIENTED_EDGE ( 'NONE', *, *, #373, .F. ) ;
#42 = ORIENTED_EDGE ( 'NONE', *, *, #357, .T. ) ;
#43 = AXIS2_PLACEMENT_3D ( 'NONE', #16, #40, #159 ) ;
#44 =( LENGTH_UNIT ( ) NAMED_UNIT ( * ) SI_UNIT ( .MILLI., .METRE. ) );
#45 = ORIENTED_EDGE ( 'NONE', *, *, #28, .T. ) ;
#46 = ADVANCED_FACE ( 'NONE', ( #381 ), #287, .T. ) ;
#47 = DIRECTION ( 'NONE',  ( 1.000000000000000000, 0.000000000000000000, 0.000000000000000000 ) ) ;
#48 = ORIENTED_EDGE ( 'NONE', *, *, #334, .T. ) ;
#49 = COORDINATED_UNIVERSAL_TIME_OFFSET ( 1, 0, .AHEAD. ) ;
#50 = LINE ( 'NONE', #147, #339 ) ;
#51 = PERSON_AND_ORGANIZATION_ROLE ( 'classification_officer' ) ;
#52 = VECTOR ( 'NONE', #4, 1000.000000000000000 ) ;
#53 = ORIENTED_EDGE ( 'NONE', *, *, #231, .T. ) ;
#54 = ORIENTED_EDGE ( 'NONE', *, *, #220, .F. ) ;
#55 = DIRECTION ( 'NONE',  ( 1.000000000000000000, 0.000000000000000000, 0.000000000000000000 ) ) ;
#56 = CARTESIAN_POINT ( 'NONE',  ( 4.099999999999999645, 5.021051876504146399E-16, 0.000000000000000000 ) ) ;
#57 = AXIS2_PLACEMENT_3D ( 'NONE', #102, #39, #329 ) ;
#58 = CARTESIAN_POINT ( 'NONE',  ( 0.000000000000000000, 0.000000000000000000, 7.000000000000000000 ) ) ;
#59 = APPROVAL ( #19, 'NEURÈENÝ' ) ;
#60 = DIRECTION ( 'NONE',  ( 0.000000000000000000, -1.000000000000000000, 0.000000000000000000 ) ) ;
#61 = CARTESIAN_POINT ( 'NONE',  ( -10.00000000000000000, 0.000000000000000000, 0.000000000000000000 ) ) ;
#62 = CC_DESIGN_PERSON_AND_ORGANIZATION_ASSIGNMENT ( #332, #363, ( #226 ) ) ;
#63 = DIRECTION ( 'NONE',  ( -0.000000000000000000, -0.000000000000000000, -1.000000000000000000 ) ) ;
#64 = EDGE_LOOP ( 'NONE', ( #6, #366 ) ) ;
#65 = APPROVAL ( #20, 'NEURÈENÝ' ) ;
#66 = CARTESIAN_POINT ( 'NONE',  ( 0.000000000000000000, 0.000000000000000000, 167.0000000000000000 ) ) ;
#67 = ADVANCED_FACE ( 'NONE', ( #377 ), #2, .F. ) ;
#68 = CARTESIAN_POINT ( 'NONE',  ( -6.700000000000001066, 8.205133554287267548E-16, 7.000000000000006217 ) ) ;
#69 = ORIENTED_EDGE ( 'NONE', *, *, #95, .F. ) ;
#70 = COORDINATED_UNIVERSAL_TIME_OFFSET ( 1, 0, .AHEAD. ) ;
#71 = EDGE_LOOP ( 'NONE', ( #76, #235 ) ) ;
#72 = CARTESIAN_POINT ( 'NONE',  ( 0.000000000000000000, 0.000000000000000000, 7.000000000000000000 ) ) ;
#73 = EDGE_LOOP ( 'NONE', ( #360, #191, #338, #103 ) ) ;
#74 = AXIS2_PLACEMENT_3D ( 'NONE', #30, #153, #323 ) ;
#75 = EDGE_LOOP ( 'NONE', ( #303, #48, #41, #333 ) ) ;
#76 = ORIENTED_EDGE ( 'NONE', *, *, #231, .F. ) ;
#77 = EDGE_CURVE ( 'NONE', #17, #343, #186, .T. ) ;
#78 = PERSON_AND_ORGANIZATION_ROLE ( 'creator' ) ;
#79 = DIRECTION ( 'NONE',  ( -1.000000000000000000, 0.000000000000000000, 0.000000000000000000 ) ) ;
#80 = APPROVAL_DATE_TIME ( #316, #192 ) ;
#81 = LOCAL_TIME ( 16, 35, 8.000000000000000000, #83 ) ;
#82 = CARTESIAN_POINT ( 'NONE',  ( 0.000000000000000000, 0.000000000000000000, 7.700000000000012612 ) ) ;
#83 = COORDINATED_UNIVERSAL_TIME_OFFSET ( 1, 0, .AHEAD. ) ;
#84 = CARTESIAN_POINT ( 'NONE',  ( -4.099999999999999645, 0.000000000000000000, 167.0000000000000000 ) ) ;
#85 = DATE_AND_TIME ( #289, #37 ) ;
#86 = PLANE ( 'NONE',  #219 ) ;
#87 = DIRECTION ( 'NONE',  ( -1.000000000000000000, 0.000000000000000000, 0.000000000000000000 ) ) ;
#88 = DIRECTION ( 'NONE',  ( -0.000000000000000000, -0.000000000000000000, -1.000000000000000000 ) ) ;
#89 = EDGE_CURVE ( 'NONE', #164, #247, #290, .T. ) ;
#90 = LINE ( 'NONE', #33, #214 ) ;
#91 = PLANE ( 'NONE',  #188 ) ;
#92 = CC_DESIGN_APPROVAL ( #65, ( #181 ) ) ;
#93 = CARTESIAN_POINT ( 'NONE',  ( 0.000000000000000000, 0.000000000000000000, 7.700000000000012612 ) ) ;
#94 = CARTESIAN_POINT ( 'NONE',  ( -6.700000000000001066, 8.205133554287267548E-16, 7.700000000000012612 ) ) ;
#95 = EDGE_CURVE ( 'NONE', #343, #282, #50, .T. ) ;
#96 = ORIENTED_EDGE ( 'NONE', *, *, #373, .T. ) ;
#97 = VECTOR ( 'NONE', #353, 1000.000000000000000 ) ;
#98 = APPLICATION_PROTOCOL_DEFINITION ( 'international standard', 'config_control_design', 1994, #109 ) ;
#99 = ORIENTED_EDGE ( 'NONE', *, *, #107, .F. ) ;
#100 = ORIENTED_EDGE ( 'NONE', *, *, #141, .T. ) ;
#101 = CIRCLE ( 'NONE', #139, 6.000000000000000888 ) ;
#102 = CARTESIAN_POINT ( 'NONE',  ( 0.000000000000000000, 0.000000000000000000, 7.000000000000000000 ) ) ;
#103 = ORIENTED_EDGE ( 'NONE', *, *, #295, .T. ) ;
#104 =( GEOMETRIC_REPRESENTATION_CONTEXT ( 3 ) GLOBAL_UNCERTAINTY_ASSIGNED_CONTEXT ( ( #369 ) ) GLOBAL_UNIT_ASSIGNED_CONTEXT ( ( #44, #134, #222 ) ) REPRESENTATION_CONTEXT ( 'NONE', 'WORKASPACE' ) );
#105 = CALENDAR_DATE ( 2022, 8, 7 ) ;
#106 = ORIENTED_EDGE ( 'NONE', *, *, #107, .T. ) ;
#107 = EDGE_CURVE ( 'NONE', #164, #218, #175, .T. ) ;
#108 = EDGE_LOOP ( 'NONE', ( #96, #183 ) ) ;
#109 = APPLICATION_CONTEXT ( 'configuration controlled 3d designs of mechanical parts and assemblies' ) ;
#110 = APPROVAL_STATUS ( 'not_yet_approved' ) ;
#111 = EDGE_LOOP ( 'NONE', ( #327, #280, #42, #160 ) ) ;
#112 = PERSON_AND_ORGANIZATION_ROLE ( 'creator' ) ;
#113 = CIRCLE ( 'NONE', #176, 10.00000000000000000 ) ;
#114 = CARTESIAN_POINT ( 'NONE',  ( -6.000000000000000888, 0.000000000000000000, 167.0000000000000000 ) ) ;
#115 = PERSON_AND_ORGANIZATION ( #281, #10 ) ;
#116 = EDGE_CURVE ( 'NONE', #218, #13, #263, .T. ) ;
#117 = CARTESIAN_POINT ( 'NONE',  ( 6.700000000000001066, 0.000000000000000000, 7.000000000000006217 ) ) ;
#118 = DIRECTION ( 'NONE',  ( 1.000000000000000000, 0.000000000000000000, 0.000000000000000000 ) ) ;
#119 = AXIS2_PLACEMENT_3D ( 'NONE', #24, #27, #118 ) ;
#120 = FACE_OUTER_BOUND ( 'NONE', #228, .T. ) ;
#121 = EDGE_CURVE ( 'NONE', #137, #301, #253, .T. ) ;
#122 = CARTESIAN_POINT ( 'NONE',  ( 10.00000000000000000, 1.224646799147353256E-15, 0.000000000000000000 ) ) ;
#123 = ORIENTED_EDGE ( 'NONE', *, *, #334, .F. ) ;
#124 = DIRECTION ( 'NONE',  ( -1.000000000000000000, 0.000000000000000000, 0.000000000000000000 ) ) ;
#125 = AXIS2_PLACEMENT_3D ( 'NONE', #152, #60, #268 ) ;
#126 = CIRCLE ( 'NONE', #179, 6.000000000000000888 ) ;
#127 = CARTESIAN_POINT ( 'NONE',  ( 0.000000000000000000, 0.000000000000000000, 7.000000000000000000 ) ) ;
#128 = ORIENTED_EDGE ( 'NONE', *, *, #267, .T. ) ;
#129 = APPLICATION_CONTEXT ( 'configuration controlled 3d designs of mechanical parts and assemblies' ) ;
#130 = MECHANICAL_CONTEXT ( 'NONE', #129, 'mechanical' ) ;
#131 = VERTEX_POINT ( 'NONE', #117 ) ;
#132 = CC_DESIGN_APPROVAL ( #192, ( #321 ) ) ;
#133 = ORIENTED_EDGE ( 'NONE', *, *, #236, .T. ) ;
#134 =( NAMED_UNIT ( * ) PLANE_ANGLE_UNIT ( ) SI_UNIT ( $, .RADIAN. ) );
#135 = ORIENTED_EDGE ( 'NONE', *, *, #77, .T. ) ;
#136 = CYLINDRICAL_SURFACE ( 'NONE', #57, 10.00000000000000000 ) ;
#137 = VERTEX_POINT ( 'NONE', #206 ) ;
#138 = AXIS2_PLACEMENT_3D ( 'NONE', #82, #174, #55 ) ;
#139 = AXIS2_PLACEMENT_3D ( 'NONE', #349, #149, #22 ) ;
#140 = CARTESIAN_POINT ( 'NONE',  ( 0.000000000000000000, 0.000000000000000000, 167.0000000000000000 ) ) ;
#141 = EDGE_CURVE ( 'NONE', #282, #368, #101, .T. ) ;
#142 = PERSON_AND_ORGANIZATION ( #281, #10 ) ;
#143 = DIRECTION ( 'NONE',  ( 1.000000000000000000, 0.000000000000000000, 0.000000000000000000 ) ) ;
#144 = PERSON_AND_ORGANIZATION ( #281, #10 ) ;
#145 = DIRECTION ( 'NONE',  ( 0.000000000000000000, 0.000000000000000000, 1.000000000000000000 ) ) ;
#146 = AXIS2_PLACEMENT_3D ( 'NONE', #245, #297, #356 ) ;
#147 = CARTESIAN_POINT ( 'NONE',  ( 6.000000000000000888, 7.347880794884120722E-16, 167.0000000000000000 ) ) ;
#148 = PERSON_AND_ORGANIZATION_ROLE ( 'design_supplier' ) ;
#149 = DIRECTION ( 'NONE',  ( 0.000000000000000000, 0.000000000000000000, 1.000000000000000000 ) ) ;
#150 = DIRECTION ( 'NONE',  ( 1.000000000000000000, 0.000000000000000000, -0.000000000000000000 ) ) ;
#151 = EDGE_CURVE ( 'NONE', #13, #247, #320, .T. ) ;
#152 = CARTESIAN_POINT ( 'NONE',  ( 6.700000000000001066, 0.000000000000000000, 7.700000000000012612 ) ) ;
#153 = DIRECTION ( 'NONE',  ( 0.000000000000000000, 0.000000000000000000, 1.000000000000000000 ) ) ;
#154 = EDGE_CURVE ( 'NONE', #301, #252, #350, .T. ) ;
#155 = PLANE ( 'NONE',  #307 ) ;
#156 = AXIS2_PLACEMENT_3D ( 'NONE', #256, #264, #241 ) ;
#157 = AXIS2_PLACEMENT_3D ( 'NONE', #3, #177, #244 ) ;
#158 = DIRECTION ( 'NONE',  ( 1.000000000000000000, 0.000000000000000000, 0.000000000000000000 ) ) ;
#159 = DIRECTION ( 'NONE',  ( 1.000000000000000000, 0.000000000000000000, 0.000000000000000000 ) ) ;
#160 = ORIENTED_EDGE ( 'NONE', *, *, #285, .F. ) ;
#161 = ADVANCED_FACE ( 'NONE', ( #328, #216 ), #155, .T. ) ;
#162 = CIRCLE ( 'NONE', #1, 10.00000000000000000 ) ;
#163 = DIRECTION ( 'NONE',  ( 1.000000000000000000, 0.000000000000000000, 0.000000000000000000 ) ) ;
#164 = VERTEX_POINT ( 'NONE', #29 ) ;
#165 = CC_DESIGN_DATE_AND_TIME_ASSIGNMENT ( #202, #196, ( #305 ) ) ;
#166 = CIRCLE ( 'NONE', #362, 0.7000000000000000666 ) ;
#167 = ORIENTED_EDGE ( 'NONE', *, *, #95, .T. ) ;
#168 = ORIENTED_EDGE ( 'NONE', *, *, #220, .T. ) ;
#169 = ADVANCED_FACE ( 'NONE', ( #120 ), #271, .F. ) ;
#170 = APPROVAL_ROLE ( '' ) ;
#171 = DIRECTION ( 'NONE',  ( 0.000000000000000000, 0.000000000000000000, -1.000000000000000000 ) ) ;
#172 = DIRECTION ( 'NONE',  ( 1.000000000000000000, 0.000000000000000000, -0.000000000000000000 ) ) ;
#173 = ORIENTED_EDGE ( 'NONE', *, *, #116, .T. ) ;
#174 = DIRECTION ( 'NONE',  ( 0.000000000000000000, 0.000000000000000000, 1.000000000000000000 ) ) ;
#175 = CIRCLE ( 'NONE', #35, 4.099999999999999645 ) ;
#176 = AXIS2_PLACEMENT_3D ( 'NONE', #217, #12, #163 ) ;
#177 = DIRECTION ( 'NONE',  ( 0.000000000000000000, 0.000000000000000000, 1.000000000000000000 ) ) ;
#178 = CARTESIAN_POINT ( 'NONE',  ( -10.00000000000000000, 0.000000000000000000, 7.000000000000000000 ) ) ;
#179 = AXIS2_PLACEMENT_3D ( 'NONE', #5, #354, #34 ) ;
#180 = CYLINDRICAL_SURFACE ( 'NONE', #341, 10.00000000000000000 ) ;
#181 = SECURITY_CLASSIFICATION ( '', '', #348 ) ;
#182 = DIRECTION ( 'NONE',  ( 1.000000000000000000, 0.000000000000000000, 0.000000000000000000 ) ) ;
#183 = ORIENTED_EDGE ( 'NONE', *, *, #189, .T. ) ;
#184 = DIRECTION ( 'NONE',  ( 0.000000000000000000, 0.000000000000000000, -1.000000000000000000 ) ) ;
#185 = CLOSED_SHELL ( 'NONE', ( #169, #67, #46, #361, #292, #278, #38, #8, #161, #318, #203 ) ) ;
#186 = CIRCLE ( 'NONE', #119, 6.000000000000000888 ) ;
#187 = CARTESIAN_POINT ( 'NONE',  ( -6.000000000000000888, 0.000000000000000000, 7.700000000000012612 ) ) ;
#188 = AXIS2_PLACEMENT_3D ( 'NONE', #127, #215, #150 ) ;
#189 = EDGE_CURVE ( 'NONE', #304, #131, #345, .T. ) ;
#190 = DIRECTION ( 'NONE',  ( -1.000000000000000000, 1.224646799147353454E-16, 0.000000000000000000 ) ) ;
#191 = ORIENTED_EDGE ( 'NONE', *, *, #273, .T. ) ;
#192 = APPROVAL ( #110, 'NEURÈENÝ' ) ;
#193 = ORIENTED_EDGE ( 'NONE', *, *, #285, .T. ) ;
#194 = ORIENTED_EDGE ( 'NONE', *, *, #273, .F. ) ;
#195 = DIRECTION ( 'NONE',  ( 1.224646799147353207E-16, 1.000000000000000000, -0.000000000000000000 ) ) ;
#196 = DATE_TIME_ROLE ( 'creation_date' ) ;
#197 = DESIGN_CONTEXT ( 'detailed design', #109, 'design' ) ;
#198 = MANIFOLD_SOLID_BREP ( 'Odebrat vysunutím3', #185 ) ;
#199 = COORDINATED_UNIVERSAL_TIME_OFFSET ( 1, 0, .AHEAD. ) ;
#200 = DIRECTION ( 'NONE',  ( 0.000000000000000000, 0.000000000000000000, 1.000000000000000000 ) ) ;
#201 = LOCAL_TIME ( 16, 35, 8.000000000000000000, #49 ) ;
#202 = DATE_AND_TIME ( #257, #15 ) ;
#203 = ADVANCED_FACE ( 'NONE', ( #32 ), #266, .F. ) ;
#204 = DIRECTION ( 'NONE',  ( 1.000000000000000000, 0.000000000000000000, 0.000000000000000000 ) ) ;
#205 = PERSON_AND_ORGANIZATION ( #281, #10 ) ;
#206 = CARTESIAN_POINT ( 'NONE',  ( -10.00000000000000000, 0.000000000000000000, 7.000000000000000000 ) ) ;
#207 = CC_DESIGN_DATE_AND_TIME_ASSIGNMENT ( #85, #312, ( #181 ) ) ;
#208 = APPROVAL_DATE_TIME ( #375, #65 ) ;
#209 = DIRECTION ( 'NONE',  ( -0.000000000000000000, -0.000000000000000000, -1.000000000000000000 ) ) ;
#210 = LINE ( 'NONE', #178, #97 ) ;
#211 = DIRECTION ( 'NONE',  ( -1.000000000000000000, 0.000000000000000000, 0.000000000000000000 ) ) ;
#212 = CARTESIAN_POINT ( 'NONE',  ( 10.00000000000000000, 1.224646799147353256E-15, 7.000000000000000000 ) ) ;
#213 = AXIS2_PLACEMENT_3D ( 'NONE', #23, #209, #87 ) ;
#214 = VECTOR ( 'NONE', #63, 1000.000000000000000 ) ;
#215 = DIRECTION ( 'NONE',  ( 0.000000000000000000, 0.000000000000000000, 1.000000000000000000 ) ) ;
#216 = FACE_OUTER_BOUND ( 'NONE', #254, .T. ) ;
#217 = CARTESIAN_POINT ( 'NONE',  ( 0.000000000000000000, 0.000000000000000000, 0.000000000000000000 ) ) ;
#218 = VERTEX_POINT ( 'NONE', #322 ) ;
#219 = AXIS2_PLACEMENT_3D ( 'NONE', #288, #313, #172 ) ;
#220 = EDGE_CURVE ( 'NONE', #17, #368, #90, .T. ) ;
#221 = VECTOR ( 'NONE', #171, 1000.000000000000000 ) ;
#222 =( NAMED_UNIT ( * ) SI_UNIT ( $, .STERADIAN. ) SOLID_ANGLE_UNIT ( ) );
#223 = EDGE_LOOP ( 'NONE', ( #14, #167, #100, #54 ) ) ;
#224 = PERSON_AND_ORGANIZATION ( #281, #10 ) ;
#225 = ORIENTED_EDGE ( 'NONE', *, *, #251, .T. ) ;
#226 = PRODUCT ( '8e07', '8e07', '', ( #130 ) ) ;
#227 = CARTESIAN_POINT ( 'NONE',  ( 0.000000000000000000, 0.000000000000000000, 7.700000000000012612 ) ) ;
#228 = EDGE_LOOP ( 'NONE', ( #106, #173, #364, #230 ) ) ;
#229 = DIRECTION ( 'NONE',  ( -0.000000000000000000, -0.000000000000000000, -1.000000000000000000 ) ) ;
#230 = ORIENTED_EDGE ( 'NONE', *, *, #89, .F. ) ;
#231 = EDGE_CURVE ( 'NONE', #274, #252, #355, .T. ) ;
#232 = LOCAL_TIME ( 16, 35, 8.000000000000000000, #70 ) ;
#233 = EDGE_LOOP ( 'NONE', ( #69, #342, #168, #225 ) ) ;
#234 = PERSON_AND_ORGANIZATION ( #281, #10 ) ;
#235 = ORIENTED_EDGE ( 'NONE', *, *, #357, .F. ) ;
#236 = EDGE_CURVE ( 'NONE', #282, #131, #291, .T. ) ;
#237 = CIRCLE ( 'NONE', #276, 4.099999999999999645 ) ;
#238 = FACE_OUTER_BOUND ( 'NONE', #233, .T. ) ;
#239 = COORDINATED_UNIVERSAL_TIME_OFFSET ( 1, 0, .AHEAD. ) ;
#240 = FACE_BOUND ( 'NONE', #64, .T. ) ;
#241 = DIRECTION ( 'NONE',  ( 1.000000000000000000, 0.000000000000000000, 0.000000000000000000 ) ) ;
#242 = AXIS2_PLACEMENT_3D ( 'NONE', #374, #286, #346 ) ;
#243 = DIRECTION ( 'NONE',  ( -0.000000000000000000, -0.000000000000000000, -1.000000000000000000 ) ) ;
#244 = DIRECTION ( 'NONE',  ( 1.000000000000000000, 0.000000000000000000, 0.000000000000000000 ) ) ;
#245 = CARTESIAN_POINT ( 'NONE',  ( 0.000000000000000000, 0.000000000000000000, 167.0000000000000000 ) ) ;
#246 = CARTESIAN_POINT ( 'NONE',  ( 6.000000000000000888, 7.347880794884120722E-16, 7.700000000000012612 ) ) ;
#247 = VERTEX_POINT ( 'NONE', #326 ) ;
#248 = CC_DESIGN_SECURITY_CLASSIFICATION ( #181, ( #321 ) ) ;
#249 = CARTESIAN_POINT ( 'NONE',  ( 6.000000000000000888, 7.347880794884120722E-16, 167.0000000000000000 ) ) ;
#250 = ORIENTED_EDGE ( 'NONE', *, *, #154, .F. ) ;
#251 = EDGE_CURVE ( 'NONE', #368, #282, #340, .T. ) ;
#252 = VERTEX_POINT ( 'NONE', #122 ) ;
#253 = CIRCLE ( 'NONE', #242, 10.00000000000000000 ) ;
#254 = EDGE_LOOP ( 'NONE', ( #135, #128 ) ) ;
#255 = APPROVAL_PERSON_ORGANIZATION ( #205, #65, #370 ) ;
#256 = CARTESIAN_POINT ( 'NONE',  ( 0.000000000000000000, 0.000000000000000000, 0.000000000000000000 ) ) ;
#257 = CALENDAR_DATE ( 2022, 8, 7 ) ;
#258 = DIRECTION ( 'NONE',  ( -0.000000000000000000, -0.000000000000000000, -1.000000000000000000 ) ) ;
#259 = SHAPE_DEFINITION_REPRESENTATION ( #309, #7 ) ;
#260 = CYLINDRICAL_SURFACE ( 'NONE', #283, 6.000000000000000888 ) ;
#261 = CIRCLE ( 'NONE', #157, 4.099999999999999645 ) ;
#262 = DATE_AND_TIME ( #344, #232 ) ;
#263 = LINE ( 'NONE', #380, #221 ) ;
#264 = DIRECTION ( 'NONE',  ( -0.000000000000000000, -0.000000000000000000, -1.000000000000000000 ) ) ;
#265 = CARTESIAN_POINT ( 'NONE',  ( 0.000000000000000000, 0.000000000000000000, 167.0000000000000000 ) ) ;
#266 = CYLINDRICAL_SURFACE ( 'NONE', #146, 4.099999999999999645 ) ;
#267 = EDGE_CURVE ( 'NONE', #343, #17, #126, .T. ) ;
#268 = DIRECTION ( 'NONE',  ( 0.000000000000000000, 0.000000000000000000, -1.000000000000000000 ) ) ;
#269 = CC_DESIGN_PERSON_AND_ORGANIZATION_ASSIGNMENT ( #144, #148, ( #321 ) ) ;
#270 = CARTESIAN_POINT ( 'NONE',  ( 0.000000000000000000, 0.000000000000000000, 7.000000000000000000 ) ) ;
#271 = CYLINDRICAL_SURFACE ( 'NONE', #330, 4.099999999999999645 ) ;
#272 = DIRECTION ( 'NONE',  ( -0.000000000000000000, -0.000000000000000000, -1.000000000000000000 ) ) ;
#273 = EDGE_CURVE ( 'NONE', #218, #164, #261, .T. ) ;
#274 = VERTEX_POINT ( 'NONE', #61 ) ;
#275 = ORIENTED_EDGE ( 'NONE', *, *, #121, .T. ) ;
#276 = AXIS2_PLACEMENT_3D ( 'NONE', #294, #229, #158 ) ;
#277 = EDGE_LOOP ( 'NONE', ( #250, #308, #193, #53 ) ) ;
#278 = ADVANCED_FACE ( 'NONE', ( #298, #11 ), #91, .T. ) ;
#279 = FACE_OUTER_BOUND ( 'NONE', #111, .T. ) ;
#280 = ORIENTED_EDGE ( 'NONE', *, *, #154, .T. ) ;
#281 = PERSON ( 'NEURÈENÝ', 'NEURÈENÝ', 'NEURÈENÝ', ('NEURÈENÝ'), ('NEURÈENÝ'), ('NEURÈENÝ') ) ;
#282 = VERTEX_POINT ( 'NONE', #246 ) ;
#283 = AXIS2_PLACEMENT_3D ( 'NONE', #293, #317, #79 ) ;
#284 = CALENDAR_DATE ( 2022, 8, 7 ) ;
#285 = EDGE_CURVE ( 'NONE', #137, #274, #210, .T. ) ;
#286 = DIRECTION ( 'NONE',  ( 0.000000000000000000, 0.000000000000000000, 1.000000000000000000 ) ) ;
#287 = CYLINDRICAL_SURFACE ( 'NONE', #213, 6.000000000000000888 ) ;
#288 = CARTESIAN_POINT ( 'NONE',  ( 0.000000000000000000, 0.000000000000000000, 0.000000000000000000 ) ) ;
#289 = CALENDAR_DATE ( 2022, 8, 7 ) ;
#290 = LINE ( 'NONE', #84, #299 ) ;
#291 = CIRCLE ( 'NONE', #125, 0.7000000000000000666 ) ;
#292 = ADVANCED_FACE ( 'NONE', ( #352 ), #180, .T. ) ;
#293 = CARTESIAN_POINT ( 'NONE',  ( 0.000000000000000000, 0.000000000000000000, 167.0000000000000000 ) ) ;
#294 = CARTESIAN_POINT ( 'NONE',  ( 0.000000000000000000, 0.000000000000000000, 0.000000000000000000 ) ) ;
#295 = EDGE_CURVE ( 'NONE', #247, #13, #237, .T. ) ;
#296 = CC_DESIGN_APPROVAL ( #59, ( #305 ) ) ;
#297 = DIRECTION ( 'NONE',  ( 0.000000000000000000, 0.000000000000000000, -1.000000000000000000 ) ) ;
#298 = FACE_BOUND ( 'NONE', #108, .T. ) ;
#299 = VECTOR ( 'NONE', #25, 1000.000000000000000 ) ;
#300 = DIRECTION ( 'NONE',  ( 1.000000000000000000, 0.000000000000000000, 0.000000000000000000 ) ) ;
#301 = VERTEX_POINT ( 'NONE', #310 ) ;
#302 = FACE_OUTER_BOUND ( 'NONE', #311, .T. ) ;
#303 = ORIENTED_EDGE ( 'NONE', *, *, #251, .F. ) ;
#304 = VERTEX_POINT ( 'NONE', #68 ) ;
#305 = PRODUCT_DEFINITION ( 'NEZNÁMÝ', '', #321, #197 ) ;
#306 = DIRECTION ( 'NONE',  ( 1.000000000000000000, 0.000000000000000000, 0.000000000000000000 ) ) ;
#307 = AXIS2_PLACEMENT_3D ( 'NONE', #66, #358, #324 ) ;
#308 = ORIENTED_EDGE ( 'NONE', *, *, #121, .F. ) ;
#309 = PRODUCT_DEFINITION_SHAPE ( 'NONE', 'NONE',  #305 ) ;
#310 = CARTESIAN_POINT ( 'NONE',  ( 10.00000000000000000, 1.224646799147353256E-15, 7.000000000000000000 ) ) ;
#311 = EDGE_LOOP ( 'NONE', ( #123, #336, #133, #372 ) ) ;
#312 = DATE_TIME_ROLE ( 'classification_date' ) ;
#313 = DIRECTION ( 'NONE',  ( 0.000000000000000000, 0.000000000000000000, 1.000000000000000000 ) ) ;
#314 = CC_DESIGN_PERSON_AND_ORGANIZATION_ASSIGNMENT ( #234, #78, ( #305 ) ) ;
#315 = AXIS2_PLACEMENT_3D ( 'NONE', #227, #367, #306 ) ;
#316 = DATE_AND_TIME ( #284, #81 ) ;
#317 = DIRECTION ( 'NONE',  ( -0.000000000000000000, -0.000000000000000000, -1.000000000000000000 ) ) ;
#318 = ADVANCED_FACE ( 'NONE', ( #302 ), #371, .F. ) ;
#319 = FACE_OUTER_BOUND ( 'NONE', #71, .T. ) ;
#320 = CIRCLE ( 'NONE', #156, 4.099999999999999645 ) ;
#321 = PRODUCT_DEFINITION_FORMATION_WITH_SPECIFIED_SOURCE ( 'LIBOVOLNÝ', '', #226, .NOT_KNOWN. ) ;
#322 = CARTESIAN_POINT ( 'NONE',  ( 4.099999999999999645, 5.021051876504146399E-16, 167.0000000000000000 ) ) ;
#323 = DIRECTION ( 'NONE',  ( 1.000000000000000000, 0.000000000000000000, 0.000000000000000000 ) ) ;
#324 = DIRECTION ( 'NONE',  ( 1.000000000000000000, 0.000000000000000000, -0.000000000000000000 ) ) ;
#325 = AXIS2_PLACEMENT_3D ( 'NONE', #72, #272, #47 ) ;
#326 = CARTESIAN_POINT ( 'NONE',  ( -4.099999999999999645, 0.000000000000000000, 0.000000000000000000 ) ) ;
#327 = ORIENTED_EDGE ( 'NONE', *, *, #28, .F. ) ;
#328 = FACE_BOUND ( 'NONE', #36, .T. ) ;
#329 = DIRECTION ( 'NONE',  ( -1.000000000000000000, 0.000000000000000000, 0.000000000000000000 ) ) ;
#330 = AXIS2_PLACEMENT_3D ( 'NONE', #265, #184, #124 ) ;
#331 = CIRCLE ( 'NONE', #325, 6.700000000000001066 ) ;
#332 = PERSON_AND_ORGANIZATION ( #281, #10 ) ;
#333 = ORIENTED_EDGE ( 'NONE', *, *, #236, .F. ) ;
#334 = EDGE_CURVE ( 'NONE', #368, #304, #166, .T. ) ;
#335 = APPROVAL_ROLE ( '' ) ;
#336 = ORIENTED_EDGE ( 'NONE', *, *, #141, .F. ) ;
#337 = CC_DESIGN_PERSON_AND_ORGANIZATION_ASSIGNMENT ( #379, #112, ( #321 ) ) ;
#338 = ORIENTED_EDGE ( 'NONE', *, *, #89, .T. ) ;
#339 = VECTOR ( 'NONE', #258, 1000.000000000000000 ) ;
#340 = CIRCLE ( 'NONE', #31, 6.000000000000000888 ) ;
#341 = AXIS2_PLACEMENT_3D ( 'NONE', #58, #88, #211 ) ;
#342 = ORIENTED_EDGE ( 'NONE', *, *, #77, .F. ) ;
#343 = VERTEX_POINT ( 'NONE', #249 ) ;
#344 = CALENDAR_DATE ( 2022, 8, 7 ) ;
#345 = CIRCLE ( 'NONE', #376, 6.700000000000001066 ) ;
#346 = DIRECTION ( 'NONE',  ( 1.000000000000000000, 0.000000000000000000, 0.000000000000000000 ) ) ;
#347 = CARTESIAN_POINT ( 'NONE',  ( 0.000000000000000000, 0.000000000000000000, 7.000000000000000000 ) ) ;
#348 = SECURITY_CLASSIFICATION_LEVEL ( 'unclassified' ) ;
#349 = CARTESIAN_POINT ( 'NONE',  ( 0.000000000000000000, 0.000000000000000000, 7.700000000000012612 ) ) ;
#350 = LINE ( 'NONE', #212, #52 ) ;
#351 = APPROVAL_PERSON_ORGANIZATION ( #224, #59, #335 ) ;
#352 = FACE_OUTER_BOUND ( 'NONE', #277, .T. ) ;
#353 = DIRECTION ( 'NONE',  ( -0.000000000000000000, -0.000000000000000000, -1.000000000000000000 ) ) ;
#354 = DIRECTION ( 'NONE',  ( 0.000000000000000000, 0.000000000000000000, 1.000000000000000000 ) ) ;
#355 = CIRCLE ( 'NONE', #74, 10.00000000000000000 ) ;
#356 = DIRECTION ( 'NONE',  ( -1.000000000000000000, 0.000000000000000000, 0.000000000000000000 ) ) ;
#357 = EDGE_CURVE ( 'NONE', #252, #274, #113, .T. ) ;
#358 = DIRECTION ( 'NONE',  ( 0.000000000000000000, 0.000000000000000000, 1.000000000000000000 ) ) ;
#359 = APPLICATION_PROTOCOL_DEFINITION ( 'international standard', 'config_control_design', 1994, #129 ) ;
#360 = ORIENTED_EDGE ( 'NONE', *, *, #116, .F. ) ;
#361 = ADVANCED_FACE ( 'NONE', ( #279 ), #136, .T. ) ;
#362 = AXIS2_PLACEMENT_3D ( 'NONE', #94, #195, #190 ) ;
#363 = PERSON_AND_ORGANIZATION_ROLE ( 'design_owner' ) ;
#364 = ORIENTED_EDGE ( 'NONE', *, *, #151, .T. ) ;
#365 = CC_DESIGN_PERSON_AND_ORGANIZATION_ASSIGNMENT ( #115, #51, ( #181 ) ) ;
#366 = ORIENTED_EDGE ( 'NONE', *, *, #151, .F. ) ;
#367 = DIRECTION ( 'NONE',  ( 0.000000000000000000, 0.000000000000000000, 1.000000000000000000 ) ) ;
#368 = VERTEX_POINT ( 'NONE', #187 ) ;
#369 = UNCERTAINTY_MEASURE_WITH_UNIT (LENGTH_MEASURE( 1.000000000000000082E-05 ), #44, 'distance_accuracy_value', 'NONE');
#370 = APPROVAL_ROLE ( '' ) ;
#371 = TOROIDAL_SURFACE ( 'NONE', #315, 6.700000000000001066, 0.6999999999999999556 ) ;
#372 = ORIENTED_EDGE ( 'NONE', *, *, #189, .F. ) ;
#373 = EDGE_CURVE ( 'NONE', #131, #304, #331, .T. ) ;
#374 = CARTESIAN_POINT ( 'NONE',  ( 0.000000000000000000, 0.000000000000000000, 7.000000000000000000 ) ) ;
#375 = DATE_AND_TIME ( #105, #201 ) ;
#376 = AXIS2_PLACEMENT_3D ( 'NONE', #270, #243, #182 ) ;
#377 = FACE_OUTER_BOUND ( 'NONE', #75, .T. ) ;
#378 = PRODUCT_RELATED_PRODUCT_CATEGORY ( 'detail', '', ( #226 ) ) ;
#379 = PERSON_AND_ORGANIZATION ( #281, #10 ) ;
#380 = CARTESIAN_POINT ( 'NONE',  ( 4.099999999999999645, 5.021051876504146399E-16, 167.0000000000000000 ) ) ;
#381 = FACE_OUTER_BOUND ( 'NONE', #223, .T. ) ;
ENDSEC;
END-ISO-10303-21;
