ISO-10303-21;
HEADER;
FILE_DESCRIPTION (( 'STEP AP203' ),
    '1' );
FILE_NAME ('6d7b.STEP',
    '2022-07-08T14:57:44',
    ( '' ),
    ( '' ),
    'SwSTEP 2.0',
    'SolidWorks 2019',
    '' );
FILE_SCHEMA (( 'CONFIG_CONTROL_DESIGN' ));
ENDSEC;

DATA;
#1 = CARTESIAN_POINT ( 'NONE',  ( 0.000000000000000000, 0.000000000000000000, 255.0000000000000000 ) ) ;
#2 = ORIENTED_EDGE ( 'NONE', *, *, #139, .T. ) ;
#3 = APPLICATION_PROTOCOL_DEFINITION ( 'international standard', 'config_control_design', 1994, #247 ) ;
#4 = PERSON_AND_ORGANIZATION ( #17, #110 ) ;
#5 = DIRECTION ( 'NONE',  ( -0.000000000000000000, -0.000000000000000000, -1.000000000000000000 ) ) ;
#6 = UNCERTAINTY_MEASURE_WITH_UNIT (LENGTH_MEASURE( 1.000000000000000082E-05 ), #204, 'distance_accuracy_value', 'NONE');
#7 = DATE_AND_TIME ( #212, #85 ) ;
#8 = COORDINATED_UNIVERSAL_TIME_OFFSET ( 1, 0, .AHEAD. ) ;
#9 = FACE_OUTER_BOUND ( 'NONE', #142, .T. ) ;
#10 = CIRCLE ( 'NONE', #148, 3.000000000000000444 ) ;
#11 = CARTESIAN_POINT ( 'NONE',  ( 0.000000000000000000, 0.000000000000000000, 0.000000000000000000 ) ) ;
#12 = DIRECTION ( 'NONE',  ( 0.000000000000000000, 0.000000000000000000, 1.000000000000000000 ) ) ;
#13 = ORIENTED_EDGE ( 'NONE', *, *, #244, .T. ) ;
#14 = DIRECTION ( 'NONE',  ( 0.000000000000000000, 0.000000000000000000, 1.000000000000000000 ) ) ;
#15 = AXIS2_PLACEMENT_3D ( 'NONE', #11, #40, #364 ) ;
#16 = AXIS2_PLACEMENT_3D ( 'NONE', #359, #219, #312 ) ;
#17 = PERSON ( 'NEURÈENÝ', 'NEURÈENÝ', 'NEURÈENÝ', ('NEURÈENÝ'), ('NEURÈENÝ'), ('NEURÈENÝ') ) ;
#18 = EDGE_LOOP ( 'NONE', ( #303, #288, #213, #290 ) ) ;
#19 = VERTEX_POINT ( 'NONE', #324 ) ;
#20 = CARTESIAN_POINT ( 'NONE',  ( 0.000000000000000000, 0.000000000000000000, 0.000000000000000000 ) ) ;
#21 = ORIENTED_EDGE ( 'NONE', *, *, #185, .T. ) ;
#22 = AXIS2_PLACEMENT_3D ( 'NONE', #306, #127, #224 ) ;
#23 = AXIS2_PLACEMENT_3D ( 'NONE', #293, #376, #234 ) ;
#24 = APPROVAL_PERSON_ORGANIZATION ( #4, #144, #255 ) ;
#25 = DIRECTION ( 'NONE',  ( 0.000000000000000000, 0.000000000000000000, -1.000000000000000000 ) ) ;
#26 = ORIENTED_EDGE ( 'NONE', *, *, #206, .F. ) ;
#27 = ORIENTED_EDGE ( 'NONE', *, *, #69, .F. ) ;
#28 = DIRECTION ( 'NONE',  ( 1.000000000000000000, 0.000000000000000000, 0.000000000000000000 ) ) ;
#29 = CIRCLE ( 'NONE', #95, 5.500000000000000000 ) ;
#30 = CARTESIAN_POINT ( 'NONE',  ( -5.000000000000000000, 0.000000000000000000, 5.500000000000005329 ) ) ;
#31 = CARTESIAN_POINT ( 'NONE',  ( 5.500000000000000000, 0.000000000000000000, 5.000000000000002665 ) ) ;
#32 = FACE_OUTER_BOUND ( 'NONE', #92, .T. ) ;
#33 = ORIENTED_EDGE ( 'NONE', *, *, #139, .F. ) ;
#34 = APPROVAL_STATUS ( 'not_yet_approved' ) ;
#35 = CARTESIAN_POINT ( 'NONE',  ( 0.000000000000000000, 0.000000000000000000, 5.000000000000000000 ) ) ;
#36 = CIRCLE ( 'NONE', #16, 5.000000000000000000 ) ;
#37 = APPLICATION_CONTEXT ( 'configuration controlled 3d designs of mechanical parts and assemblies' ) ;
#38 = APPLICATION_PROTOCOL_DEFINITION ( 'international standard', 'config_control_design', 1994, #37 ) ;
#39 = SECURITY_CLASSIFICATION_LEVEL ( 'unclassified' ) ;
#40 = DIRECTION ( 'NONE',  ( 0.000000000000000000, 0.000000000000000000, 1.000000000000000000 ) ) ;
#41 = MECHANICAL_CONTEXT ( 'NONE', #37, 'mechanical' ) ;
#42 = CIRCLE ( 'NONE', #174, 5.000000000000000000 ) ;
#43 = DIRECTION ( 'NONE',  ( 0.000000000000000000, -1.000000000000000000, 0.000000000000000000 ) ) ;
#44 = AXIS2_PLACEMENT_3D ( 'NONE', #340, #131, #189 ) ;
#45 = FACE_OUTER_BOUND ( 'NONE', #104, .T. ) ;
#46 = PRODUCT ( '6d7b', '6d7b', '', ( #41 ) ) ;
#47 = EDGE_CURVE ( 'NONE', #107, #55, #261, .T. ) ;
#48 = CARTESIAN_POINT ( 'NONE',  ( -5.500000000000000000, 6.735557395310442023E-16, 5.000000000000002665 ) ) ;
#49 = VERTEX_POINT ( 'NONE', #143 ) ;
#50 = DIRECTION ( 'NONE',  ( -1.000000000000000000, 1.224646799147351482E-16, 0.000000000000000000 ) ) ;
#51 = AXIS2_PLACEMENT_3D ( 'NONE', #35, #5, #253 ) ;
#52 = VERTEX_POINT ( 'NONE', #273 ) ;
#53 = CC_DESIGN_SECURITY_CLASSIFICATION ( #309, ( #374 ) ) ;
#54 = FACE_OUTER_BOUND ( 'NONE', #233, .T. ) ;
#55 = VERTEX_POINT ( 'NONE', #118 ) ;
#56 = DIRECTION ( 'NONE',  ( 1.000000000000000000, 0.000000000000000000, 0.000000000000000000 ) ) ;
#57 = EDGE_LOOP ( 'NONE', ( #109, #84, #158, #352 ) ) ;
#58 = VERTEX_POINT ( 'NONE', #241 ) ;
#59 = VECTOR ( 'NONE', #272, 1000.000000000000000 ) ;
#60 = FACE_OUTER_BOUND ( 'NONE', #350, .T. ) ;
#61 = ORIENTED_EDGE ( 'NONE', *, *, #232, .T. ) ;
#62 = LINE ( 'NONE', #326, #138 ) ;
#63 =( NAMED_UNIT ( * ) SI_UNIT ( $, .STERADIAN. ) SOLID_ANGLE_UNIT ( ) );
#64 = CARTESIAN_POINT ( 'NONE',  ( 0.000000000000000000, 0.000000000000000000, 0.000000000000000000 ) ) ;
#65 = AXIS2_PLACEMENT_3D ( 'NONE', #79, #137, #102 ) ;
#66 = CARTESIAN_POINT ( 'NONE',  ( -5.000000000000000000, 0.000000000000000000, 255.0000000000000000 ) ) ;
#67 = ORIENTED_EDGE ( 'NONE', *, *, #287, .T. ) ;
#68 = CARTESIAN_POINT ( 'NONE',  ( 0.000000000000000000, 0.000000000000000000, 0.000000000000000000 ) ) ;
#69 = EDGE_CURVE ( 'NONE', #52, #164, #291, .T. ) ;
#70 = APPROVAL_STATUS ( 'not_yet_approved' ) ;
#71 = AXIS2_PLACEMENT_3D ( 'NONE', #289, #156, #198 ) ;
#72 = PERSON_AND_ORGANIZATION ( #17, #110 ) ;
#73 = DIRECTION ( 'NONE',  ( 1.000000000000000000, 0.000000000000000000, 0.000000000000000000 ) ) ;
#74 = DIRECTION ( 'NONE',  ( 0.000000000000000000, 0.000000000000000000, 1.000000000000000000 ) ) ;
#75 = AXIS2_PLACEMENT_3D ( 'NONE', #228, #108, #191 ) ;
#76 = LOCAL_TIME ( 16, 57, 44.00000000000000000, #310 ) ;
#77 = DATE_AND_TIME ( #371, #76 ) ;
#78 = FACE_OUTER_BOUND ( 'NONE', #18, .T. ) ;
#79 = CARTESIAN_POINT ( 'NONE',  ( 0.000000000000000000, 0.000000000000000000, 5.000000000000000000 ) ) ;
#80 = ORIENTED_EDGE ( 'NONE', *, *, #287, .F. ) ;
#81 = DIRECTION ( 'NONE',  ( -0.000000000000000000, -0.000000000000000000, -1.000000000000000000 ) ) ;
#82 = VERTEX_POINT ( 'NONE', #31 ) ;
#83 = PLANE ( 'NONE',  #23 ) ;
#84 = ORIENTED_EDGE ( 'NONE', *, *, #244, .F. ) ;
#85 = LOCAL_TIME ( 16, 57, 44.00000000000000000, #8 ) ;
#86 = PRODUCT_DEFINITION ( 'NEZNÁMÝ', '', #374, #250 ) ;
#87 = DIRECTION ( 'NONE',  ( -1.000000000000000000, 0.000000000000000000, 0.000000000000000000 ) ) ;
#88 = VERTEX_POINT ( 'NONE', #151 ) ;
#89 = CARTESIAN_POINT ( 'NONE',  ( 0.000000000000000000, 0.000000000000000000, 5.500000000000005329 ) ) ;
#90 = ORIENTED_EDGE ( 'NONE', *, *, #98, .T. ) ;
#91 = AXIS2_PLACEMENT_3D ( 'NONE', #230, #285, #311 ) ;
#92 = EDGE_LOOP ( 'NONE', ( #316, #348, #210, #297 ) ) ;
#93 = FACE_OUTER_BOUND ( 'NONE', #377, .T. ) ;
#94 = PERSON_AND_ORGANIZATION_ROLE ( 'design_owner' ) ;
#95 = AXIS2_PLACEMENT_3D ( 'NONE', #302, #113, #205 ) ;
#96 = DIRECTION ( 'NONE',  ( -0.000000000000000000, -0.000000000000000000, -1.000000000000000000 ) ) ;
#97 = ADVANCED_FACE ( 'NONE', ( #125, #9 ), #284, .F. ) ;
#98 = EDGE_CURVE ( 'NONE', #82, #235, #123, .T. ) ;
#99 = CARTESIAN_POINT ( 'NONE',  ( 8.000000000000000000, 9.797174393178825657E-16, 0.000000000000000000 ) ) ;
#100 = CC_DESIGN_PERSON_AND_ORGANIZATION_ASSIGNMENT ( #146, #216, ( #86 ) ) ;
#101 = AXIS2_PLACEMENT_3D ( 'NONE', #178, #256, #149 ) ;
#102 = DIRECTION ( 'NONE',  ( 1.000000000000000000, 0.000000000000000000, 0.000000000000000000 ) ) ;
#103 = CARTESIAN_POINT ( 'NONE',  ( 0.000000000000000000, 0.000000000000000000, 255.0000000000000000 ) ) ;
#104 = EDGE_LOOP ( 'NONE', ( #33, #270, #279, #80 ) ) ;
#105 = APPROVAL_ROLE ( '' ) ;
#106 = DIRECTION ( 'NONE',  ( -0.000000000000000000, -0.000000000000000000, -1.000000000000000000 ) ) ;
#107 = VERTEX_POINT ( 'NONE', #360 ) ;
#108 = DIRECTION ( 'NONE',  ( -0.000000000000000000, -0.000000000000000000, -1.000000000000000000 ) ) ;
#109 = ORIENTED_EDGE ( 'NONE', *, *, #319, .F. ) ;
#110 = ORGANIZATION ( 'NEURÈENÝ', 'NEURÈENÝ', '' ) ;
#111 = DIRECTION ( 'NONE',  ( -1.000000000000000000, 0.000000000000000000, 0.000000000000000000 ) ) ;
#112 = EDGE_LOOP ( 'NONE', ( #199, #122 ) ) ;
#113 = DIRECTION ( 'NONE',  ( -0.000000000000000000, -0.000000000000000000, -1.000000000000000000 ) ) ;
#114 = EDGE_CURVE ( 'NONE', #49, #82, #317, .T. ) ;
#115 = EDGE_LOOP ( 'NONE', ( #21, #2 ) ) ;
#116 =( GEOMETRIC_REPRESENTATION_CONTEXT ( 3 ) GLOBAL_UNCERTAINTY_ASSIGNED_CONTEXT ( ( #6 ) ) GLOBAL_UNIT_ASSIGNED_CONTEXT ( ( #204, #295, #63 ) ) REPRESENTATION_CONTEXT ( 'NONE', 'WORKASPACE' ) );
#117 = EDGE_CURVE ( 'NONE', #58, #52, #147, .T. ) ;
#118 = CARTESIAN_POINT ( 'NONE',  ( -3.000000000000000444, 0.000000000000000000, 255.0000000000000000 ) ) ;
#119 = DIRECTION ( 'NONE',  ( -0.000000000000000000, -0.000000000000000000, -1.000000000000000000 ) ) ;
#120 = ORIENTED_EDGE ( 'NONE', *, *, #206, .T. ) ;
#121 = APPROVAL_ROLE ( '' ) ;
#122 = ORIENTED_EDGE ( 'NONE', *, *, #47, .F. ) ;
#123 = CIRCLE ( 'NONE', #51, 5.500000000000000000 ) ;
#124 = AXIS2_PLACEMENT_3D ( 'NONE', #89, #201, #237 ) ;
#125 = FACE_BOUND ( 'NONE', #353, .T. ) ;
#126 = DIRECTION ( 'NONE',  ( 0.000000000000000000, 0.000000000000000000, 1.000000000000000000 ) ) ;
#127 = DIRECTION ( 'NONE',  ( -0.000000000000000000, -0.000000000000000000, -1.000000000000000000 ) ) ;
#128 = APPROVAL ( #368, 'NEURÈENÝ' ) ;
#129 = COORDINATED_UNIVERSAL_TIME_OFFSET ( 1, 0, .AHEAD. ) ;
#130 = CARTESIAN_POINT ( 'NONE',  ( 0.000000000000000000, 0.000000000000000000, 255.0000000000000000 ) ) ;
#131 = DIRECTION ( 'NONE',  ( 0.000000000000000000, 0.000000000000000000, 1.000000000000000000 ) ) ;
#132 = EDGE_LOOP ( 'NONE', ( #90, #318 ) ) ;
#133 = PERSON_AND_ORGANIZATION ( #17, #110 ) ;
#134 = CYLINDRICAL_SURFACE ( 'NONE', #343, 3.000000000000000444 ) ;
#135 = PERSON_AND_ORGANIZATION_ROLE ( 'classification_officer' ) ;
#136 = DIRECTION ( 'NONE',  ( 1.224646799147353207E-16, 1.000000000000000000, -0.000000000000000000 ) ) ;
#137 = DIRECTION ( 'NONE',  ( 0.000000000000000000, 0.000000000000000000, 1.000000000000000000 ) ) ;
#138 = VECTOR ( 'NONE', #25, 1000.000000000000000 ) ;
#139 = EDGE_CURVE ( 'NONE', #276, #88, #42, .T. ) ;
#140 = ORIENTED_EDGE ( 'NONE', *, *, #203, .T. ) ;
#141 = CARTESIAN_POINT ( 'NONE',  ( 8.000000000000000000, 9.797174393178825657E-16, 5.000000000000000000 ) ) ;
#142 = EDGE_LOOP ( 'NONE', ( #27, #259 ) ) ;
#143 = CARTESIAN_POINT ( 'NONE',  ( 5.000000000000000000, 6.123233995736766282E-16, 5.500000000000005329 ) ) ;
#144 = APPROVAL ( #70, 'NEURÈENÝ' ) ;
#145 = LINE ( 'NONE', #141, #59 ) ;
#146 = PERSON_AND_ORGANIZATION ( #17, #110 ) ;
#147 = LINE ( 'NONE', #336, #325 ) ;
#148 = AXIS2_PLACEMENT_3D ( 'NONE', #369, #344, #365 ) ;
#149 = DIRECTION ( 'NONE',  ( -1.000000000000000000, 0.000000000000000000, 0.000000000000000000 ) ) ;
#150 = CC_DESIGN_PERSON_AND_ORGANIZATION_ASSIGNMENT ( #335, #94, ( #46 ) ) ;
#151 = CARTESIAN_POINT ( 'NONE',  ( -5.000000000000000000, 0.000000000000000000, 255.0000000000000000 ) ) ;
#152 = DATE_AND_TIME ( #332, #154 ) ;
#153 = ADVANCED_FACE ( 'NONE', ( #248 ), #330, .T. ) ;
#154 = LOCAL_TIME ( 16, 57, 44.00000000000000000, #129 ) ;
#155 = SHAPE_DEFINITION_REPRESENTATION ( #363, #267 ) ;
#156 = DIRECTION ( 'NONE',  ( 0.000000000000000000, 0.000000000000000000, 1.000000000000000000 ) ) ;
#157 = CARTESIAN_POINT ( 'NONE',  ( 0.000000000000000000, 0.000000000000000000, 5.500000000000005329 ) ) ;
#158 = ORIENTED_EDGE ( 'NONE', *, *, #117, .T. ) ;
#159 = AXIS2_PLACEMENT_3D ( 'NONE', #64, #175, #301 ) ;
#160 = COORDINATED_UNIVERSAL_TIME_OFFSET ( 1, 0, .AHEAD. ) ;
#161 = FACE_OUTER_BOUND ( 'NONE', #299, .T. ) ;
#162 = AXIS2_PLACEMENT_3D ( 'NONE', #163, #165, #265 ) ;
#163 = CARTESIAN_POINT ( 'NONE',  ( 0.000000000000000000, 0.000000000000000000, 5.000000000000000000 ) ) ;
#164 = VERTEX_POINT ( 'NONE', #99 ) ;
#165 = DIRECTION ( 'NONE',  ( 0.000000000000000000, 0.000000000000000000, 1.000000000000000000 ) ) ;
#166 = VERTEX_POINT ( 'NONE', #357 ) ;
#167 = ADVANCED_FACE ( 'NONE', ( #93 ), #331, .T. ) ;
#168 = FACE_OUTER_BOUND ( 'NONE', #115, .T. ) ;
#169 = APPROVAL_PERSON_ORGANIZATION ( #264, #128, #105 ) ;
#170 = LINE ( 'NONE', #351, #327 ) ;
#171 = ORIENTED_EDGE ( 'NONE', *, *, #117, .F. ) ;
#172 = DIRECTION ( 'NONE',  ( -0.000000000000000000, -0.000000000000000000, -1.000000000000000000 ) ) ;
#173 = CARTESIAN_POINT ( 'NONE',  ( 0.000000000000000000, 0.000000000000000000, 255.0000000000000000 ) ) ;
#174 = AXIS2_PLACEMENT_3D ( 'NONE', #130, #223, #73 ) ;
#175 = DIRECTION ( 'NONE',  ( 0.000000000000000000, 0.000000000000000000, 1.000000000000000000 ) ) ;
#176 = CC_DESIGN_APPROVAL ( #305, ( #86 ) ) ;
#177 = APPROVAL_DATE_TIME ( #182, #144 ) ;
#178 = CARTESIAN_POINT ( 'NONE',  ( 0.000000000000000000, 0.000000000000000000, 5.000000000000000000 ) ) ;
#179 = PERSON_AND_ORGANIZATION ( #17, #110 ) ;
#180 = EDGE_CURVE ( 'NONE', #164, #52, #339, .T. ) ;
#181 = CLOSED_SHELL ( 'NONE', ( #282, #260, #214, #167, #153, #280, #97, #323, #366, #215, #337 ) ) ;
#182 = DATE_AND_TIME ( #329, #334 ) ;
#183 = PERSON_AND_ORGANIZATION_ROLE ( 'design_supplier' ) ;
#184 = DIRECTION ( 'NONE',  ( 0.000000000000000000, 0.000000000000000000, -1.000000000000000000 ) ) ;
#185 = EDGE_CURVE ( 'NONE', #88, #276, #36, .T. ) ;
#186 = DIRECTION ( 'NONE',  ( 1.000000000000000000, 0.000000000000000000, 0.000000000000000000 ) ) ;
#187 = AXIS2_PLACEMENT_3D ( 'NONE', #1, #380, #242 ) ;
#188 = FACE_OUTER_BOUND ( 'NONE', #243, .T. ) ;
#189 = DIRECTION ( 'NONE',  ( 1.000000000000000000, 0.000000000000000000, 0.000000000000000000 ) ) ;
#190 = PRODUCT_RELATED_PRODUCT_CATEGORY ( 'detail', '', ( #46 ) ) ;
#191 = DIRECTION ( 'NONE',  ( -1.000000000000000000, 0.000000000000000000, 0.000000000000000000 ) ) ;
#192 = EDGE_CURVE ( 'NONE', #294, #235, #262, .T. ) ;
#193 = CC_DESIGN_DATE_AND_TIME_ASSIGNMENT ( #229, #258, ( #309 ) ) ;
#194 = ORIENTED_EDGE ( 'NONE', *, *, #192, .F. ) ;
#195 = CALENDAR_DATE ( 2022, 8, 7 ) ;
#196 = PLANE ( 'NONE',  #91 ) ;
#197 = TOROIDAL_SURFACE ( 'NONE', #220, 5.500000000000000000, 0.5000000000000000000 ) ;
#198 = DIRECTION ( 'NONE',  ( 1.000000000000000000, 0.000000000000000000, 0.000000000000000000 ) ) ;
#199 = ORIENTED_EDGE ( 'NONE', *, *, #232, .F. ) ;
#200 = CC_DESIGN_PERSON_AND_ORGANIZATION_ASSIGNMENT ( #72, #183, ( #374 ) ) ;
#201 = DIRECTION ( 'NONE',  ( 0.000000000000000000, 0.000000000000000000, 1.000000000000000000 ) ) ;
#202 = VERTEX_POINT ( 'NONE', #338 ) ;
#203 = EDGE_CURVE ( 'NONE', #166, #202, #10, .T. ) ;
#204 =( LENGTH_UNIT ( ) NAMED_UNIT ( * ) SI_UNIT ( .MILLI., .METRE. ) );
#205 = DIRECTION ( 'NONE',  ( 1.000000000000000000, 0.000000000000000000, 0.000000000000000000 ) ) ;
#206 = EDGE_CURVE ( 'NONE', #19, #58, #239, .T. ) ;
#207 = CARTESIAN_POINT ( 'NONE',  ( 3.000000000000000444, 3.673940397442060361E-16, 255.0000000000000000 ) ) ;
#208 = DIRECTION ( 'NONE',  ( 0.000000000000000000, 0.000000000000000000, 1.000000000000000000 ) ) ;
#209 = LINE ( 'NONE', #66, #308 ) ;
#210 = ORIENTED_EDGE ( 'NONE', *, *, #296, .T. ) ;
#211 = CIRCLE ( 'NONE', #355, 5.000000000000000000 ) ;
#212 = CALENDAR_DATE ( 2022, 8, 7 ) ;
#213 = ORIENTED_EDGE ( 'NONE', *, *, #98, .F. ) ;
#214 = ADVANCED_FACE ( 'NONE', ( #45 ), #372, .T. ) ;
#215 = ADVANCED_FACE ( 'NONE', ( #161 ), #292, .F. ) ;
#216 = PERSON_AND_ORGANIZATION_ROLE ( 'creator' ) ;
#217 = CARTESIAN_POINT ( 'NONE',  ( 5.500000000000000000, 0.000000000000000000, 5.500000000000005329 ) ) ;
#218 = COORDINATED_UNIVERSAL_TIME_OFFSET ( 1, 0, .AHEAD. ) ;
#219 = DIRECTION ( 'NONE',  ( 0.000000000000000000, 0.000000000000000000, 1.000000000000000000 ) ) ;
#220 = AXIS2_PLACEMENT_3D ( 'NONE', #266, #14, #286 ) ;
#221 = PERSON_AND_ORGANIZATION_ROLE ( 'creator' ) ;
#222 = EDGE_CURVE ( 'NONE', #49, #294, #211, .T. ) ;
#223 = DIRECTION ( 'NONE',  ( 0.000000000000000000, 0.000000000000000000, 1.000000000000000000 ) ) ;
#224 = DIRECTION ( 'NONE',  ( -1.000000000000000000, 0.000000000000000000, 0.000000000000000000 ) ) ;
#225 = EDGE_CURVE ( 'NONE', #202, #166, #274, .T. ) ;
#226 = DIRECTION ( 'NONE',  ( 0.000000000000000000, 0.000000000000000000, -1.000000000000000000 ) ) ;
#227 = ORIENTED_EDGE ( 'NONE', *, *, #356, .T. ) ;
#228 = CARTESIAN_POINT ( 'NONE',  ( 0.000000000000000000, 0.000000000000000000, 255.0000000000000000 ) ) ;
#229 = DATE_AND_TIME ( #195, #349 ) ;
#230 = CARTESIAN_POINT ( 'NONE',  ( 0.000000000000000000, 0.000000000000000000, 5.000000000000000000 ) ) ;
#231 = AXIS2_PLACEMENT_3D ( 'NONE', #20, #106, #56 ) ;
#232 = EDGE_CURVE ( 'NONE', #55, #107, #379, .T. ) ;
#233 = EDGE_LOOP ( 'NONE', ( #61, #227, #140, #347 ) ) ;
#234 = DIRECTION ( 'NONE',  ( 1.000000000000000000, 0.000000000000000000, -0.000000000000000000 ) ) ;
#235 = VERTEX_POINT ( 'NONE', #48 ) ;
#236 = CC_DESIGN_DATE_AND_TIME_ASSIGNMENT ( #152, #304, ( #86 ) ) ;
#237 = DIRECTION ( 'NONE',  ( 1.000000000000000000, 0.000000000000000000, 0.000000000000000000 ) ) ;
#238 = ORIENTED_EDGE ( 'NONE', *, *, #225, .F. ) ;
#239 = CIRCLE ( 'NONE', #162, 8.000000000000000000 ) ;
#240 = CC_DESIGN_APPROVAL ( #128, ( #309 ) ) ;
#241 = CARTESIAN_POINT ( 'NONE',  ( -8.000000000000000000, 0.000000000000000000, 5.000000000000000000 ) ) ;
#242 = DIRECTION ( 'NONE',  ( -1.000000000000000000, 0.000000000000000000, 0.000000000000000000 ) ) ;
#243 = EDGE_LOOP ( 'NONE', ( #13, #120 ) ) ;
#244 = EDGE_CURVE ( 'NONE', #58, #19, #307, .T. ) ;
#245 = AXIS2_PLACEMENT_3D ( 'NONE', #68, #126, #354 ) ;
#246 = VECTOR ( 'NONE', #346, 1000.000000000000000 ) ;
#247 = APPLICATION_CONTEXT ( 'configuration controlled 3d designs of mechanical parts and assemblies' ) ;
#248 = FACE_OUTER_BOUND ( 'NONE', #57, .T. ) ;
#249 = CARTESIAN_POINT ( 'NONE',  ( 0.000000000000000000, 0.000000000000000000, 0.000000000000000000 ) ) ;
#250 = DESIGN_CONTEXT ( 'detailed design', #247, 'design' ) ;
#251 = MANIFOLD_SOLID_BREP ( 'Odebrat vysunutím3', #181 ) ;
#252 = PERSON_AND_ORGANIZATION ( #17, #110 ) ;
#253 = DIRECTION ( 'NONE',  ( 1.000000000000000000, 0.000000000000000000, 0.000000000000000000 ) ) ;
#254 = AXIS2_PLACEMENT_3D ( 'NONE', #320, #119, #87 ) ;
#255 = APPROVAL_ROLE ( '' ) ;
#256 = DIRECTION ( 'NONE',  ( -0.000000000000000000, -0.000000000000000000, -1.000000000000000000 ) ) ;
#257 = APPROVAL_DATE_TIME ( #77, #128 ) ;
#258 = DATE_TIME_ROLE ( 'classification_date' ) ;
#259 = ORIENTED_EDGE ( 'NONE', *, *, #180, .F. ) ;
#260 = ADVANCED_FACE ( 'NONE', ( #78 ), #197, .F. ) ;
#261 = CIRCLE ( 'NONE', #300, 3.000000000000000444 ) ;
#262 = CIRCLE ( 'NONE', #361, 0.5000000000000004441 ) ;
#263 = ORIENTED_EDGE ( 'NONE', *, *, #203, .F. ) ;
#264 = PERSON_AND_ORGANIZATION ( #17, #110 ) ;
#265 = DIRECTION ( 'NONE',  ( 1.000000000000000000, 0.000000000000000000, 0.000000000000000000 ) ) ;
#266 = CARTESIAN_POINT ( 'NONE',  ( 0.000000000000000000, 0.000000000000000000, 5.500000000000005329 ) ) ;
#267 = ADVANCED_BREP_SHAPE_REPRESENTATION ( '6d7b', ( #251, #245 ), #116 ) ;
#268 = FACE_BOUND ( 'NONE', #112, .T. ) ;
#269 = ORIENTED_EDGE ( 'NONE', *, *, #358, .F. ) ;
#270 = ORIENTED_EDGE ( 'NONE', *, *, #358, .T. ) ;
#271 = CC_DESIGN_PERSON_AND_ORGANIZATION_ASSIGNMENT ( #133, #135, ( #309 ) ) ;
#272 = DIRECTION ( 'NONE',  ( -0.000000000000000000, -0.000000000000000000, -1.000000000000000000 ) ) ;
#273 = CARTESIAN_POINT ( 'NONE',  ( -8.000000000000000000, 0.000000000000000000, 0.000000000000000000 ) ) ;
#274 = CIRCLE ( 'NONE', #231, 3.000000000000000444 ) ;
#275 = CYLINDRICAL_SURFACE ( 'NONE', #254, 5.000000000000000000 ) ;
#276 = VERTEX_POINT ( 'NONE', #367 ) ;
#277 = LINE ( 'NONE', #207, #246 ) ;
#278 = CC_DESIGN_PERSON_AND_ORGANIZATION_ASSIGNMENT ( #252, #221, ( #374 ) ) ;
#279 = ORIENTED_EDGE ( 'NONE', *, *, #222, .T. ) ;
#280 = ADVANCED_FACE ( 'NONE', ( #375, #188 ), #196, .T. ) ;
#281 = APPROVAL_DATE_TIME ( #7, #305 ) ;
#282 = ADVANCED_FACE ( 'NONE', ( #54 ), #134, .F. ) ;
#283 = CIRCLE ( 'NONE', #124, 5.000000000000000000 ) ;
#284 = PLANE ( 'NONE',  #15 ) ;
#285 = DIRECTION ( 'NONE',  ( 0.000000000000000000, 0.000000000000000000, 1.000000000000000000 ) ) ;
#286 = DIRECTION ( 'NONE',  ( 1.000000000000000000, 0.000000000000000000, 0.000000000000000000 ) ) ;
#287 = EDGE_CURVE ( 'NONE', #88, #294, #209, .T. ) ;
#288 = ORIENTED_EDGE ( 'NONE', *, *, #192, .T. ) ;
#289 = CARTESIAN_POINT ( 'NONE',  ( 0.000000000000000000, 0.000000000000000000, 5.500000000000005329 ) ) ;
#290 = ORIENTED_EDGE ( 'NONE', *, *, #114, .F. ) ;
#291 = CIRCLE ( 'NONE', #159, 8.000000000000000000 ) ;
#292 = TOROIDAL_SURFACE ( 'NONE', #71, 5.500000000000000000, 0.5000000000000000000 ) ;
#293 = CARTESIAN_POINT ( 'NONE',  ( 0.000000000000000000, 0.000000000000000000, 255.0000000000000000 ) ) ;
#294 = VERTEX_POINT ( 'NONE', #30 ) ;
#295 =( NAMED_UNIT ( * ) PLANE_ANGLE_UNIT ( ) SI_UNIT ( $, .RADIAN. ) );
#296 = EDGE_CURVE ( 'NONE', #55, #202, #62, .T. ) ;
#297 = ORIENTED_EDGE ( 'NONE', *, *, #225, .T. ) ;
#298 = CYLINDRICAL_SURFACE ( 'NONE', #187, 3.000000000000000444 ) ;
#299 = EDGE_LOOP ( 'NONE', ( #194, #381, #378, #373 ) ) ;
#300 = AXIS2_PLACEMENT_3D ( 'NONE', #173, #208, #28 ) ;
#301 = DIRECTION ( 'NONE',  ( 1.000000000000000000, 0.000000000000000000, 0.000000000000000000 ) ) ;
#302 = CARTESIAN_POINT ( 'NONE',  ( 0.000000000000000000, 0.000000000000000000, 5.000000000000000000 ) ) ;
#303 = ORIENTED_EDGE ( 'NONE', *, *, #362, .F. ) ;
#304 = DATE_TIME_ROLE ( 'creation_date' ) ;
#305 = APPROVAL ( #34, 'NEURÈENÝ' ) ;
#306 = CARTESIAN_POINT ( 'NONE',  ( 0.000000000000000000, 0.000000000000000000, 5.000000000000000000 ) ) ;
#307 = CIRCLE ( 'NONE', #65, 8.000000000000000000 ) ;
#308 = VECTOR ( 'NONE', #172, 1000.000000000000000 ) ;
#309 = SECURITY_CLASSIFICATION ( '', '', #39 ) ;
#310 = COORDINATED_UNIVERSAL_TIME_OFFSET ( 1, 0, .AHEAD. ) ;
#311 = DIRECTION ( 'NONE',  ( 1.000000000000000000, 0.000000000000000000, -0.000000000000000000 ) ) ;
#312 = DIRECTION ( 'NONE',  ( 1.000000000000000000, 0.000000000000000000, 0.000000000000000000 ) ) ;
#313 = ORIENTED_EDGE ( 'NONE', *, *, #185, .F. ) ;
#314 = CARTESIAN_POINT ( 'NONE',  ( -5.500000000000000000, 6.735557395310442023E-16, 5.500000000000005329 ) ) ;
#315 = EDGE_CURVE ( 'NONE', #235, #82, #29, .T. ) ;
#316 = ORIENTED_EDGE ( 'NONE', *, *, #356, .F. ) ;
#317 = CIRCLE ( 'NONE', #342, 0.5000000000000004441 ) ;
#318 = ORIENTED_EDGE ( 'NONE', *, *, #315, .T. ) ;
#319 = EDGE_CURVE ( 'NONE', #19, #164, #145, .T. ) ;
#320 = CARTESIAN_POINT ( 'NONE',  ( 0.000000000000000000, 0.000000000000000000, 255.0000000000000000 ) ) ;
#321 = ORIENTED_EDGE ( 'NONE', *, *, #180, .T. ) ;
#322 = AXIS2_PLACEMENT_3D ( 'NONE', #249, #74, #186 ) ;
#323 = ADVANCED_FACE ( 'NONE', ( #60 ), #275, .T. ) ;
#324 = CARTESIAN_POINT ( 'NONE',  ( 8.000000000000000000, 9.797174393178825657E-16, 5.000000000000000000 ) ) ;
#325 = VECTOR ( 'NONE', #96, 1000.000000000000000 ) ;
#326 = CARTESIAN_POINT ( 'NONE',  ( -3.000000000000000444, 0.000000000000000000, 255.0000000000000000 ) ) ;
#327 = VECTOR ( 'NONE', #81, 1000.000000000000000 ) ;
#328 = CC_DESIGN_APPROVAL ( #144, ( #374 ) ) ;
#329 = CALENDAR_DATE ( 2022, 8, 7 ) ;
#330 = CYLINDRICAL_SURFACE ( 'NONE', #101, 8.000000000000000000 ) ;
#331 = CYLINDRICAL_SURFACE ( 'NONE', #22, 8.000000000000000000 ) ;
#332 = CALENDAR_DATE ( 2022, 8, 7 ) ;
#333 = APPROVAL_PERSON_ORGANIZATION ( #179, #305, #121 ) ;
#334 = LOCAL_TIME ( 16, 57, 44.00000000000000000, #218 ) ;
#335 = PERSON_AND_ORGANIZATION ( #17, #110 ) ;
#336 = CARTESIAN_POINT ( 'NONE',  ( -8.000000000000000000, 0.000000000000000000, 5.000000000000000000 ) ) ;
#337 = ADVANCED_FACE ( 'NONE', ( #32 ), #298, .F. ) ;
#338 = CARTESIAN_POINT ( 'NONE',  ( -3.000000000000000444, 0.000000000000000000, 0.000000000000000000 ) ) ;
#339 = CIRCLE ( 'NONE', #322, 8.000000000000000000 ) ;
#340 = CARTESIAN_POINT ( 'NONE',  ( 0.000000000000000000, 0.000000000000000000, 255.0000000000000000 ) ) ;
#341 = DIRECTION ( 'NONE',  ( 1.000000000000000000, 0.000000000000000000, 0.000000000000000000 ) ) ;
#342 = AXIS2_PLACEMENT_3D ( 'NONE', #217, #43, #184 ) ;
#343 = AXIS2_PLACEMENT_3D ( 'NONE', #103, #226, #111 ) ;
#344 = DIRECTION ( 'NONE',  ( -0.000000000000000000, -0.000000000000000000, -1.000000000000000000 ) ) ;
#345 = ORIENTED_EDGE ( 'NONE', *, *, #319, .T. ) ;
#346 = DIRECTION ( 'NONE',  ( 0.000000000000000000, 0.000000000000000000, -1.000000000000000000 ) ) ;
#347 = ORIENTED_EDGE ( 'NONE', *, *, #296, .F. ) ;
#348 = ORIENTED_EDGE ( 'NONE', *, *, #47, .T. ) ;
#349 = LOCAL_TIME ( 16, 57, 44.00000000000000000, #160 ) ;
#350 = EDGE_LOOP ( 'NONE', ( #269, #313, #67, #370 ) ) ;
#351 = CARTESIAN_POINT ( 'NONE',  ( 5.000000000000000000, 6.123233995736766282E-16, 255.0000000000000000 ) ) ;
#352 = ORIENTED_EDGE ( 'NONE', *, *, #69, .T. ) ;
#353 = EDGE_LOOP ( 'NONE', ( #238, #263 ) ) ;
#354 = DIRECTION ( 'NONE',  ( 1.000000000000000000, 0.000000000000000000, 0.000000000000000000 ) ) ;
#355 = AXIS2_PLACEMENT_3D ( 'NONE', #157, #12, #341 ) ;
#356 = EDGE_CURVE ( 'NONE', #107, #166, #277, .T. ) ;
#357 = CARTESIAN_POINT ( 'NONE',  ( 3.000000000000000444, 3.673940397442060361E-16, 0.000000000000000000 ) ) ;
#358 = EDGE_CURVE ( 'NONE', #276, #49, #170, .T. ) ;
#359 = CARTESIAN_POINT ( 'NONE',  ( 0.000000000000000000, 0.000000000000000000, 255.0000000000000000 ) ) ;
#360 = CARTESIAN_POINT ( 'NONE',  ( 3.000000000000000444, 3.673940397442060361E-16, 255.0000000000000000 ) ) ;
#361 = AXIS2_PLACEMENT_3D ( 'NONE', #314, #136, #50 ) ;
#362 = EDGE_CURVE ( 'NONE', #294, #49, #283, .T. ) ;
#363 = PRODUCT_DEFINITION_SHAPE ( 'NONE', 'NONE',  #86 ) ;
#364 = DIRECTION ( 'NONE',  ( 1.000000000000000000, 0.000000000000000000, -0.000000000000000000 ) ) ;
#365 = DIRECTION ( 'NONE',  ( 1.000000000000000000, 0.000000000000000000, 0.000000000000000000 ) ) ;
#366 = ADVANCED_FACE ( 'NONE', ( #268, #168 ), #83, .T. ) ;
#367 = CARTESIAN_POINT ( 'NONE',  ( 5.000000000000000000, 6.123233995736766282E-16, 255.0000000000000000 ) ) ;
#368 = APPROVAL_STATUS ( 'not_yet_approved' ) ;
#369 = CARTESIAN_POINT ( 'NONE',  ( 0.000000000000000000, 0.000000000000000000, 0.000000000000000000 ) ) ;
#370 = ORIENTED_EDGE ( 'NONE', *, *, #362, .T. ) ;
#371 = CALENDAR_DATE ( 2022, 8, 7 ) ;
#372 = CYLINDRICAL_SURFACE ( 'NONE', #75, 5.000000000000000000 ) ;
#373 = ORIENTED_EDGE ( 'NONE', *, *, #315, .F. ) ;
#374 = PRODUCT_DEFINITION_FORMATION_WITH_SPECIFIED_SOURCE ( 'LIBOVOLNÝ', '', #46, .NOT_KNOWN. ) ;
#375 = FACE_BOUND ( 'NONE', #132, .T. ) ;
#376 = DIRECTION ( 'NONE',  ( 0.000000000000000000, 0.000000000000000000, 1.000000000000000000 ) ) ;
#377 = EDGE_LOOP ( 'NONE', ( #26, #345, #321, #171 ) ) ;
#378 = ORIENTED_EDGE ( 'NONE', *, *, #114, .T. ) ;
#379 = CIRCLE ( 'NONE', #44, 3.000000000000000444 ) ;
#380 = DIRECTION ( 'NONE',  ( 0.000000000000000000, 0.000000000000000000, -1.000000000000000000 ) ) ;
#381 = ORIENTED_EDGE ( 'NONE', *, *, #222, .F. ) ;
ENDSEC;
END-ISO-10303-21;
