ISO-10303-21;
HEADER;
FILE_DESCRIPTION (( 'STEP AP203' ),
    '1' );
FILE_NAME ('bee9.STEP',
    '2022-07-08T14:22:47',
    ( '' ),
    ( '' ),
    'SwSTEP 2.0',
    'SolidWorks 2019',
    '' );
FILE_SCHEMA (( 'CONFIG_CONTROL_DESIGN' ));
ENDSEC;

DATA;
#1 = PERSON_AND_ORGANIZATION ( #237, #347 ) ;
#2 = VERTEX_POINT ( 'NONE', #254 ) ;
#3 = CIRCLE ( 'NONE', #174, 0.7000000000000000666 ) ;
#4 = VECTOR ( 'NONE', #68, 1000.000000000000000 ) ;
#5 = DIRECTION ( 'NONE',  ( 1.000000000000000000, 0.000000000000000000, -0.000000000000000000 ) ) ;
#6 = CC_DESIGN_DATE_AND_TIME_ASSIGNMENT ( #320, #29, ( #322 ) ) ;
#7 = DIRECTION ( 'NONE',  ( -1.000000000000000000, 0.000000000000000000, 0.000000000000000000 ) ) ;
#8 = DIRECTION ( 'NONE',  ( 1.000000000000000000, 0.000000000000000000, 0.000000000000000000 ) ) ;
#9 = DIRECTION ( 'NONE',  ( 0.000000000000000000, 0.000000000000000000, 1.000000000000000000 ) ) ;
#10 = LOCAL_TIME ( 16, 22, 47.00000000000000000, #48 ) ;
#11 = EDGE_CURVE ( 'NONE', #356, #338, #147, .T. ) ;
#12 = CYLINDRICAL_SURFACE ( 'NONE', #360, 7.000000000000000888 ) ;
#13 = DIRECTION ( 'NONE',  ( 0.000000000000000000, 0.000000000000000000, 1.000000000000000000 ) ) ;
#14 = CARTESIAN_POINT ( 'NONE',  ( 0.000000000000000000, 0.000000000000000000, 357.0000000000000000 ) ) ;
#15 = TOROIDAL_SURFACE ( 'NONE', #189, 7.700000000000001066, 0.6999999999999999556 ) ;
#16 = CARTESIAN_POINT ( 'NONE',  ( 0.000000000000000000, 0.000000000000000000, 0.000000000000000000 ) ) ;
#17 = ORIENTED_EDGE ( 'NONE', *, *, #84, .F. ) ;
#18 = DIRECTION ( 'NONE',  ( -0.000000000000000000, -0.000000000000000000, -1.000000000000000000 ) ) ;
#19 = DIRECTION ( 'NONE',  ( 0.000000000000000000, 0.000000000000000000, 1.000000000000000000 ) ) ;
#20 = DESIGN_CONTEXT ( 'detailed design', #90, 'design' ) ;
#21 = ADVANCED_FACE ( 'NONE', ( #286 ), #24, .T. ) ;
#22 = ORIENTED_EDGE ( 'NONE', *, *, #300, .T. ) ;
#23 = ORIENTED_EDGE ( 'NONE', *, *, #331, .F. ) ;
#24 = CYLINDRICAL_SURFACE ( 'NONE', #273, 11.00000000000000000 ) ;
#25 = AXIS2_PLACEMENT_3D ( 'NONE', #337, #188, #185 ) ;
#26 = CALENDAR_DATE ( 2022, 8, 7 ) ;
#27 = ORIENTED_EDGE ( 'NONE', *, *, #121, .F. ) ;
#28 = EDGE_CURVE ( 'NONE', #138, #323, #265, .T. ) ;
#29 = DATE_TIME_ROLE ( 'classification_date' ) ;
#30 = ORIENTED_EDGE ( 'NONE', *, *, #321, .T. ) ;
#31 = FACE_BOUND ( 'NONE', #41, .T. ) ;
#32 = CC_DESIGN_PERSON_AND_ORGANIZATION_ASSIGNMENT ( #248, #369, ( #187 ) ) ;
#33 = FACE_OUTER_BOUND ( 'NONE', #225, .T. ) ;
#34 = CARTESIAN_POINT ( 'NONE',  ( 0.000000000000000000, 0.000000000000000000, 7.000000000000000000 ) ) ;
#35 = DATE_AND_TIME ( #358, #10 ) ;
#36 = PLANE ( 'NONE',  #71 ) ;
#37 = CARTESIAN_POINT ( 'NONE',  ( 7.700000000000001066, 0.000000000000000000, 6.999999999999992006 ) ) ;
#38 = AXIS2_PLACEMENT_3D ( 'NONE', #100, #18, #98 ) ;
#39 = DIRECTION ( 'NONE',  ( 1.000000000000000000, 0.000000000000000000, 0.000000000000000000 ) ) ;
#40 = FACE_OUTER_BOUND ( 'NONE', #275, .T. ) ;
#41 = EDGE_LOOP ( 'NONE', ( #249, #196 ) ) ;
#42 = CC_DESIGN_PERSON_AND_ORGANIZATION_ASSIGNMENT ( #256, #376, ( #125 ) ) ;
#43 = DIRECTION ( 'NONE',  ( 1.000000000000000000, 0.000000000000000000, -0.000000000000000000 ) ) ;
#44 = ORIENTED_EDGE ( 'NONE', *, *, #255, .F. ) ;
#45 = CIRCLE ( 'NONE', #222, 5.000000000000000000 ) ;
#46 = CARTESIAN_POINT ( 'NONE',  ( 0.000000000000000000, 0.000000000000000000, 7.699999999999985079 ) ) ;
#47 = CARTESIAN_POINT ( 'NONE',  ( 0.000000000000000000, 0.000000000000000000, 7.000000000000000000 ) ) ;
#48 = COORDINATED_UNIVERSAL_TIME_OFFSET ( 1, 0, .AHEAD. ) ;
#49 = AXIS2_PLACEMENT_3D ( 'NONE', #236, #62, #295 ) ;
#50 = LOCAL_TIME ( 16, 22, 47.00000000000000000, #167 ) ;
#51 = ORIENTED_EDGE ( 'NONE', *, *, #91, .F. ) ;
#52 = DIRECTION ( 'NONE',  ( 1.000000000000000000, 0.000000000000000000, 0.000000000000000000 ) ) ;
#53 = EDGE_LOOP ( 'NONE', ( #319, #166 ) ) ;
#54 = CALENDAR_DATE ( 2022, 8, 7 ) ;
#55 = VERTEX_POINT ( 'NONE', #123 ) ;
#56 = CIRCLE ( 'NONE', #377, 11.00000000000000000 ) ;
#57 = PERSON_AND_ORGANIZATION ( #237, #347 ) ;
#58 = ORIENTED_EDGE ( 'NONE', *, *, #207, .F. ) ;
#59 = VERTEX_POINT ( 'NONE', #329 ) ;
#60 = APPROVAL ( #142, 'NEURÈENÝ' ) ;
#61 = DIRECTION ( 'NONE',  ( 1.000000000000000000, 0.000000000000000000, 0.000000000000000000 ) ) ;
#62 = DIRECTION ( 'NONE',  ( 1.224646799147353207E-16, 1.000000000000000000, -0.000000000000000000 ) ) ;
#63 = DIRECTION ( 'NONE',  ( 1.000000000000000000, 0.000000000000000000, 0.000000000000000000 ) ) ;
#64 = FACE_OUTER_BOUND ( 'NONE', #259, .T. ) ;
#65 = APPLICATION_CONTEXT ( 'configuration controlled 3d designs of mechanical parts and assemblies' ) ;
#66 = DIRECTION ( 'NONE',  ( 0.000000000000000000, 0.000000000000000000, -1.000000000000000000 ) ) ;
#67 = DIRECTION ( 'NONE',  ( 0.000000000000000000, 0.000000000000000000, 1.000000000000000000 ) ) ;
#68 = DIRECTION ( 'NONE',  ( -0.000000000000000000, -0.000000000000000000, -1.000000000000000000 ) ) ;
#69 = EDGE_LOOP ( 'NONE', ( #371, #114, #105, #51 ) ) ;
#70 = CARTESIAN_POINT ( 'NONE',  ( -5.000000000000000000, 0.000000000000000000, 0.000000000000000000 ) ) ;
#71 = AXIS2_PLACEMENT_3D ( 'NONE', #34, #146, #232 ) ;
#72 = VECTOR ( 'NONE', #66, 1000.000000000000000 ) ;
#73 = DIRECTION ( 'NONE',  ( 0.000000000000000000, 0.000000000000000000, -1.000000000000000000 ) ) ;
#74 = ADVANCED_FACE ( 'NONE', ( #362 ), #266, .T. ) ;
#75 = CALENDAR_DATE ( 2022, 8, 7 ) ;
#76 = CARTESIAN_POINT ( 'NONE',  ( 0.000000000000000000, 0.000000000000000000, 0.000000000000000000 ) ) ;
#77 = VERTEX_POINT ( 'NONE', #149 ) ;
#78 = CARTESIAN_POINT ( 'NONE',  ( 0.000000000000000000, 0.000000000000000000, 357.0000000000000000 ) ) ;
#79 = APPROVAL_DATE_TIME ( #353, #148 ) ;
#80 = ORIENTED_EDGE ( 'NONE', *, *, #285, .F. ) ;
#81 = PERSON_AND_ORGANIZATION ( #237, #347 ) ;
#82 = EDGE_LOOP ( 'NONE', ( #257, #251, #223, #80 ) ) ;
#83 = AXIS2_PLACEMENT_3D ( 'NONE', #16, #67, #342 ) ;
#84 = EDGE_CURVE ( 'NONE', #144, #59, #246, .T. ) ;
#85 = VERTEX_POINT ( 'NONE', #37 ) ;
#86 = CARTESIAN_POINT ( 'NONE',  ( 5.000000000000000000, 6.123233995736766282E-16, 357.0000000000000000 ) ) ;
#87 = CARTESIAN_POINT ( 'NONE',  ( 0.000000000000000000, 0.000000000000000000, 7.699999999999985079 ) ) ;
#88 = LOCAL_TIME ( 16, 22, 47.00000000000000000, #282 ) ;
#89 = CARTESIAN_POINT ( 'NONE',  ( 0.000000000000000000, 0.000000000000000000, 7.000000000000000000 ) ) ;
#90 = APPLICATION_CONTEXT ( 'configuration controlled 3d designs of mechanical parts and assemblies' ) ;
#91 = EDGE_CURVE ( 'NONE', #77, #314, #292, .T. ) ;
#92 = DIRECTION ( 'NONE',  ( 1.000000000000000000, 0.000000000000000000, 0.000000000000000000 ) ) ;
#93 = DIRECTION ( 'NONE',  ( 1.000000000000000000, 0.000000000000000000, 0.000000000000000000 ) ) ;
#94 = FACE_OUTER_BOUND ( 'NONE', #53, .T. ) ;
#95 = AXIS2_PLACEMENT_3D ( 'NONE', #201, #264, #92 ) ;
#96 = EDGE_CURVE ( 'NONE', #144, #85, #3, .T. ) ;
#97 = EDGE_LOOP ( 'NONE', ( #172, #344, #336, #30 ) ) ;
#98 = DIRECTION ( 'NONE',  ( -1.000000000000000000, 0.000000000000000000, 0.000000000000000000 ) ) ;
#99 = DIRECTION ( 'NONE',  ( -0.000000000000000000, -0.000000000000000000, -1.000000000000000000 ) ) ;
#100 = CARTESIAN_POINT ( 'NONE',  ( 0.000000000000000000, 0.000000000000000000, 357.0000000000000000 ) ) ;
#101 = LINE ( 'NONE', #183, #253 ) ;
#102 = APPROVAL_STATUS ( 'not_yet_approved' ) ;
#103 = ORIENTED_EDGE ( 'NONE', *, *, #28, .F. ) ;
#104 = PERSON_AND_ORGANIZATION ( #237, #347 ) ;
#105 = ORIENTED_EDGE ( 'NONE', *, *, #175, .T. ) ;
#106 = APPROVAL ( #191, 'NEURÈENÝ' ) ;
#107 = AXIS2_PLACEMENT_3D ( 'NONE', #231, #357, #328 ) ;
#108 = AXIS2_PLACEMENT_3D ( 'NONE', #211, #238, #269 ) ;
#109 =( LENGTH_UNIT ( ) NAMED_UNIT ( * ) SI_UNIT ( .MILLI., .METRE. ) );
#110 = DIRECTION ( 'NONE',  ( -0.000000000000000000, -0.000000000000000000, -1.000000000000000000 ) ) ;
#111 = ORIENTED_EDGE ( 'NONE', *, *, #160, .F. ) ;
#112 = EDGE_CURVE ( 'NONE', #140, #85, #289, .T. ) ;
#113 = PERSON_AND_ORGANIZATION_ROLE ( 'design_supplier' ) ;
#114 = ORIENTED_EDGE ( 'NONE', *, *, #28, .T. ) ;
#115 = AXIS2_PLACEMENT_3D ( 'NONE', #89, #145, #361 ) ;
#116 = APPROVAL_PERSON_ORGANIZATION ( #57, #148, #280 ) ;
#117 = LINE ( 'NONE', #229, #182 ) ;
#118 = PLANE ( 'NONE',  #162 ) ;
#119 = SHAPE_DEFINITION_REPRESENTATION ( #309, #349 ) ;
#120 = DIRECTION ( 'NONE',  ( 0.000000000000000000, 0.000000000000000000, -1.000000000000000000 ) ) ;
#121 = EDGE_CURVE ( 'NONE', #59, #140, #298, .T. ) ;
#122 = AXIS2_PLACEMENT_3D ( 'NONE', #47, #99, #215 ) ;
#123 = CARTESIAN_POINT ( 'NONE',  ( 11.00000000000000000, 1.347111479062088405E-15, 0.000000000000000000 ) ) ;
#124 = CARTESIAN_POINT ( 'NONE',  ( 0.000000000000000000, 0.000000000000000000, 0.000000000000000000 ) ) ;
#125 = PRODUCT_DEFINITION ( 'NEZNÁMÝ', '', #340, #20 ) ;
#126 = CYLINDRICAL_SURFACE ( 'NONE', #157, 5.000000000000000000 ) ;
#127 = DIRECTION ( 'NONE',  ( 1.000000000000000000, 0.000000000000000000, 0.000000000000000000 ) ) ;
#128 = CARTESIAN_POINT ( 'NONE',  ( -7.000000000000000888, 0.000000000000000000, 357.0000000000000000 ) ) ;
#129 = CARTESIAN_POINT ( 'NONE',  ( 0.000000000000000000, 0.000000000000000000, 357.0000000000000000 ) ) ;
#130 = DIRECTION ( 'NONE',  ( 1.000000000000000000, 0.000000000000000000, 0.000000000000000000 ) ) ;
#131 = ORIENTED_EDGE ( 'NONE', *, *, #207, .T. ) ;
#132 = AXIS2_PLACEMENT_3D ( 'NONE', #178, #179, #93 ) ;
#133 = CIRCLE ( 'NONE', #122, 7.700000000000001066 ) ;
#134 = CARTESIAN_POINT ( 'NONE',  ( -11.00000000000000000, 0.000000000000000000, 7.000000000000000000 ) ) ;
#135 = CLOSED_SHELL ( 'NONE', ( #214, #245, #180, #74, #21, #152, #202, #307, #270, #163, #352 ) ) ;
#136 = ORIENTED_EDGE ( 'NONE', *, *, #96, .F. ) ;
#137 = CC_DESIGN_PERSON_AND_ORGANIZATION_ASSIGNMENT ( #104, #226, ( #322 ) ) ;
#138 = VERTEX_POINT ( 'NONE', #86 ) ;
#139 = COORDINATED_UNIVERSAL_TIME_OFFSET ( 1, 0, .AHEAD. ) ;
#140 = VERTEX_POINT ( 'NONE', #151 ) ;
#141 = APPROVAL_PERSON_ORGANIZATION ( #290, #106, #310 ) ;
#142 = APPROVAL_STATUS ( 'not_yet_approved' ) ;
#143 = ORIENTED_EDGE ( 'NONE', *, *, #261, .T. ) ;
#144 = VERTEX_POINT ( 'NONE', #330 ) ;
#145 = DIRECTION ( 'NONE',  ( -0.000000000000000000, -0.000000000000000000, -1.000000000000000000 ) ) ;
#146 = DIRECTION ( 'NONE',  ( 0.000000000000000000, 0.000000000000000000, 1.000000000000000000 ) ) ;
#147 = CIRCLE ( 'NONE', #230, 7.000000000000000888 ) ;
#148 = APPROVAL ( #102, 'NEURÈENÝ' ) ;
#149 = CARTESIAN_POINT ( 'NONE',  ( -5.000000000000000000, 0.000000000000000000, 357.0000000000000000 ) ) ;
#150 = CARTESIAN_POINT ( 'NONE',  ( 0.000000000000000000, 0.000000000000000000, 0.000000000000000000 ) ) ;
#151 = CARTESIAN_POINT ( 'NONE',  ( -7.700000000000001066, 9.429780353434621002E-16, 6.999999999999992006 ) ) ;
#152 = ADVANCED_FACE ( 'NONE', ( #31, #33 ), #36, .T. ) ;
#153 = LINE ( 'NONE', #159, #4 ) ;
#154 = DIRECTION ( 'NONE',  ( -0.000000000000000000, -0.000000000000000000, -1.000000000000000000 ) ) ;
#155 = ORIENTED_EDGE ( 'NONE', *, *, #233, .F. ) ;
#156 = DIRECTION ( 'NONE',  ( 0.000000000000000000, 0.000000000000000000, -1.000000000000000000 ) ) ;
#157 = AXIS2_PLACEMENT_3D ( 'NONE', #244, #156, #274 ) ;
#158 = ORIENTED_EDGE ( 'NONE', *, *, #175, .F. ) ;
#159 = CARTESIAN_POINT ( 'NONE',  ( -11.00000000000000000, 0.000000000000000000, 7.000000000000000000 ) ) ;
#160 = EDGE_CURVE ( 'NONE', #138, #77, #375, .T. ) ;
#161 = CARTESIAN_POINT ( 'NONE',  ( -7.000000000000000888, 0.000000000000000000, 357.0000000000000000 ) ) ;
#162 = AXIS2_PLACEMENT_3D ( 'NONE', #124, #326, #5 ) ;
#163 = ADVANCED_FACE ( 'NONE', ( #64 ), #287, .F. ) ;
#164 = DATE_AND_TIME ( #75, #204 ) ;
#165 = EDGE_LOOP ( 'NONE', ( #283, #158 ) ) ;
#166 = ORIENTED_EDGE ( 'NONE', *, *, #331, .T. ) ;
#167 = COORDINATED_UNIVERSAL_TIME_OFFSET ( 1, 0, .AHEAD. ) ;
#168 = EDGE_CURVE ( 'NONE', #314, #323, #239, .T. ) ;
#169 = ORIENTED_EDGE ( 'NONE', *, *, #366, .T. ) ;
#170 = LOCAL_TIME ( 16, 22, 47.00000000000000000, #250 ) ;
#171 = ORIENTED_EDGE ( 'NONE', *, *, #91, .T. ) ;
#172 = ORIENTED_EDGE ( 'NONE', *, *, #379, .F. ) ;
#173 = FACE_OUTER_BOUND ( 'NONE', #243, .T. ) ;
#174 = AXIS2_PLACEMENT_3D ( 'NONE', #177, #359, #120 ) ;
#175 = EDGE_CURVE ( 'NONE', #323, #314, #181, .T. ) ;
#176 = CC_DESIGN_SECURITY_CLASSIFICATION ( #322, ( #340 ) ) ;
#177 = CARTESIAN_POINT ( 'NONE',  ( 7.700000000000001066, 0.000000000000000000, 7.699999999999985079 ) ) ;
#178 = CARTESIAN_POINT ( 'NONE',  ( 0.000000000000000000, 0.000000000000000000, 0.000000000000000000 ) ) ;
#179 = DIRECTION ( 'NONE',  ( -0.000000000000000000, -0.000000000000000000, -1.000000000000000000 ) ) ;
#180 = ADVANCED_FACE ( 'NONE', ( #173 ), #12, .T. ) ;
#181 = CIRCLE ( 'NONE', #260, 5.000000000000000000 ) ;
#182 = VECTOR ( 'NONE', #154, 1000.000000000000000 ) ;
#183 = CARTESIAN_POINT ( 'NONE',  ( 11.00000000000000000, 1.347111479062088405E-15, 7.000000000000000000 ) ) ;
#184 = DIRECTION ( 'NONE',  ( 0.000000000000000000, 0.000000000000000000, 1.000000000000000000 ) ) ;
#185 = DIRECTION ( 'NONE',  ( 1.000000000000000000, 0.000000000000000000, 0.000000000000000000 ) ) ;
#186 = PRODUCT_RELATED_PRODUCT_CATEGORY ( 'detail', '', ( #187 ) ) ;
#187 = PRODUCT ( 'bee9', 'bee9', '', ( #252 ) ) ;
#188 = DIRECTION ( 'NONE',  ( 0.000000000000000000, 0.000000000000000000, 1.000000000000000000 ) ) ;
#189 = AXIS2_PLACEMENT_3D ( 'NONE', #46, #184, #39 ) ;
#190 = DIRECTION ( 'NONE',  ( -1.000000000000000000, 0.000000000000000000, 0.000000000000000000 ) ) ;
#191 = APPROVAL_STATUS ( 'not_yet_approved' ) ;
#192 = DIRECTION ( 'NONE',  ( 0.000000000000000000, 0.000000000000000000, 1.000000000000000000 ) ) ;
#193 = ORIENTED_EDGE ( 'NONE', *, *, #168, .T. ) ;
#194 = DIRECTION ( 'NONE',  ( 0.000000000000000000, 0.000000000000000000, 1.000000000000000000 ) ) ;
#195 = PERSON_AND_ORGANIZATION_ROLE ( 'creator' ) ;
#196 = ORIENTED_EDGE ( 'NONE', *, *, #112, .T. ) ;
#197 = PERSON_AND_ORGANIZATION ( #237, #347 ) ;
#198 = ORIENTED_EDGE ( 'NONE', *, *, #160, .T. ) ;
#199 = AXIS2_PLACEMENT_3D ( 'NONE', #293, #9, #8 ) ;
#200 = EDGE_LOOP ( 'NONE', ( #155, #111 ) ) ;
#201 = CARTESIAN_POINT ( 'NONE',  ( 0.000000000000000000, 0.000000000000000000, 357.0000000000000000 ) ) ;
#202 = ADVANCED_FACE ( 'NONE', ( #209, #203 ), #118, .F. ) ;
#203 = FACE_OUTER_BOUND ( 'NONE', #220, .T. ) ;
#204 = LOCAL_TIME ( 16, 22, 47.00000000000000000, #139 ) ;
#205 = AXIS2_PLACEMENT_3D ( 'NONE', #129, #73, #190 ) ;
#206 = CARTESIAN_POINT ( 'NONE',  ( 5.000000000000000000, 6.123233995736766282E-16, 357.0000000000000000 ) ) ;
#207 = EDGE_CURVE ( 'NONE', #338, #144, #117, .T. ) ;
#208 = CARTESIAN_POINT ( 'NONE',  ( 0.000000000000000000, 0.000000000000000000, 357.0000000000000000 ) ) ;
#209 = FACE_BOUND ( 'NONE', #165, .T. ) ;
#210 = CC_DESIGN_APPROVAL ( #148, ( #340 ) ) ;
#211 = CARTESIAN_POINT ( 'NONE',  ( 0.000000000000000000, 0.000000000000000000, 7.000000000000000000 ) ) ;
#212 = DIRECTION ( 'NONE',  ( 1.000000000000000000, 0.000000000000000000, 0.000000000000000000 ) ) ;
#213 = ORIENTED_EDGE ( 'NONE', *, *, #84, .T. ) ;
#214 = ADVANCED_FACE ( 'NONE', ( #299 ), #126, .F. ) ;
#215 = DIRECTION ( 'NONE',  ( 1.000000000000000000, 0.000000000000000000, 0.000000000000000000 ) ) ;
#216 = CARTESIAN_POINT ( 'NONE',  ( 0.000000000000000000, 0.000000000000000000, 7.000000000000000000 ) ) ;
#217 = VECTOR ( 'NONE', #364, 1000.000000000000000 ) ;
#218 = CARTESIAN_POINT ( 'NONE',  ( 0.000000000000000000, 0.000000000000000000, 357.0000000000000000 ) ) ;
#219 = EDGE_CURVE ( 'NONE', #288, #381, #281, .T. ) ;
#220 = EDGE_LOOP ( 'NONE', ( #373, #44 ) ) ;
#221 = ORIENTED_EDGE ( 'NONE', *, *, #121, .T. ) ;
#222 = AXIS2_PLACEMENT_3D ( 'NONE', #218, #367, #127 ) ;
#223 = ORIENTED_EDGE ( 'NONE', *, *, #255, .T. ) ;
#224 = CALENDAR_DATE ( 2022, 8, 7 ) ;
#225 = EDGE_LOOP ( 'NONE', ( #143, #351 ) ) ;
#226 = PERSON_AND_ORGANIZATION_ROLE ( 'classification_officer' ) ;
#227 = ORIENTED_EDGE ( 'NONE', *, *, #11, .F. ) ;
#228 = AXIS2_PLACEMENT_3D ( 'NONE', #14, #308, #43 ) ;
#229 = CARTESIAN_POINT ( 'NONE',  ( 7.000000000000000888, 8.572527594031474176E-16, 357.0000000000000000 ) ) ;
#230 = AXIS2_PLACEMENT_3D ( 'NONE', #78, #194, #317 ) ;
#231 = CARTESIAN_POINT ( 'NONE',  ( 0.000000000000000000, 0.000000000000000000, 7.000000000000000000 ) ) ;
#232 = DIRECTION ( 'NONE',  ( 1.000000000000000000, 0.000000000000000000, -0.000000000000000000 ) ) ;
#233 = EDGE_CURVE ( 'NONE', #77, #138, #45, .T. ) ;
#234 = CIRCLE ( 'NONE', #327, 11.00000000000000000 ) ;
#235 = DIRECTION ( 'NONE',  ( -1.000000000000000000, 0.000000000000000000, 0.000000000000000000 ) ) ;
#236 = CARTESIAN_POINT ( 'NONE',  ( -7.700000000000001066, 9.429780353434621002E-16, 7.699999999999985079 ) ) ;
#237 = PERSON ( 'NEURÈENÝ', 'NEURÈENÝ', 'NEURÈENÝ', ('NEURÈENÝ'), ('NEURÈENÝ'), ('NEURÈENÝ') ) ;
#238 = DIRECTION ( 'NONE',  ( 0.000000000000000000, 0.000000000000000000, 1.000000000000000000 ) ) ;
#239 = CIRCLE ( 'NONE', #132, 5.000000000000000000 ) ;
#240 = AXIS2_PLACEMENT_3D ( 'NONE', #278, #19, #130 ) ;
#241 = DIRECTION ( 'NONE',  ( 0.000000000000000000, 0.000000000000000000, 1.000000000000000000 ) ) ;
#242 = CARTESIAN_POINT ( 'NONE',  ( 11.00000000000000000, 1.347111479062088405E-15, 7.000000000000000000 ) ) ;
#243 = EDGE_LOOP ( 'NONE', ( #23, #131, #213, #354 ) ) ;
#244 = CARTESIAN_POINT ( 'NONE',  ( 0.000000000000000000, 0.000000000000000000, 357.0000000000000000 ) ) ;
#245 = ADVANCED_FACE ( 'NONE', ( #363 ), #15, .F. ) ;
#246 = CIRCLE ( 'NONE', #199, 7.000000000000000888 ) ;
#247 = CIRCLE ( 'NONE', #83, 11.00000000000000000 ) ;
#248 = PERSON_AND_ORGANIZATION ( #237, #347 ) ;
#249 = ORIENTED_EDGE ( 'NONE', *, *, #277, .T. ) ;
#250 = COORDINATED_UNIVERSAL_TIME_OFFSET ( 1, 0, .AHEAD. ) ;
#251 = ORIENTED_EDGE ( 'NONE', *, *, #379, .T. ) ;
#252 = MECHANICAL_CONTEXT ( 'NONE', #65, 'mechanical' ) ;
#253 = VECTOR ( 'NONE', #372, 1000.000000000000000 ) ;
#254 = CARTESIAN_POINT ( 'NONE',  ( -11.00000000000000000, 0.000000000000000000, 0.000000000000000000 ) ) ;
#255 = EDGE_CURVE ( 'NONE', #55, #2, #247, .T. ) ;
#256 = PERSON_AND_ORGANIZATION ( #237, #347 ) ;
#257 = ORIENTED_EDGE ( 'NONE', *, *, #219, .F. ) ;
#258 = APPROVAL_DATE_TIME ( #164, #60 ) ;
#259 = EDGE_LOOP ( 'NONE', ( #27, #17, #279, #272 ) ) ;
#260 = AXIS2_PLACEMENT_3D ( 'NONE', #150, #268, #61 ) ;
#261 = EDGE_CURVE ( 'NONE', #381, #288, #234, .T. ) ;
#262 = CARTESIAN_POINT ( 'NONE',  ( -5.000000000000000000, 0.000000000000000000, 357.0000000000000000 ) ) ;
#263 = APPROVAL_DATE_TIME ( #35, #106 ) ;
#264 = DIRECTION ( 'NONE',  ( 0.000000000000000000, 0.000000000000000000, 1.000000000000000000 ) ) ;
#265 = LINE ( 'NONE', #206, #72 ) ;
#266 = CYLINDRICAL_SURFACE ( 'NONE', #115, 11.00000000000000000 ) ;
#267 = CC_DESIGN_APPROVAL ( #106, ( #322 ) ) ;
#268 = DIRECTION ( 'NONE',  ( -0.000000000000000000, -0.000000000000000000, -1.000000000000000000 ) ) ;
#269 = DIRECTION ( 'NONE',  ( 1.000000000000000000, 0.000000000000000000, 0.000000000000000000 ) ) ;
#270 = ADVANCED_FACE ( 'NONE', ( #365, #94 ), #334, .T. ) ;
#271 = DIRECTION ( 'NONE',  ( 1.000000000000000000, 0.000000000000000000, 0.000000000000000000 ) ) ;
#272 = ORIENTED_EDGE ( 'NONE', *, *, #112, .F. ) ;
#273 = AXIS2_PLACEMENT_3D ( 'NONE', #378, #110, #235 ) ;
#274 = DIRECTION ( 'NONE',  ( -1.000000000000000000, 0.000000000000000000, 0.000000000000000000 ) ) ;
#275 = EDGE_LOOP ( 'NONE', ( #58, #227, #22, #169 ) ) ;
#276 = CYLINDRICAL_SURFACE ( 'NONE', #38, 7.000000000000000888 ) ;
#277 = EDGE_CURVE ( 'NONE', #85, #140, #133, .T. ) ;
#278 = CARTESIAN_POINT ( 'NONE',  ( 0.000000000000000000, 0.000000000000000000, 7.699999999999985079 ) ) ;
#279 = ORIENTED_EDGE ( 'NONE', *, *, #96, .T. ) ;
#280 = APPROVAL_ROLE ( '' ) ;
#281 = CIRCLE ( 'NONE', #108, 11.00000000000000000 ) ;
#282 = COORDINATED_UNIVERSAL_TIME_OFFSET ( 1, 0, .AHEAD. ) ;
#283 = ORIENTED_EDGE ( 'NONE', *, *, #168, .F. ) ;
#284 = APPROVAL_ROLE ( '' ) ;
#285 = EDGE_CURVE ( 'NONE', #381, #2, #153, .T. ) ;
#286 = FACE_OUTER_BOUND ( 'NONE', #97, .T. ) ;
#287 = TOROIDAL_SURFACE ( 'NONE', #305, 7.700000000000001066, 0.6999999999999999556 ) ;
#288 = VERTEX_POINT ( 'NONE', #242 ) ;
#289 = CIRCLE ( 'NONE', #107, 7.700000000000001066 ) ;
#290 = PERSON_AND_ORGANIZATION ( #237, #347 ) ;
#291 = ORIENTED_EDGE ( 'NONE', *, *, #366, .F. ) ;
#292 = LINE ( 'NONE', #262, #332 ) ;
#293 = CARTESIAN_POINT ( 'NONE',  ( 0.000000000000000000, 0.000000000000000000, 7.699999999999985079 ) ) ;
#294 = CC_DESIGN_APPROVAL ( #60, ( #125 ) ) ;
#295 = DIRECTION ( 'NONE',  ( -1.000000000000000000, 1.224646799147351975E-16, 0.000000000000000000 ) ) ;
#296 = DIRECTION ( 'NONE',  ( 0.000000000000000000, 0.000000000000000000, -1.000000000000000000 ) ) ;
#297 = DIRECTION ( 'NONE',  ( -0.000000000000000000, -0.000000000000000000, -1.000000000000000000 ) ) ;
#298 = CIRCLE ( 'NONE', #49, 0.7000000000000000666 ) ;
#299 = FACE_OUTER_BOUND ( 'NONE', #69, .T. ) ;
#300 = EDGE_CURVE ( 'NONE', #356, #59, #301, .T. ) ;
#301 = LINE ( 'NONE', #128, #217 ) ;
#302 = FACE_OUTER_BOUND ( 'NONE', #348, .T. ) ;
#303 = ORIENTED_EDGE ( 'NONE', *, *, #277, .F. ) ;
#304 = APPROVAL_PERSON_ORGANIZATION ( #1, #60, #284 ) ;
#305 = AXIS2_PLACEMENT_3D ( 'NONE', #87, #325, #63 ) ;
#306 = CYLINDRICAL_SURFACE ( 'NONE', #205, 5.000000000000000000 ) ;
#307 = ADVANCED_FACE ( 'NONE', ( #40 ), #276, .T. ) ;
#308 = DIRECTION ( 'NONE',  ( 0.000000000000000000, 0.000000000000000000, 1.000000000000000000 ) ) ;
#309 = PRODUCT_DEFINITION_SHAPE ( 'NONE', 'NONE',  #125 ) ;
#310 = APPROVAL_ROLE ( '' ) ;
#311 = MANIFOLD_SOLID_BREP ( 'Odebrat vysunutím3', #135 ) ;
#312 = APPLICATION_PROTOCOL_DEFINITION ( 'international standard', 'config_control_design', 1994, #90 ) ;
#313 = CIRCLE ( 'NONE', #240, 7.000000000000000888 ) ;
#314 = VERTEX_POINT ( 'NONE', #70 ) ;
#315 = CC_DESIGN_PERSON_AND_ORGANIZATION_ASSIGNMENT ( #197, #113, ( #340 ) ) ;
#316 =( NAMED_UNIT ( * ) PLANE_ANGLE_UNIT ( ) SI_UNIT ( $, .RADIAN. ) );
#317 = DIRECTION ( 'NONE',  ( 1.000000000000000000, 0.000000000000000000, 0.000000000000000000 ) ) ;
#318 = SECURITY_CLASSIFICATION_LEVEL ( 'unclassified' ) ;
#319 = ORIENTED_EDGE ( 'NONE', *, *, #11, .T. ) ;
#320 = DATE_AND_TIME ( #26, #50 ) ;
#321 = EDGE_CURVE ( 'NONE', #2, #55, #56, .T. ) ;
#322 = SECURITY_CLASSIFICATION ( '', '', #318 ) ;
#323 = VERTEX_POINT ( 'NONE', #368 ) ;
#324 = EDGE_LOOP ( 'NONE', ( #291, #221, #303, #136 ) ) ;
#325 = DIRECTION ( 'NONE',  ( 0.000000000000000000, 0.000000000000000000, 1.000000000000000000 ) ) ;
#326 = DIRECTION ( 'NONE',  ( 0.000000000000000000, 0.000000000000000000, 1.000000000000000000 ) ) ;
#327 = AXIS2_PLACEMENT_3D ( 'NONE', #216, #241, #271 ) ;
#328 = DIRECTION ( 'NONE',  ( 1.000000000000000000, 0.000000000000000000, 0.000000000000000000 ) ) ;
#329 = CARTESIAN_POINT ( 'NONE',  ( -7.000000000000000888, 0.000000000000000000, 7.699999999999985079 ) ) ;
#330 = CARTESIAN_POINT ( 'NONE',  ( 7.000000000000000888, 8.572527594031474176E-16, 7.699999999999985079 ) ) ;
#331 = EDGE_CURVE ( 'NONE', #338, #356, #355, .T. ) ;
#332 = VECTOR ( 'NONE', #296, 1000.000000000000000 ) ;
#333 = AXIS2_PLACEMENT_3D ( 'NONE', #76, #192, #52 ) ;
#334 = PLANE ( 'NONE',  #228 ) ;
#335 = UNCERTAINTY_MEASURE_WITH_UNIT (LENGTH_MEASURE( 1.000000000000000082E-05 ), #109, 'distance_accuracy_value', 'NONE');
#336 = ORIENTED_EDGE ( 'NONE', *, *, #285, .T. ) ;
#337 = CARTESIAN_POINT ( 'NONE',  ( 0.000000000000000000, 0.000000000000000000, 357.0000000000000000 ) ) ;
#338 = VERTEX_POINT ( 'NONE', #341 ) ;
#339 = CARTESIAN_POINT ( 'NONE',  ( 0.000000000000000000, 0.000000000000000000, 0.000000000000000000 ) ) ;
#340 = PRODUCT_DEFINITION_FORMATION_WITH_SPECIFIED_SOURCE ( 'LIBOVOLNÝ', '', #187, .NOT_KNOWN. ) ;
#341 = CARTESIAN_POINT ( 'NONE',  ( 7.000000000000000888, 8.572527594031474176E-16, 357.0000000000000000 ) ) ;
#342 = DIRECTION ( 'NONE',  ( 1.000000000000000000, 0.000000000000000000, 0.000000000000000000 ) ) ;
#343 =( NAMED_UNIT ( * ) SI_UNIT ( $, .STERADIAN. ) SOLID_ANGLE_UNIT ( ) );
#344 = ORIENTED_EDGE ( 'NONE', *, *, #261, .F. ) ;
#345 = CC_DESIGN_PERSON_AND_ORGANIZATION_ASSIGNMENT ( #81, #195, ( #340 ) ) ;
#346 = APPLICATION_PROTOCOL_DEFINITION ( 'international standard', 'config_control_design', 1994, #65 ) ;
#347 = ORGANIZATION ( 'NEURÈENÝ', 'NEURÈENÝ', '' ) ;
#348 = EDGE_LOOP ( 'NONE', ( #103, #198, #171, #193 ) ) ;
#349 = ADVANCED_BREP_SHAPE_REPRESENTATION ( 'bee9', ( #311, #333 ), #374 ) ;
#350 = DATE_TIME_ROLE ( 'creation_date' ) ;
#351 = ORIENTED_EDGE ( 'NONE', *, *, #219, .T. ) ;
#352 = ADVANCED_FACE ( 'NONE', ( #302 ), #306, .F. ) ;
#353 = DATE_AND_TIME ( #224, #170 ) ;
#354 = ORIENTED_EDGE ( 'NONE', *, *, #300, .F. ) ;
#355 = CIRCLE ( 'NONE', #25, 7.000000000000000888 ) ;
#356 = VERTEX_POINT ( 'NONE', #161 ) ;
#357 = DIRECTION ( 'NONE',  ( -0.000000000000000000, -0.000000000000000000, -1.000000000000000000 ) ) ;
#358 = CALENDAR_DATE ( 2022, 8, 7 ) ;
#359 = DIRECTION ( 'NONE',  ( 0.000000000000000000, -1.000000000000000000, 0.000000000000000000 ) ) ;
#360 = AXIS2_PLACEMENT_3D ( 'NONE', #208, #297, #7 ) ;
#361 = DIRECTION ( 'NONE',  ( -1.000000000000000000, 0.000000000000000000, 0.000000000000000000 ) ) ;
#362 = FACE_OUTER_BOUND ( 'NONE', #82, .T. ) ;
#363 = FACE_OUTER_BOUND ( 'NONE', #324, .T. ) ;
#364 = DIRECTION ( 'NONE',  ( -0.000000000000000000, -0.000000000000000000, -1.000000000000000000 ) ) ;
#365 = FACE_BOUND ( 'NONE', #200, .T. ) ;
#366 = EDGE_CURVE ( 'NONE', #59, #144, #313, .T. ) ;
#367 = DIRECTION ( 'NONE',  ( 0.000000000000000000, 0.000000000000000000, 1.000000000000000000 ) ) ;
#368 = CARTESIAN_POINT ( 'NONE',  ( 5.000000000000000000, 6.123233995736766282E-16, 0.000000000000000000 ) ) ;
#369 = PERSON_AND_ORGANIZATION_ROLE ( 'design_owner' ) ;
#370 = CC_DESIGN_DATE_AND_TIME_ASSIGNMENT ( #380, #350, ( #125 ) ) ;
#371 = ORIENTED_EDGE ( 'NONE', *, *, #233, .T. ) ;
#372 = DIRECTION ( 'NONE',  ( -0.000000000000000000, -0.000000000000000000, -1.000000000000000000 ) ) ;
#373 = ORIENTED_EDGE ( 'NONE', *, *, #321, .F. ) ;
#374 =( GEOMETRIC_REPRESENTATION_CONTEXT ( 3 ) GLOBAL_UNCERTAINTY_ASSIGNED_CONTEXT ( ( #335 ) ) GLOBAL_UNIT_ASSIGNED_CONTEXT ( ( #109, #316, #343 ) ) REPRESENTATION_CONTEXT ( 'NONE', 'WORKASPACE' ) );
#375 = CIRCLE ( 'NONE', #95, 5.000000000000000000 ) ;
#376 = PERSON_AND_ORGANIZATION_ROLE ( 'creator' ) ;
#377 = AXIS2_PLACEMENT_3D ( 'NONE', #339, #13, #212 ) ;
#378 = CARTESIAN_POINT ( 'NONE',  ( 0.000000000000000000, 0.000000000000000000, 7.000000000000000000 ) ) ;
#379 = EDGE_CURVE ( 'NONE', #288, #55, #101, .T. ) ;
#380 = DATE_AND_TIME ( #54, #88 ) ;
#381 = VERTEX_POINT ( 'NONE', #134 ) ;
ENDSEC;
END-ISO-10303-21;
