ISO-10303-21;
HEADER;
FILE_DESCRIPTION (( 'STEP AP203' ),
    '1' );
FILE_NAME ('b6e6.STEP',
    '2022-07-08T15:03:57',
    ( '' ),
    ( '' ),
    'SwSTEP 2.0',
    'SolidWorks 2019',
    '' );
FILE_SCHEMA (( 'CONFIG_CONTROL_DESIGN' ));
ENDSEC;

DATA;
#1 = CALENDAR_DATE ( 2022, 8, 7 ) ;
#2 = DIRECTION ( 'NONE',  ( 1.000000000000000000, 0.000000000000000000, 0.000000000000000000 ) ) ;
#3 = APPROVAL_ROLE ( '' ) ;
#4 = APPLICATION_CONTEXT ( 'configuration controlled 3d designs of mechanical parts and assemblies' ) ;
#5 = CARTESIAN_POINT ( 'NONE',  ( 0.000000000000000000, 0.000000000000000000, 555.0000000000000000 ) ) ;
#6 = CIRCLE ( 'NONE', #272, 2.750000000000000000 ) ;
#7 = CARTESIAN_POINT ( 'NONE',  ( 0.000000000000000000, 0.000000000000000000, 5.000000000000000000 ) ) ;
#8 = CARTESIAN_POINT ( 'NONE',  ( 8.000000000000000000, 9.797174393178825657E-16, 5.000000000000000000 ) ) ;
#9 = DIRECTION ( 'NONE',  ( 0.000000000000000000, 0.000000000000000000, 1.000000000000000000 ) ) ;
#10 = DIRECTION ( 'NONE',  ( 0.000000000000000000, 0.000000000000000000, 1.000000000000000000 ) ) ;
#11 = CIRCLE ( 'NONE', #231, 0.5000000000000004441 ) ;
#12 = CC_DESIGN_DATE_AND_TIME_ASSIGNMENT ( #182, #173, ( #315 ) ) ;
#13 = DIRECTION ( 'NONE',  ( 0.000000000000000000, 0.000000000000000000, 1.000000000000000000 ) ) ;
#14 = DIRECTION ( 'NONE',  ( 1.000000000000000000, 0.000000000000000000, 0.000000000000000000 ) ) ;
#15 = LOCAL_TIME ( 17, 3, 57.00000000000000000, #240 ) ;
#16 = EDGE_LOOP ( 'NONE', ( #258, #55, #290, #375 ) ) ;
#17 = ADVANCED_FACE ( 'NONE', ( #20 ), #257, .F. ) ;
#18 = DIRECTION ( 'NONE',  ( 1.000000000000000000, 0.000000000000000000, -0.000000000000000000 ) ) ;
#19 = ADVANCED_FACE ( 'NONE', ( #237 ), #254, .F. ) ;
#20 = FACE_OUTER_BOUND ( 'NONE', #338, .T. ) ;
#21 = DIRECTION ( 'NONE',  ( 0.000000000000000000, 0.000000000000000000, 1.000000000000000000 ) ) ;
#22 = VERTEX_POINT ( 'NONE', #289 ) ;
#23 = CARTESIAN_POINT ( 'NONE',  ( 0.000000000000000000, 0.000000000000000000, 5.499999999999949374 ) ) ;
#24 = CALENDAR_DATE ( 2022, 8, 7 ) ;
#25 = EDGE_LOOP ( 'NONE', ( #284, #172 ) ) ;
#26 = AXIS2_PLACEMENT_3D ( 'NONE', #245, #64, #191 ) ;
#27 = ORGANIZATION ( 'NEURÈENÝ', 'NEURÈENÝ', '' ) ;
#28 = PERSON_AND_ORGANIZATION ( #181, #27 ) ;
#29 = EDGE_LOOP ( 'NONE', ( #57, #114, #317, #53 ) ) ;
#30 = COORDINATED_UNIVERSAL_TIME_OFFSET ( 1, 0, .AHEAD. ) ;
#31 = DIRECTION ( 'NONE',  ( -0.000000000000000000, -0.000000000000000000, -1.000000000000000000 ) ) ;
#32 = MANIFOLD_SOLID_BREP ( 'Odebrat vysunutím3', #105 ) ;
#33 = FACE_BOUND ( 'NONE', #141, .T. ) ;
#34 = ADVANCED_FACE ( 'NONE', ( #302 ), #65, .T. ) ;
#35 = AXIS2_PLACEMENT_3D ( 'NONE', #37, #244, #273 ) ;
#36 = DIRECTION ( 'NONE',  ( 0.000000000000000000, 0.000000000000000000, 1.000000000000000000 ) ) ;
#37 = CARTESIAN_POINT ( 'NONE',  ( 0.000000000000000000, 0.000000000000000000, 555.0000000000000000 ) ) ;
#38 = CARTESIAN_POINT ( 'NONE',  ( -5.000000000000000000, 0.000000000000000000, 555.0000000000000000 ) ) ;
#39 = AXIS2_PLACEMENT_3D ( 'NONE', #66, #135, #309 ) ;
#40 = DIRECTION ( 'NONE',  ( 0.000000000000000000, 0.000000000000000000, -1.000000000000000000 ) ) ;
#41 = FACE_OUTER_BOUND ( 'NONE', #214, .T. ) ;
#42 = DIRECTION ( 'NONE',  ( -0.000000000000000000, -0.000000000000000000, -1.000000000000000000 ) ) ;
#43 = CARTESIAN_POINT ( 'NONE',  ( 0.000000000000000000, 0.000000000000000000, 5.000000000000000000 ) ) ;
#44 = AXIS2_PLACEMENT_3D ( 'NONE', #7, #31, #325 ) ;
#45 = LOCAL_TIME ( 17, 3, 57.00000000000000000, #30 ) ;
#46 = EDGE_CURVE ( 'NONE', #138, #22, #155, .T. ) ;
#47 = ORIENTED_EDGE ( 'NONE', *, *, #256, .F. ) ;
#48 = PRODUCT_RELATED_PRODUCT_CATEGORY ( 'detail', '', ( #376 ) ) ;
#49 = ORIENTED_EDGE ( 'NONE', *, *, #177, .F. ) ;
#50 = CIRCLE ( 'NONE', #276, 5.000000000000000000 ) ;
#51 = APPROVAL_STATUS ( 'not_yet_approved' ) ;
#52 = DIRECTION ( 'NONE',  ( -0.000000000000000000, -0.000000000000000000, -1.000000000000000000 ) ) ;
#53 = ORIENTED_EDGE ( 'NONE', *, *, #277, .F. ) ;
#54 = PERSON_AND_ORGANIZATION ( #181, #27 ) ;
#55 = ORIENTED_EDGE ( 'NONE', *, *, #319, .F. ) ;
#56 = SHAPE_DEFINITION_REPRESENTATION ( #117, #331 ) ;
#57 = ORIENTED_EDGE ( 'NONE', *, *, #104, .F. ) ;
#58 = AXIS2_PLACEMENT_3D ( 'NONE', #243, #59, #160 ) ;
#59 = DIRECTION ( 'NONE',  ( 0.000000000000000000, 0.000000000000000000, 1.000000000000000000 ) ) ;
#60 = PERSON_AND_ORGANIZATION ( #181, #27 ) ;
#61 = EDGE_CURVE ( 'NONE', #169, #216, #211, .T. ) ;
#62 = DIRECTION ( 'NONE',  ( -0.000000000000000000, -0.000000000000000000, -1.000000000000000000 ) ) ;
#63 = FACE_OUTER_BOUND ( 'NONE', #209, .T. ) ;
#64 = DIRECTION ( 'NONE',  ( 0.000000000000000000, 0.000000000000000000, 1.000000000000000000 ) ) ;
#65 = CYLINDRICAL_SURFACE ( 'NONE', #197, 5.000000000000000000 ) ;
#66 = CARTESIAN_POINT ( 'NONE',  ( 0.000000000000000000, 0.000000000000000000, 5.000000000000000000 ) ) ;
#67 = DIRECTION ( 'NONE',  ( 1.000000000000000000, 0.000000000000000000, 0.000000000000000000 ) ) ;
#68 = CIRCLE ( 'NONE', #310, 5.000000000000000000 ) ;
#69 = CARTESIAN_POINT ( 'NONE',  ( 0.000000000000000000, 0.000000000000000000, 555.0000000000000000 ) ) ;
#70 = DIRECTION ( 'NONE',  ( -1.000000000000000000, 0.000000000000000000, 0.000000000000000000 ) ) ;
#71 = EDGE_CURVE ( 'NONE', #143, #22, #283, .T. ) ;
#72 = ORIENTED_EDGE ( 'NONE', *, *, #256, .T. ) ;
#73 = CARTESIAN_POINT ( 'NONE',  ( 0.000000000000000000, 0.000000000000000000, 555.0000000000000000 ) ) ;
#74 = CARTESIAN_POINT ( 'NONE',  ( -5.500000000000000000, 6.735557395310442023E-16, 5.499999999999949374 ) ) ;
#75 = AXIS2_PLACEMENT_3D ( 'NONE', #130, #92, #271 ) ;
#76 = LOCAL_TIME ( 17, 3, 57.00000000000000000, #144 ) ;
#77 = VERTEX_POINT ( 'NONE', #38 ) ;
#78 = EDGE_CURVE ( 'NONE', #146, #318, #320, .T. ) ;
#79 = APPROVAL ( #314, 'NEURÈENÝ' ) ;
#80 = ORIENTED_EDGE ( 'NONE', *, *, #109, .T. ) ;
#81 = PERSON_AND_ORGANIZATION ( #181, #27 ) ;
#82 = CARTESIAN_POINT ( 'NONE',  ( 0.000000000000000000, 0.000000000000000000, 5.000000000000000000 ) ) ;
#83 = ORIENTED_EDGE ( 'NONE', *, *, #125, .F. ) ;
#84 = AXIS2_PLACEMENT_3D ( 'NONE', #23, #149, #378 ) ;
#85 = APPROVAL_PERSON_ORGANIZATION ( #54, #112, #350 ) ;
#86 = COORDINATED_UNIVERSAL_TIME_OFFSET ( 1, 0, .AHEAD. ) ;
#87 = FACE_OUTER_BOUND ( 'NONE', #89, .T. ) ;
#88 = CC_DESIGN_PERSON_AND_ORGANIZATION_ASSIGNMENT ( #219, #126, ( #376 ) ) ;
#89 = EDGE_LOOP ( 'NONE', ( #72, #262 ) ) ;
#90 = EDGE_LOOP ( 'NONE', ( #83, #230 ) ) ;
#91 = DATE_AND_TIME ( #24, #15 ) ;
#92 = DIRECTION ( 'NONE',  ( 0.000000000000000000, -1.000000000000000000, 0.000000000000000000 ) ) ;
#93 = AXIS2_PLACEMENT_3D ( 'NONE', #73, #162, #226 ) ;
#94 = PERSON_AND_ORGANIZATION_ROLE ( 'classification_officer' ) ;
#95 = DIRECTION ( 'NONE',  ( 0.000000000000000000, 0.000000000000000000, 1.000000000000000000 ) ) ;
#96 = CARTESIAN_POINT ( 'NONE',  ( 8.000000000000000000, 9.797174393178825657E-16, 0.000000000000000000 ) ) ;
#97 = DIRECTION ( 'NONE',  ( 1.000000000000000000, 0.000000000000000000, 0.000000000000000000 ) ) ;
#98 = CIRCLE ( 'NONE', #75, 0.5000000000000004441 ) ;
#99 = CARTESIAN_POINT ( 'NONE',  ( 0.000000000000000000, 0.000000000000000000, 555.0000000000000000 ) ) ;
#100 = DIRECTION ( 'NONE',  ( 1.000000000000000000, 0.000000000000000000, 0.000000000000000000 ) ) ;
#101 = CARTESIAN_POINT ( 'NONE',  ( 0.000000000000000000, 0.000000000000000000, 0.000000000000000000 ) ) ;
#102 = DIRECTION ( 'NONE',  ( 1.000000000000000000, 0.000000000000000000, 0.000000000000000000 ) ) ;
#103 = DIRECTION ( 'NONE',  ( 1.000000000000000000, 0.000000000000000000, -0.000000000000000000 ) ) ;
#104 = EDGE_CURVE ( 'NONE', #282, #77, #206, .T. ) ;
#105 = CLOSED_SHELL ( 'NONE', ( #356, #17, #34, #187, #368, #301, #208, #333, #147, #19, #228 ) ) ;
#106 = FACE_BOUND ( 'NONE', #25, .T. ) ;
#107 = LINE ( 'NONE', #366, #353 ) ;
#108 =( NAMED_UNIT ( * ) SI_UNIT ( $, .STERADIAN. ) SOLID_ANGLE_UNIT ( ) );
#109 = EDGE_CURVE ( 'NONE', #110, #143, #124, .T. ) ;
#110 = VERTEX_POINT ( 'NONE', #8 ) ;
#111 = ORIENTED_EDGE ( 'NONE', *, *, #238, .T. ) ;
#112 = APPROVAL ( #213, 'NEURÈENÝ' ) ;
#113 = PLANE ( 'NONE',  #345 ) ;
#114 = ORIENTED_EDGE ( 'NONE', *, *, #342, .T. ) ;
#115 = PERSON_AND_ORGANIZATION ( #181, #27 ) ;
#116 = ORIENTED_EDGE ( 'NONE', *, *, #287, .F. ) ;
#117 = PRODUCT_DEFINITION_SHAPE ( 'NONE', 'NONE',  #315 ) ;
#118 = PERSON_AND_ORGANIZATION_ROLE ( 'creator' ) ;
#119 = ORIENTED_EDGE ( 'NONE', *, *, #281, .F. ) ;
#120 = AXIS2_PLACEMENT_3D ( 'NONE', #192, #354, #158 ) ;
#121 = PRODUCT_DEFINITION_FORMATION_WITH_SPECIFIED_SOURCE ( 'LIBOVOLNÝ', '', #376, .NOT_KNOWN. ) ;
#122 = ORIENTED_EDGE ( 'NONE', *, *, #238, .F. ) ;
#123 = APPLICATION_PROTOCOL_DEFINITION ( 'international standard', 'config_control_design', 1994, #4 ) ;
#124 = LINE ( 'NONE', #324, #167 ) ;
#125 = EDGE_CURVE ( 'NONE', #22, #143, #379, .T. ) ;
#126 = PERSON_AND_ORGANIZATION_ROLE ( 'design_owner' ) ;
#127 = DIRECTION ( 'NONE',  ( -1.000000000000000000, 0.000000000000000000, 0.000000000000000000 ) ) ;
#128 = CIRCLE ( 'NONE', #39, 5.500000000000000000 ) ;
#129 = CARTESIAN_POINT ( 'NONE',  ( -8.000000000000000000, 0.000000000000000000, 5.000000000000000000 ) ) ;
#130 = CARTESIAN_POINT ( 'NONE',  ( 5.500000000000000000, 0.000000000000000000, 5.499999999999949374 ) ) ;
#131 = DIRECTION ( 'NONE',  ( 1.000000000000000000, 0.000000000000000000, 0.000000000000000000 ) ) ;
#132 = CC_DESIGN_DATE_AND_TIME_ASSIGNMENT ( #266, #261, ( #168 ) ) ;
#133 = FACE_BOUND ( 'NONE', #202, .T. ) ;
#134 = AXIS2_PLACEMENT_3D ( 'NONE', #69, #229, #14 ) ;
#135 = DIRECTION ( 'NONE',  ( -0.000000000000000000, -0.000000000000000000, -1.000000000000000000 ) ) ;
#136 = DIRECTION ( 'NONE',  ( 0.000000000000000000, 0.000000000000000000, 1.000000000000000000 ) ) ;
#137 = EDGE_CURVE ( 'NONE', #170, #207, #157, .T. ) ;
#138 = VERTEX_POINT ( 'NONE', #186 ) ;
#139 = CIRCLE ( 'NONE', #161, 5.500000000000000000 ) ;
#140 = ORIENTED_EDGE ( 'NONE', *, *, #372, .F. ) ;
#141 = EDGE_LOOP ( 'NONE', ( #122, #286 ) ) ;
#142 = AXIS2_PLACEMENT_3D ( 'NONE', #249, #40, #334 ) ;
#143 = VERTEX_POINT ( 'NONE', #96 ) ;
#144 = COORDINATED_UNIVERSAL_TIME_OFFSET ( 1, 0, .AHEAD. ) ;
#145 = UNCERTAINTY_MEASURE_WITH_UNIT (LENGTH_MEASURE( 1.000000000000000082E-05 ), #336, 'distance_accuracy_value', 'NONE');
#146 = VERTEX_POINT ( 'NONE', #351 ) ;
#147 = ADVANCED_FACE ( 'NONE', ( #33, #156 ), #274, .T. ) ;
#148 = PERSON_AND_ORGANIZATION ( #181, #27 ) ;
#149 = DIRECTION ( 'NONE',  ( 0.000000000000000000, 0.000000000000000000, 1.000000000000000000 ) ) ;
#150 = ORIENTED_EDGE ( 'NONE', *, *, #125, .T. ) ;
#151 = CIRCLE ( 'NONE', #26, 8.000000000000000000 ) ;
#152 = CALENDAR_DATE ( 2022, 8, 7 ) ;
#153 = EDGE_CURVE ( 'NONE', #169, #371, #98, .T. ) ;
#154 = EDGE_LOOP ( 'NONE', ( #166, #265 ) ) ;
#155 = LINE ( 'NONE', #129, #218 ) ;
#156 = FACE_OUTER_BOUND ( 'NONE', #154, .T. ) ;
#157 = CIRCLE ( 'NONE', #304, 2.750000000000000000 ) ;
#158 = DIRECTION ( 'NONE',  ( 1.000000000000000000, 0.000000000000000000, 0.000000000000000000 ) ) ;
#159 = CARTESIAN_POINT ( 'NONE',  ( 2.750000000000000000, 3.367778697655221012E-16, 0.000000000000000000 ) ) ;
#160 = DIRECTION ( 'NONE',  ( 1.000000000000000000, 0.000000000000000000, 0.000000000000000000 ) ) ;
#161 = AXIS2_PLACEMENT_3D ( 'NONE', #82, #52, #299 ) ;
#162 = DIRECTION ( 'NONE',  ( 0.000000000000000000, 0.000000000000000000, -1.000000000000000000 ) ) ;
#163 = CARTESIAN_POINT ( 'NONE',  ( 2.750000000000000000, 3.367778697655221012E-16, 555.0000000000000000 ) ) ;
#164 = CARTESIAN_POINT ( 'NONE',  ( 5.000000000000000000, 6.123233995736766282E-16, 555.0000000000000000 ) ) ;
#165 = DIRECTION ( 'NONE',  ( 0.000000000000000000, 0.000000000000000000, -1.000000000000000000 ) ) ;
#166 = ORIENTED_EDGE ( 'NONE', *, *, #319, .T. ) ;
#167 = VECTOR ( 'NONE', #241, 1000.000000000000000 ) ;
#168 = SECURITY_CLASSIFICATION ( '', '', #291 ) ;
#169 = VERTEX_POINT ( 'NONE', #294 ) ;
#170 = VERTEX_POINT ( 'NONE', #327 ) ;
#171 = VECTOR ( 'NONE', #199, 1000.000000000000000 ) ;
#172 = ORIENTED_EDGE ( 'NONE', *, *, #306, .T. ) ;
#173 = DATE_TIME_ROLE ( 'creation_date' ) ;
#174 = ORIENTED_EDGE ( 'NONE', *, *, #78, .T. ) ;
#175 = APPROVAL_DATE_TIME ( #285, #112 ) ;
#176 = ORIENTED_EDGE ( 'NONE', *, *, #46, .T. ) ;
#177 = EDGE_CURVE ( 'NONE', #216, #169, #68, .T. ) ;
#178 = DIRECTION ( 'NONE',  ( -0.000000000000000000, -0.000000000000000000, -1.000000000000000000 ) ) ;
#179 = ORIENTED_EDGE ( 'NONE', *, *, #292, .T. ) ;
#180 = VECTOR ( 'NONE', #332, 1000.000000000000000 ) ;
#181 = PERSON ( 'NEURÈENÝ', 'NEURÈENÝ', 'NEURÈENÝ', ('NEURÈENÝ'), ('NEURÈENÝ'), ('NEURÈENÝ') ) ;
#182 = DATE_AND_TIME ( #347, #76 ) ;
#183 = DIRECTION ( 'NONE',  ( 1.000000000000000000, 0.000000000000000000, 0.000000000000000000 ) ) ;
#184 = MECHANICAL_CONTEXT ( 'NONE', #4, 'mechanical' ) ;
#185 = DIRECTION ( 'NONE',  ( -0.000000000000000000, -0.000000000000000000, -1.000000000000000000 ) ) ;
#186 = CARTESIAN_POINT ( 'NONE',  ( -8.000000000000000000, 0.000000000000000000, 5.000000000000000000 ) ) ;
#187 = ADVANCED_FACE ( 'NONE', ( #63 ), #321, .T. ) ;
#188 = VECTOR ( 'NONE', #42, 1000.000000000000000 ) ;
#189 = APPROVAL_PERSON_ORGANIZATION ( #377, #79, #343 ) ;
#190 = CARTESIAN_POINT ( 'NONE',  ( -2.750000000000000000, 0.000000000000000000, 555.0000000000000000 ) ) ;
#191 = DIRECTION ( 'NONE',  ( 1.000000000000000000, 0.000000000000000000, 0.000000000000000000 ) ) ;
#192 = CARTESIAN_POINT ( 'NONE',  ( 0.000000000000000000, 0.000000000000000000, 0.000000000000000000 ) ) ;
#193 = EDGE_CURVE ( 'NONE', #110, #138, #151, .T. ) ;
#194 = DIRECTION ( 'NONE',  ( -0.000000000000000000, -0.000000000000000000, -1.000000000000000000 ) ) ;
#195 = DIRECTION ( 'NONE',  ( 1.224646799147353207E-16, 1.000000000000000000, -0.000000000000000000 ) ) ;
#196 = ORIENTED_EDGE ( 'NONE', *, *, #306, .F. ) ;
#197 = AXIS2_PLACEMENT_3D ( 'NONE', #5, #185, #127 ) ;
#198 = DIRECTION ( 'NONE',  ( -1.000000000000000000, 0.000000000000000000, 0.000000000000000000 ) ) ;
#199 = DIRECTION ( 'NONE',  ( 0.000000000000000000, 0.000000000000000000, -1.000000000000000000 ) ) ;
#200 =( NAMED_UNIT ( * ) PLANE_ANGLE_UNIT ( ) SI_UNIT ( $, .RADIAN. ) );
#201 = CYLINDRICAL_SURFACE ( 'NONE', #142, 2.750000000000000000 ) ;
#202 = EDGE_LOOP ( 'NONE', ( #341, #140 ) ) ;
#203 = CYLINDRICAL_SURFACE ( 'NONE', #335, 8.000000000000000000 ) ;
#204 = CARTESIAN_POINT ( 'NONE',  ( -5.000000000000000000, 0.000000000000000000, 5.499999999999949374 ) ) ;
#205 = CC_DESIGN_PERSON_AND_ORGANIZATION_ASSIGNMENT ( #28, #94, ( #168 ) ) ;
#206 = CIRCLE ( 'NONE', #326, 5.000000000000000000 ) ;
#207 = VERTEX_POINT ( 'NONE', #159 ) ;
#208 = ADVANCED_FACE ( 'NONE', ( #133, #247 ), #359, .F. ) ;
#209 = EDGE_LOOP ( 'NONE', ( #340, #80, #235, #344 ) ) ;
#210 = PERSON_AND_ORGANIZATION_ROLE ( 'creator' ) ;
#211 = CIRCLE ( 'NONE', #358, 5.000000000000000000 ) ;
#212 = ORIENTED_EDGE ( 'NONE', *, *, #362, .F. ) ;
#213 = APPROVAL_STATUS ( 'not_yet_approved' ) ;
#214 = EDGE_LOOP ( 'NONE', ( #111, #179, #313, #116 ) ) ;
#215 = CARTESIAN_POINT ( 'NONE',  ( 0.000000000000000000, 0.000000000000000000, 5.000000000000000000 ) ) ;
#216 = VERTEX_POINT ( 'NONE', #204 ) ;
#217 = CARTESIAN_POINT ( 'NONE',  ( 0.000000000000000000, 0.000000000000000000, 5.499999999999949374 ) ) ;
#218 = VECTOR ( 'NONE', #62, 1000.000000000000000 ) ;
#219 = PERSON_AND_ORGANIZATION ( #181, #27 ) ;
#220 = DIRECTION ( 'NONE',  ( 0.000000000000000000, 0.000000000000000000, 1.000000000000000000 ) ) ;
#221 = CARTESIAN_POINT ( 'NONE',  ( 0.000000000000000000, 0.000000000000000000, 555.0000000000000000 ) ) ;
#222 = DIRECTION ( 'NONE',  ( 1.000000000000000000, 0.000000000000000000, 0.000000000000000000 ) ) ;
#223 = CC_DESIGN_SECURITY_CLASSIFICATION ( #168, ( #121 ) ) ;
#224 = CARTESIAN_POINT ( 'NONE',  ( 0.000000000000000000, 0.000000000000000000, 0.000000000000000000 ) ) ;
#225 = AXIS2_PLACEMENT_3D ( 'NONE', #355, #36, #97 ) ;
#226 = DIRECTION ( 'NONE',  ( -1.000000000000000000, 0.000000000000000000, 0.000000000000000000 ) ) ;
#227 = LINE ( 'NONE', #164, #188 ) ;
#228 = ADVANCED_FACE ( 'NONE', ( #311 ), #201, .F. ) ;
#229 = DIRECTION ( 'NONE',  ( 0.000000000000000000, 0.000000000000000000, 1.000000000000000000 ) ) ;
#230 = ORIENTED_EDGE ( 'NONE', *, *, #71, .F. ) ;
#231 = AXIS2_PLACEMENT_3D ( 'NONE', #74, #195, #303 ) ;
#232 = ORIENTED_EDGE ( 'NONE', *, *, #281, .T. ) ;
#233 = VERTEX_POINT ( 'NONE', #361 ) ;
#234 = PERSON_AND_ORGANIZATION_ROLE ( 'design_supplier' ) ;
#235 = ORIENTED_EDGE ( 'NONE', *, *, #71, .T. ) ;
#236 = AXIS2_PLACEMENT_3D ( 'NONE', #242, #373, #322 ) ;
#237 = FACE_OUTER_BOUND ( 'NONE', #312, .T. ) ;
#238 = EDGE_CURVE ( 'NONE', #318, #146, #253, .T. ) ;
#239 = ORIENTED_EDGE ( 'NONE', *, *, #153, .T. ) ;
#240 = COORDINATED_UNIVERSAL_TIME_OFFSET ( 1, 0, .AHEAD. ) ;
#241 = DIRECTION ( 'NONE',  ( -0.000000000000000000, -0.000000000000000000, -1.000000000000000000 ) ) ;
#242 = CARTESIAN_POINT ( 'NONE',  ( 0.000000000000000000, 0.000000000000000000, 0.000000000000000000 ) ) ;
#243 = CARTESIAN_POINT ( 'NONE',  ( 0.000000000000000000, 0.000000000000000000, 555.0000000000000000 ) ) ;
#244 = DIRECTION ( 'NONE',  ( 0.000000000000000000, 0.000000000000000000, 1.000000000000000000 ) ) ;
#245 = CARTESIAN_POINT ( 'NONE',  ( 0.000000000000000000, 0.000000000000000000, 5.000000000000000000 ) ) ;
#246 = CARTESIAN_POINT ( 'NONE',  ( 0.000000000000000000, 0.000000000000000000, 555.0000000000000000 ) ) ;
#247 = FACE_OUTER_BOUND ( 'NONE', #90, .T. ) ;
#248 = APPROVAL_PERSON_ORGANIZATION ( #81, #329, #3 ) ;
#249 = CARTESIAN_POINT ( 'NONE',  ( 0.000000000000000000, 0.000000000000000000, 555.0000000000000000 ) ) ;
#250 = FACE_OUTER_BOUND ( 'NONE', #381, .T. ) ;
#251 = CARTESIAN_POINT ( 'NONE',  ( -5.000000000000000000, 0.000000000000000000, 555.0000000000000000 ) ) ;
#252 = ORIENTED_EDGE ( 'NONE', *, *, #109, .F. ) ;
#253 = CIRCLE ( 'NONE', #134, 2.750000000000000000 ) ;
#254 = TOROIDAL_SURFACE ( 'NONE', #225, 5.500000000000000000, 0.5000000000000000000 ) ;
#255 = LINE ( 'NONE', #251, #180 ) ;
#256 = EDGE_CURVE ( 'NONE', #138, #110, #339, .T. ) ;
#257 = TOROIDAL_SURFACE ( 'NONE', #84, 5.500000000000000000, 0.5000000000000000000 ) ;
#258 = ORIENTED_EDGE ( 'NONE', *, *, #342, .F. ) ;
#259 = CALENDAR_DATE ( 2022, 8, 7 ) ;
#260 = ORIENTED_EDGE ( 'NONE', *, *, #287, .T. ) ;
#261 = DATE_TIME_ROLE ( 'classification_date' ) ;
#262 = ORIENTED_EDGE ( 'NONE', *, *, #193, .T. ) ;
#263 = APPROVAL_DATE_TIME ( #91, #79 ) ;
#264 = CC_DESIGN_PERSON_AND_ORGANIZATION_ASSIGNMENT ( #115, #234, ( #121 ) ) ;
#265 = ORIENTED_EDGE ( 'NONE', *, *, #104, .T. ) ;
#266 = DATE_AND_TIME ( #152, #45 ) ;
#267 = ORIENTED_EDGE ( 'NONE', *, *, #153, .F. ) ;
#268 = COORDINATED_UNIVERSAL_TIME_OFFSET ( 1, 0, .AHEAD. ) ;
#269 = CYLINDRICAL_SURFACE ( 'NONE', #370, 5.000000000000000000 ) ;
#270 = CARTESIAN_POINT ( 'NONE',  ( 0.000000000000000000, 0.000000000000000000, 5.499999999999949374 ) ) ;
#271 = DIRECTION ( 'NONE',  ( 0.000000000000000000, 0.000000000000000000, -1.000000000000000000 ) ) ;
#272 = AXIS2_PLACEMENT_3D ( 'NONE', #101, #194, #102 ) ;
#273 = DIRECTION ( 'NONE',  ( 1.000000000000000000, 0.000000000000000000, -0.000000000000000000 ) ) ;
#274 = PLANE ( 'NONE',  #35 ) ;
#275 = CARTESIAN_POINT ( 'NONE',  ( 0.000000000000000000, 0.000000000000000000, 5.000000000000000000 ) ) ;
#276 = AXIS2_PLACEMENT_3D ( 'NONE', #99, #9, #131 ) ;
#277 = EDGE_CURVE ( 'NONE', #77, #216, #255, .T. ) ;
#278 = AXIS2_PLACEMENT_3D ( 'NONE', #297, #220, #183 ) ;
#279 = CC_DESIGN_APPROVAL ( #79, ( #168 ) ) ;
#280 = CARTESIAN_POINT ( 'NONE',  ( 5.500000000000000000, 0.000000000000000000, 4.999999999999975131 ) ) ;
#281 = EDGE_CURVE ( 'NONE', #216, #233, #11, .T. ) ;
#282 = VERTEX_POINT ( 'NONE', #307 ) ;
#283 = CIRCLE ( 'NONE', #120, 8.000000000000000000 ) ;
#284 = ORIENTED_EDGE ( 'NONE', *, *, #362, .T. ) ;
#285 = DATE_AND_TIME ( #259, #298 ) ;
#286 = ORIENTED_EDGE ( 'NONE', *, *, #78, .F. ) ;
#287 = EDGE_CURVE ( 'NONE', #318, #170, #107, .T. ) ;
#288 = APPROVAL_DATE_TIME ( #316, #329 ) ;
#289 = CARTESIAN_POINT ( 'NONE',  ( -8.000000000000000000, 0.000000000000000000, 0.000000000000000000 ) ) ;
#290 = ORIENTED_EDGE ( 'NONE', *, *, #277, .T. ) ;
#291 = SECURITY_CLASSIFICATION_LEVEL ( 'unclassified' ) ;
#292 = EDGE_CURVE ( 'NONE', #146, #207, #364, .T. ) ;
#293 = FACE_OUTER_BOUND ( 'NONE', #16, .T. ) ;
#294 = CARTESIAN_POINT ( 'NONE',  ( 5.000000000000000000, 6.123233995736766282E-16, 5.499999999999949374 ) ) ;
#295 = CARTESIAN_POINT ( 'NONE',  ( 0.000000000000000000, 0.000000000000000000, 0.000000000000000000 ) ) ;
#296 = AXIS2_PLACEMENT_3D ( 'NONE', #224, #13, #103 ) ;
#297 = CARTESIAN_POINT ( 'NONE',  ( 0.000000000000000000, 0.000000000000000000, 0.000000000000000000 ) ) ;
#298 = LOCAL_TIME ( 17, 3, 57.00000000000000000, #268 ) ;
#299 = DIRECTION ( 'NONE',  ( 1.000000000000000000, 0.000000000000000000, 0.000000000000000000 ) ) ;
#300 = DIRECTION ( 'NONE',  ( 0.000000000000000000, 0.000000000000000000, 1.000000000000000000 ) ) ;
#301 = ADVANCED_FACE ( 'NONE', ( #106, #87 ), #113, .T. ) ;
#302 = FACE_OUTER_BOUND ( 'NONE', #29, .T. ) ;
#303 = DIRECTION ( 'NONE',  ( -1.000000000000000000, 1.224646799147351482E-16, 0.000000000000000000 ) ) ;
#304 = AXIS2_PLACEMENT_3D ( 'NONE', #295, #357, #222 ) ;
#305 = ORIENTED_EDGE ( 'NONE', *, *, #137, .T. ) ;
#306 = EDGE_CURVE ( 'NONE', #233, #371, #139, .T. ) ;
#307 = CARTESIAN_POINT ( 'NONE',  ( 5.000000000000000000, 6.123233995736766282E-16, 555.0000000000000000 ) ) ;
#308 = ORIENTED_EDGE ( 'NONE', *, *, #61, .F. ) ;
#309 = DIRECTION ( 'NONE',  ( 1.000000000000000000, 0.000000000000000000, 0.000000000000000000 ) ) ;
#310 = AXIS2_PLACEMENT_3D ( 'NONE', #217, #10, #100 ) ;
#311 = FACE_OUTER_BOUND ( 'NONE', #369, .T. ) ;
#312 = EDGE_LOOP ( 'NONE', ( #119, #308, #239, #196 ) ) ;
#313 = ORIENTED_EDGE ( 'NONE', *, *, #372, .T. ) ;
#314 = APPROVAL_STATUS ( 'not_yet_approved' ) ;
#315 = PRODUCT_DEFINITION ( 'NEZNÁMÝ', '', #121, #374 ) ;
#316 = DATE_AND_TIME ( #1, #346 ) ;
#317 = ORIENTED_EDGE ( 'NONE', *, *, #61, .T. ) ;
#318 = VERTEX_POINT ( 'NONE', #190 ) ;
#319 = EDGE_CURVE ( 'NONE', #77, #282, #50, .T. ) ;
#320 = CIRCLE ( 'NONE', #58, 2.750000000000000000 ) ;
#321 = CYLINDRICAL_SURFACE ( 'NONE', #44, 8.000000000000000000 ) ;
#322 = DIRECTION ( 'NONE',  ( 1.000000000000000000, 0.000000000000000000, 0.000000000000000000 ) ) ;
#323 = CC_DESIGN_PERSON_AND_ORGANIZATION_ASSIGNMENT ( #148, #210, ( #121 ) ) ;
#324 = CARTESIAN_POINT ( 'NONE',  ( 8.000000000000000000, 9.797174393178825657E-16, 5.000000000000000000 ) ) ;
#325 = DIRECTION ( 'NONE',  ( -1.000000000000000000, 0.000000000000000000, 0.000000000000000000 ) ) ;
#326 = AXIS2_PLACEMENT_3D ( 'NONE', #221, #95, #2 ) ;
#327 = CARTESIAN_POINT ( 'NONE',  ( -2.750000000000000000, 0.000000000000000000, 0.000000000000000000 ) ) ;
#328 = CC_DESIGN_APPROVAL ( #329, ( #315 ) ) ;
#329 = APPROVAL ( #51, 'NEURÈENÝ' ) ;
#330 = DIRECTION ( 'NONE',  ( 1.000000000000000000, 0.000000000000000000, 0.000000000000000000 ) ) ;
#331 = ADVANCED_BREP_SHAPE_REPRESENTATION ( 'b6e6', ( #32, #236 ), #380 ) ;
#332 = DIRECTION ( 'NONE',  ( -0.000000000000000000, -0.000000000000000000, -1.000000000000000000 ) ) ;
#333 = ADVANCED_FACE ( 'NONE', ( #293 ), #269, .T. ) ;
#334 = DIRECTION ( 'NONE',  ( -1.000000000000000000, 0.000000000000000000, 0.000000000000000000 ) ) ;
#335 = AXIS2_PLACEMENT_3D ( 'NONE', #275, #363, #198 ) ;
#336 =( LENGTH_UNIT ( ) NAMED_UNIT ( * ) SI_UNIT ( .MILLI., .METRE. ) );
#337 = CYLINDRICAL_SURFACE ( 'NONE', #93, 2.750000000000000000 ) ;
#338 = EDGE_LOOP ( 'NONE', ( #49, #232, #212, #267 ) ) ;
#339 = CIRCLE ( 'NONE', #365, 8.000000000000000000 ) ;
#340 = ORIENTED_EDGE ( 'NONE', *, *, #193, .F. ) ;
#341 = ORIENTED_EDGE ( 'NONE', *, *, #137, .F. ) ;
#342 = EDGE_CURVE ( 'NONE', #282, #169, #227, .T. ) ;
#343 = APPROVAL_ROLE ( '' ) ;
#344 = ORIENTED_EDGE ( 'NONE', *, *, #46, .F. ) ;
#345 = AXIS2_PLACEMENT_3D ( 'NONE', #215, #21, #18 ) ;
#346 = LOCAL_TIME ( 17, 3, 57.00000000000000000, #86 ) ;
#347 = CALENDAR_DATE ( 2022, 8, 7 ) ;
#348 = ORIENTED_EDGE ( 'NONE', *, *, #292, .F. ) ;
#349 = CC_DESIGN_PERSON_AND_ORGANIZATION_ASSIGNMENT ( #60, #118, ( #315 ) ) ;
#350 = APPROVAL_ROLE ( '' ) ;
#351 = CARTESIAN_POINT ( 'NONE',  ( 2.750000000000000000, 3.367778697655221012E-16, 555.0000000000000000 ) ) ;
#352 = APPLICATION_PROTOCOL_DEFINITION ( 'international standard', 'config_control_design', 1994, #367 ) ;
#353 = VECTOR ( 'NONE', #165, 1000.000000000000000 ) ;
#354 = DIRECTION ( 'NONE',  ( 0.000000000000000000, 0.000000000000000000, 1.000000000000000000 ) ) ;
#355 = CARTESIAN_POINT ( 'NONE',  ( 0.000000000000000000, 0.000000000000000000, 5.499999999999949374 ) ) ;
#356 = ADVANCED_FACE ( 'NONE', ( #41 ), #337, .F. ) ;
#357 = DIRECTION ( 'NONE',  ( -0.000000000000000000, -0.000000000000000000, -1.000000000000000000 ) ) ;
#358 = AXIS2_PLACEMENT_3D ( 'NONE', #270, #300, #330 ) ;
#359 = PLANE ( 'NONE',  #296 ) ;
#360 = CC_DESIGN_APPROVAL ( #112, ( #121 ) ) ;
#361 = CARTESIAN_POINT ( 'NONE',  ( -5.500000000000000000, 6.735557395310442023E-16, 4.999999999999975131 ) ) ;
#362 = EDGE_CURVE ( 'NONE', #371, #233, #128, .T. ) ;
#363 = DIRECTION ( 'NONE',  ( -0.000000000000000000, -0.000000000000000000, -1.000000000000000000 ) ) ;
#364 = LINE ( 'NONE', #163, #171 ) ;
#365 = AXIS2_PLACEMENT_3D ( 'NONE', #43, #136, #67 ) ;
#366 = CARTESIAN_POINT ( 'NONE',  ( -2.750000000000000000, 0.000000000000000000, 555.0000000000000000 ) ) ;
#367 = APPLICATION_CONTEXT ( 'configuration controlled 3d designs of mechanical parts and assemblies' ) ;
#368 = ADVANCED_FACE ( 'NONE', ( #250 ), #203, .T. ) ;
#369 = EDGE_LOOP ( 'NONE', ( #348, #174, #260, #305 ) ) ;
#370 = AXIS2_PLACEMENT_3D ( 'NONE', #246, #178, #70 ) ;
#371 = VERTEX_POINT ( 'NONE', #280 ) ;
#372 = EDGE_CURVE ( 'NONE', #207, #170, #6, .T. ) ;
#373 = DIRECTION ( 'NONE',  ( 0.000000000000000000, 0.000000000000000000, 1.000000000000000000 ) ) ;
#374 = DESIGN_CONTEXT ( 'detailed design', #367, 'design' ) ;
#375 = ORIENTED_EDGE ( 'NONE', *, *, #177, .T. ) ;
#376 = PRODUCT ( 'b6e6', 'b6e6', '', ( #184 ) ) ;
#377 = PERSON_AND_ORGANIZATION ( #181, #27 ) ;
#378 = DIRECTION ( 'NONE',  ( 1.000000000000000000, 0.000000000000000000, 0.000000000000000000 ) ) ;
#379 = CIRCLE ( 'NONE', #278, 8.000000000000000000 ) ;
#380 =( GEOMETRIC_REPRESENTATION_CONTEXT ( 3 ) GLOBAL_UNCERTAINTY_ASSIGNED_CONTEXT ( ( #145 ) ) GLOBAL_UNIT_ASSIGNED_CONTEXT ( ( #336, #200, #108 ) ) REPRESENTATION_CONTEXT ( 'NONE', 'WORKASPACE' ) );
#381 = EDGE_LOOP ( 'NONE', ( #252, #47, #176, #150 ) ) ;
ENDSEC;
END-ISO-10303-21;
