ISO-10303-21;
HEADER;
FILE_DESCRIPTION (( 'STEP AP203' ),
    '1' );
FILE_NAME ('2740.STEP',
    '2022-07-08T15:53:54',
    ( '' ),
    ( '' ),
    'SwSTEP 2.0',
    'SolidWorks 2019',
    '' );
FILE_SCHEMA (( 'CONFIG_CONTROL_DESIGN' ));
ENDSEC;

DATA;
#1 = DIRECTION ( 'NONE',  ( -1.000000000000000000, 0.000000000000000000, 0.000000000000000000 ) ) ;
#2 = ORIENTED_EDGE ( 'NONE', *, *, #348, .F. ) ;
#3 = EDGE_CURVE ( 'NONE', #147, #215, #82, .T. ) ;
#4 = DIRECTION ( 'NONE',  ( 0.000000000000000000, 0.000000000000000000, 1.000000000000000000 ) ) ;
#5 = AXIS2_PLACEMENT_3D ( 'NONE', #136, #112, #170 ) ;
#6 = CARTESIAN_POINT ( 'NONE',  ( 2.299999999999999822, 0.000000000000000000, 3.300000000000025135 ) ) ;
#7 = ORIENTED_EDGE ( 'NONE', *, *, #174, .F. ) ;
#8 = DIRECTION ( 'NONE',  ( 1.000000000000000000, 0.000000000000000000, 0.000000000000000000 ) ) ;
#9 = MECHANICAL_CONTEXT ( 'NONE', #209, 'mechanical' ) ;
#10 = ADVANCED_FACE ( 'NONE', ( #42 ), #158, .T. ) ;
#11 = PERSON_AND_ORGANIZATION ( #259, #24 ) ;
#12 = DIRECTION ( 'NONE',  ( 0.000000000000000000, 0.000000000000000000, 1.000000000000000000 ) ) ;
#13 = PERSON_AND_ORGANIZATION_ROLE ( 'classification_officer' ) ;
#14 = EDGE_LOOP ( 'NONE', ( #185, #2 ) ) ;
#15 = ORIENTED_EDGE ( 'NONE', *, *, #303, .F. ) ;
#16 = DATE_AND_TIME ( #74, #260 ) ;
#17 = AXIS2_PLACEMENT_3D ( 'NONE', #142, #228, #349 ) ;
#18 = APPLICATION_CONTEXT ( 'configuration controlled 3d designs of mechanical parts and assemblies' ) ;
#19 = ORIENTED_EDGE ( 'NONE', *, *, #333, .T. ) ;
#20 = APPROVAL_DATE_TIME ( #300, #39 ) ;
#21 = EDGE_CURVE ( 'NONE', #204, #220, #118, .T. ) ;
#22 = LINE ( 'NONE', #254, #131 ) ;
#23 = FACE_OUTER_BOUND ( 'NONE', #244, .T. ) ;
#24 = ORGANIZATION ( 'NEURÈENÝ', 'NEURÈENÝ', '' ) ;
#25 = PRODUCT_DEFINITION_FORMATION_WITH_SPECIFIED_SOURCE ( 'LIBOVOLNÝ', '', #318, .NOT_KNOWN. ) ;
#26 = CARTESIAN_POINT ( 'NONE',  ( -1.000000000000000000, 0.000000000000000000, 0.000000000000000000 ) ) ;
#27 = DIRECTION ( 'NONE',  ( 0.000000000000000000, 0.000000000000000000, 1.000000000000000000 ) ) ;
#28 = CARTESIAN_POINT ( 'NONE',  ( 0.000000000000000000, 0.000000000000000000, 353.0000000000000000 ) ) ;
#29 = CARTESIAN_POINT ( 'NONE',  ( 0.000000000000000000, 0.000000000000000000, 353.0000000000000000 ) ) ;
#30 = CC_DESIGN_PERSON_AND_ORGANIZATION_ASSIGNMENT ( #191, #309, ( #229 ) ) ;
#31 = FACE_OUTER_BOUND ( 'NONE', #210, .T. ) ;
#32 = DIRECTION ( 'NONE',  ( -0.000000000000000000, -0.000000000000000000, -1.000000000000000000 ) ) ;
#33 = ORIENTED_EDGE ( 'NONE', *, *, #174, .T. ) ;
#34 = EDGE_CURVE ( 'NONE', #213, #96, #280, .T. ) ;
#35 = CARTESIAN_POINT ( 'NONE',  ( 0.000000000000000000, 0.000000000000000000, 3.000000000000000000 ) ) ;
#36 = CARTESIAN_POINT ( 'NONE',  ( -1.000000000000000000, 0.000000000000000000, 353.0000000000000000 ) ) ;
#37 = ORIENTED_EDGE ( 'NONE', *, *, #85, .F. ) ;
#38 = CARTESIAN_POINT ( 'NONE',  ( -4.000000000000000000, 0.000000000000000000, 3.000000000000000000 ) ) ;
#39 = APPROVAL ( #183, 'NEURÈENÝ' ) ;
#40 = EDGE_LOOP ( 'NONE', ( #223, #33, #66, #365 ) ) ;
#41 = PERSON_AND_ORGANIZATION ( #259, #24 ) ;
#42 = FACE_OUTER_BOUND ( 'NONE', #40, .T. ) ;
#43 = COORDINATED_UNIVERSAL_TIME_OFFSET ( 1, 0, .AHEAD. ) ;
#44 = AXIS2_PLACEMENT_3D ( 'NONE', #104, #311, #337 ) ;
#45 = ORIENTED_EDGE ( 'NONE', *, *, #290, .F. ) ;
#46 = AXIS2_PLACEMENT_3D ( 'NONE', #256, #376, #291 ) ;
#47 = DIRECTION ( 'NONE',  ( 1.000000000000000000, 0.000000000000000000, -0.000000000000000000 ) ) ;
#48 = EDGE_CURVE ( 'NONE', #190, #235, #138, .T. ) ;
#49 = LINE ( 'NONE', #375, #340 ) ;
#50 = DIRECTION ( 'NONE',  ( 0.000000000000000000, 0.000000000000000000, -1.000000000000000000 ) ) ;
#51 = EDGE_CURVE ( 'NONE', #371, #343, #197, .T. ) ;
#52 = DIRECTION ( 'NONE',  ( 1.000000000000000000, 0.000000000000000000, 0.000000000000000000 ) ) ;
#53 = PLANE ( 'NONE',  #198 ) ;
#54 = EDGE_CURVE ( 'NONE', #284, #190, #124, .T. ) ;
#55 = DIRECTION ( 'NONE',  ( -0.000000000000000000, -0.000000000000000000, -1.000000000000000000 ) ) ;
#56 = CIRCLE ( 'NONE', #324, 1.000000000000000000 ) ;
#57 = ORIENTED_EDGE ( 'NONE', *, *, #34, .T. ) ;
#58 =( NAMED_UNIT ( * ) SI_UNIT ( $, .STERADIAN. ) SOLID_ANGLE_UNIT ( ) );
#59 = ORIENTED_EDGE ( 'NONE', *, *, #109, .F. ) ;
#60 = CARTESIAN_POINT ( 'NONE',  ( 0.000000000000000000, 0.000000000000000000, 0.000000000000000000 ) ) ;
#61 = CALENDAR_DATE ( 2022, 8, 7 ) ;
#62 = AXIS2_PLACEMENT_3D ( 'NONE', #144, #329, #184 ) ;
#63 = AXIS2_PLACEMENT_3D ( 'NONE', #92, #203, #263 ) ;
#64 = EDGE_LOOP ( 'NONE', ( #105, #102 ) ) ;
#65 = APPLICATION_PROTOCOL_DEFINITION ( 'international standard', 'config_control_design', 1994, #209 ) ;
#66 = ORIENTED_EDGE ( 'NONE', *, *, #348, .T. ) ;
#67 = PERSON_AND_ORGANIZATION ( #259, #24 ) ;
#68 = ADVANCED_FACE ( 'NONE', ( #222, #288 ), #217, .T. ) ;
#69 = DIRECTION ( 'NONE',  ( 0.000000000000000000, 0.000000000000000000, 1.000000000000000000 ) ) ;
#70 = ORIENTED_EDGE ( 'NONE', *, *, #141, .T. ) ;
#71 = CALENDAR_DATE ( 2022, 8, 7 ) ;
#72 = CARTESIAN_POINT ( 'NONE',  ( 4.000000000000000000, 4.898587196589412829E-16, 3.000000000000000000 ) ) ;
#73 = ORIENTED_EDGE ( 'NONE', *, *, #182, .F. ) ;
#74 = CALENDAR_DATE ( 2022, 8, 7 ) ;
#75 = DIRECTION ( 'NONE',  ( -0.000000000000000000, -0.000000000000000000, -1.000000000000000000 ) ) ;
#76 = CARTESIAN_POINT ( 'NONE',  ( 0.000000000000000000, 0.000000000000000000, 353.0000000000000000 ) ) ;
#77 = SHAPE_DEFINITION_REPRESENTATION ( #257, #313 ) ;
#78 = EDGE_CURVE ( 'NONE', #343, #190, #306, .T. ) ;
#79 = DIRECTION ( 'NONE',  ( 1.000000000000000000, 0.000000000000000000, 0.000000000000000000 ) ) ;
#80 = FACE_OUTER_BOUND ( 'NONE', #14, .T. ) ;
#81 = CARTESIAN_POINT ( 'NONE',  ( 0.000000000000000000, 0.000000000000000000, 3.000000000000000000 ) ) ;
#82 = CIRCLE ( 'NONE', #135, 1.000000000000000000 ) ;
#83 = DIRECTION ( 'NONE',  ( 0.000000000000000000, 0.000000000000000000, 1.000000000000000000 ) ) ;
#84 = DIRECTION ( 'NONE',  ( 1.000000000000000000, 0.000000000000000000, 0.000000000000000000 ) ) ;
#85 = EDGE_CURVE ( 'NONE', #190, #284, #178, .T. ) ;
#86 = CARTESIAN_POINT ( 'NONE',  ( 0.000000000000000000, 0.000000000000000000, 0.000000000000000000 ) ) ;
#87 = CYLINDRICAL_SURFACE ( 'NONE', #103, 2.000000000000000000 ) ;
#88 = ORIENTED_EDGE ( 'NONE', *, *, #3, .F. ) ;
#89 = DESIGN_CONTEXT ( 'detailed design', #18, 'design' ) ;
#90 = DIRECTION ( 'NONE',  ( 1.000000000000000000, 0.000000000000000000, 0.000000000000000000 ) ) ;
#91 = ORIENTED_EDGE ( 'NONE', *, *, #378, .F. ) ;
#92 = CARTESIAN_POINT ( 'NONE',  ( 0.000000000000000000, 0.000000000000000000, 0.000000000000000000 ) ) ;
#93 = AXIS2_PLACEMENT_3D ( 'NONE', #161, #162, #287 ) ;
#94 = CIRCLE ( 'NONE', #347, 1.000000000000000000 ) ;
#95 = ORIENTED_EDGE ( 'NONE', *, *, #262, .F. ) ;
#96 = VERTEX_POINT ( 'NONE', #72 ) ;
#97 = CC_DESIGN_PERSON_AND_ORGANIZATION_ASSIGNMENT ( #11, #336, ( #25 ) ) ;
#98 = PERSON_AND_ORGANIZATION ( #259, #24 ) ;
#99 = EDGE_LOOP ( 'NONE', ( #341, #187, #59, #134 ) ) ;
#100 = DIRECTION ( 'NONE',  ( 1.000000000000000000, 0.000000000000000000, 0.000000000000000000 ) ) ;
#101 = VECTOR ( 'NONE', #342, 1000.000000000000000 ) ;
#102 = ORIENTED_EDGE ( 'NONE', *, *, #290, .T. ) ;
#103 = AXIS2_PLACEMENT_3D ( 'NONE', #298, #32, #1 ) ;
#104 = CARTESIAN_POINT ( 'NONE',  ( 0.000000000000000000, 0.000000000000000000, 353.0000000000000000 ) ) ;
#105 = ORIENTED_EDGE ( 'NONE', *, *, #51, .T. ) ;
#106 = EDGE_CURVE ( 'NONE', #213, #204, #251, .T. ) ;
#107 = DIRECTION ( 'NONE',  ( -0.000000000000000000, -0.000000000000000000, -1.000000000000000000 ) ) ;
#108 = CARTESIAN_POINT ( 'NONE',  ( 2.000000000000000000, 2.449293598294706414E-16, 3.300000000000025135 ) ) ;
#109 = EDGE_CURVE ( 'NONE', #235, #369, #379, .T. ) ;
#110 = FACE_BOUND ( 'NONE', #277, .T. ) ;
#111 = DIRECTION ( 'NONE',  ( 1.000000000000000000, 0.000000000000000000, -0.000000000000000000 ) ) ;
#112 = DIRECTION ( 'NONE',  ( 1.224646799147353207E-16, 1.000000000000000000, -0.000000000000000000 ) ) ;
#113 = AXIS2_PLACEMENT_3D ( 'NONE', #270, #4, #8 ) ;
#114 = DIRECTION ( 'NONE',  ( 0.000000000000000000, 0.000000000000000000, 1.000000000000000000 ) ) ;
#115 = CC_DESIGN_PERSON_AND_ORGANIZATION_ASSIGNMENT ( #361, #212, ( #318 ) ) ;
#116 = CARTESIAN_POINT ( 'NONE',  ( 0.000000000000000000, 0.000000000000000000, 3.000000000000000000 ) ) ;
#117 = ORIENTED_EDGE ( 'NONE', *, *, #182, .T. ) ;
#118 = CIRCLE ( 'NONE', #62, 4.000000000000000000 ) ;
#119 = CIRCLE ( 'NONE', #312, 4.000000000000000000 ) ;
#120 = CC_DESIGN_SECURITY_CLASSIFICATION ( #358, ( #25 ) ) ;
#121 = EDGE_CURVE ( 'NONE', #215, #153, #22, .T. ) ;
#122 = DIRECTION ( 'NONE',  ( 0.000000000000000000, 0.000000000000000000, -1.000000000000000000 ) ) ;
#123 = FACE_OUTER_BOUND ( 'NONE', #129, .T. ) ;
#124 = CIRCLE ( 'NONE', #216, 2.000000000000000000 ) ;
#125 = AXIS2_PLACEMENT_3D ( 'NONE', #201, #55, #322 ) ;
#126 = DATE_AND_TIME ( #71, #193 ) ;
#127 = DIRECTION ( 'NONE',  ( -0.000000000000000000, -0.000000000000000000, -1.000000000000000000 ) ) ;
#128 = COORDINATED_UNIVERSAL_TIME_OFFSET ( 1, 0, .AHEAD. ) ;
#129 = EDGE_LOOP ( 'NONE', ( #370, #335, #117, #360 ) ) ;
#130 = EDGE_LOOP ( 'NONE', ( #192, #310, #205, #91 ) ) ;
#131 = VECTOR ( 'NONE', #50, 1000.000000000000000 ) ;
#132 = SECURITY_CLASSIFICATION_LEVEL ( 'unclassified' ) ;
#133 = ADVANCED_FACE ( 'NONE', ( #171 ), #219, .F. ) ;
#134 = ORIENTED_EDGE ( 'NONE', *, *, #48, .F. ) ;
#135 = AXIS2_PLACEMENT_3D ( 'NONE', #76, #12, #308 ) ;
#136 = CARTESIAN_POINT ( 'NONE',  ( -2.299999999999999822, 2.816687638038912056E-16, 3.300000000000025135 ) ) ;
#137 = DIRECTION ( 'NONE',  ( -0.000000000000000000, -0.000000000000000000, -1.000000000000000000 ) ) ;
#138 = CIRCLE ( 'NONE', #245, 0.2999999999999999334 ) ;
#139 = CARTESIAN_POINT ( 'NONE',  ( -4.000000000000000000, 0.000000000000000000, 0.000000000000000000 ) ) ;
#140 = VECTOR ( 'NONE', #148, 1000.000000000000000 ) ;
#141 = EDGE_CURVE ( 'NONE', #215, #147, #94, .T. ) ;
#142 = CARTESIAN_POINT ( 'NONE',  ( 0.000000000000000000, 0.000000000000000000, 353.0000000000000000 ) ) ;
#143 = CARTESIAN_POINT ( 'NONE',  ( -2.299999999999999822, 2.816687638038912056E-16, 3.000000000000012434 ) ) ;
#144 = CARTESIAN_POINT ( 'NONE',  ( 0.000000000000000000, 0.000000000000000000, 0.000000000000000000 ) ) ;
#145 = ORIENTED_EDGE ( 'NONE', *, *, #378, .T. ) ;
#146 = PERSON_AND_ORGANIZATION ( #259, #24 ) ;
#147 = VERTEX_POINT ( 'NONE', #319 ) ;
#148 = DIRECTION ( 'NONE',  ( 0.000000000000000000, 0.000000000000000000, -1.000000000000000000 ) ) ;
#149 = DIRECTION ( 'NONE',  ( 0.000000000000000000, 0.000000000000000000, 1.000000000000000000 ) ) ;
#150 = CALENDAR_DATE ( 2022, 8, 7 ) ;
#151 = AXIS2_PLACEMENT_3D ( 'NONE', #28, #114, #90 ) ;
#152 = CARTESIAN_POINT ( 'NONE',  ( 0.000000000000000000, 0.000000000000000000, 3.000000000000000000 ) ) ;
#153 = VERTEX_POINT ( 'NONE', #315 ) ;
#154 = APPROVAL_STATUS ( 'not_yet_approved' ) ;
#155 = ORIENTED_EDGE ( 'NONE', *, *, #106, .T. ) ;
#156 = DATE_TIME_ROLE ( 'creation_date' ) ;
#157 = AXIS2_PLACEMENT_3D ( 'NONE', #35, #149, #266 ) ;
#158 = CYLINDRICAL_SURFACE ( 'NONE', #294, 4.000000000000000000 ) ;
#159 = AXIS2_PLACEMENT_3D ( 'NONE', #181, #122, #236 ) ;
#160 = APPROVAL_PERSON_ORGANIZATION ( #41, #286, #221 ) ;
#161 = CARTESIAN_POINT ( 'NONE',  ( 0.000000000000000000, 0.000000000000000000, 3.300000000000025135 ) ) ;
#162 = DIRECTION ( 'NONE',  ( 0.000000000000000000, 0.000000000000000000, 1.000000000000000000 ) ) ;
#163 = ADVANCED_FACE ( 'NONE', ( #292 ), #246, .F. ) ;
#164 = MANIFOLD_SOLID_BREP ( 'Odebrat vysunutím3', #305 ) ;
#165 = CARTESIAN_POINT ( 'NONE',  ( 0.000000000000000000, 0.000000000000000000, 3.300000000000025135 ) ) ;
#166 = VECTOR ( 'NONE', #200, 1000.000000000000000 ) ;
#167 = CARTESIAN_POINT ( 'NONE',  ( 0.000000000000000000, 0.000000000000000000, 353.0000000000000000 ) ) ;
#168 = CARTESIAN_POINT ( 'NONE',  ( 4.000000000000000000, 4.898587196589412829E-16, 0.000000000000000000 ) ) ;
#169 = ADVANCED_FACE ( 'NONE', ( #258, #80 ), #377, .F. ) ;
#170 = DIRECTION ( 'NONE',  ( -1.000000000000000000, 1.224646799147353207E-16, 0.000000000000000000 ) ) ;
#171 = FACE_OUTER_BOUND ( 'NONE', #99, .T. ) ;
#172 = ORIENTED_EDGE ( 'NONE', *, *, #121, .F. ) ;
#173 = APPROVAL_ROLE ( '' ) ;
#174 = EDGE_CURVE ( 'NONE', #96, #220, #49, .T. ) ;
#175 = ORIENTED_EDGE ( 'NONE', *, *, #255, .T. ) ;
#176 = DIRECTION ( 'NONE',  ( 1.000000000000000000, 0.000000000000000000, 0.000000000000000000 ) ) ;
#177 = VERTEX_POINT ( 'NONE', #26 ) ;
#178 = CIRCLE ( 'NONE', #93, 2.000000000000000000 ) ;
#179 = CARTESIAN_POINT ( 'NONE',  ( 2.000000000000000000, 2.449293598294706414E-16, 353.0000000000000000 ) ) ;
#180 = AXIS2_PLACEMENT_3D ( 'NONE', #165, #27, #84 ) ;
#181 = CARTESIAN_POINT ( 'NONE',  ( 0.000000000000000000, 0.000000000000000000, 353.0000000000000000 ) ) ;
#182 = EDGE_CURVE ( 'NONE', #371, #284, #195, .T. ) ;
#183 = APPROVAL_STATUS ( 'not_yet_approved' ) ;
#184 = DIRECTION ( 'NONE',  ( 1.000000000000000000, 0.000000000000000000, 0.000000000000000000 ) ) ;
#185 = ORIENTED_EDGE ( 'NONE', *, *, #21, .F. ) ;
#186 = CARTESIAN_POINT ( 'NONE',  ( 0.000000000000000000, 0.000000000000000000, 3.000000000000000000 ) ) ;
#187 = ORIENTED_EDGE ( 'NONE', *, *, #262, .T. ) ;
#188 = LOCAL_TIME ( 17, 53, 54.00000000000000000, #248 ) ;
#189 = EDGE_CURVE ( 'NONE', #369, #235, #218, .T. ) ;
#190 = VERTEX_POINT ( 'NONE', #108 ) ;
#191 = PERSON_AND_ORGANIZATION ( #259, #24 ) ;
#192 = ORIENTED_EDGE ( 'NONE', *, *, #3, .T. ) ;
#193 = LOCAL_TIME ( 17, 53, 54.00000000000000000, #243 ) ;
#194 = CALENDAR_DATE ( 2022, 8, 7 ) ;
#195 = LINE ( 'NONE', #373, #166 ) ;
#196 = DIRECTION ( 'NONE',  ( 1.000000000000000000, 0.000000000000000000, -0.000000000000000000 ) ) ;
#197 = CIRCLE ( 'NONE', #44, 2.000000000000000000 ) ;
#198 = AXIS2_PLACEMENT_3D ( 'NONE', #167, #83, #196 ) ;
#199 = DIRECTION ( 'NONE',  ( 1.000000000000000000, 0.000000000000000000, 0.000000000000000000 ) ) ;
#200 = DIRECTION ( 'NONE',  ( -0.000000000000000000, -0.000000000000000000, -1.000000000000000000 ) ) ;
#201 = CARTESIAN_POINT ( 'NONE',  ( 0.000000000000000000, 0.000000000000000000, 353.0000000000000000 ) ) ;
#202 = PRODUCT_RELATED_PRODUCT_CATEGORY ( 'detail', '', ( #318 ) ) ;
#203 = DIRECTION ( 'NONE',  ( -0.000000000000000000, -0.000000000000000000, -1.000000000000000000 ) ) ;
#204 = VERTEX_POINT ( 'NONE', #139 ) ;
#205 = ORIENTED_EDGE ( 'NONE', *, *, #303, .T. ) ;
#206 = CARTESIAN_POINT ( 'NONE',  ( 0.000000000000000000, 0.000000000000000000, 0.000000000000000000 ) ) ;
#207 = CYLINDRICAL_SURFACE ( 'NONE', #159, 1.000000000000000000 ) ;
#208 = CIRCLE ( 'NONE', #5, 0.2999999999999999334 ) ;
#209 = APPLICATION_CONTEXT ( 'configuration controlled 3d designs of mechanical parts and assemblies' ) ;
#210 = EDGE_LOOP ( 'NONE', ( #172, #70, #145, #175 ) ) ;
#211 = ADVANCED_FACE ( 'NONE', ( #23 ), #381, .T. ) ;
#212 = PERSON_AND_ORGANIZATION_ROLE ( 'design_owner' ) ;
#213 = VERTEX_POINT ( 'NONE', #232 ) ;
#214 = PERSON_AND_ORGANIZATION_ROLE ( 'creator' ) ;
#215 = VERTEX_POINT ( 'NONE', #289 ) ;
#216 = AXIS2_PLACEMENT_3D ( 'NONE', #346, #69, #100 ) ;
#217 = PLANE ( 'NONE',  #351 ) ;
#218 = CIRCLE ( 'NONE', #225, 2.299999999999999822 ) ;
#219 = TOROIDAL_SURFACE ( 'NONE', #46, 2.299999999999999822, 0.2999999999999999889 ) ;
#220 = VERTEX_POINT ( 'NONE', #168 ) ;
#221 = APPROVAL_ROLE ( '' ) ;
#222 = FACE_BOUND ( 'NONE', #301, .T. ) ;
#223 = ORIENTED_EDGE ( 'NONE', *, *, #333, .F. ) ;
#224 = APPROVAL_DATE_TIME ( #16, #366 ) ;
#225 = AXIS2_PLACEMENT_3D ( 'NONE', #81, #137, #52 ) ;
#226 = FACE_OUTER_BOUND ( 'NONE', #130, .T. ) ;
#227 = FACE_OUTER_BOUND ( 'NONE', #64, .T. ) ;
#228 = DIRECTION ( 'NONE',  ( 0.000000000000000000, 0.000000000000000000, -1.000000000000000000 ) ) ;
#229 = PRODUCT_DEFINITION ( 'NEZNÁMÝ', '', #25, #89 ) ;
#230 = AXIS2_PLACEMENT_3D ( 'NONE', #86, #231, #111 ) ;
#231 = DIRECTION ( 'NONE',  ( 0.000000000000000000, 0.000000000000000000, 1.000000000000000000 ) ) ;
#232 = CARTESIAN_POINT ( 'NONE',  ( -4.000000000000000000, 0.000000000000000000, 3.000000000000000000 ) ) ;
#233 =( LENGTH_UNIT ( ) NAMED_UNIT ( * ) SI_UNIT ( .MILLI., .METRE. ) );
#234 = APPROVAL_PERSON_ORGANIZATION ( #146, #39, #173 ) ;
#235 = VERTEX_POINT ( 'NONE', #320 ) ;
#236 = DIRECTION ( 'NONE',  ( -1.000000000000000000, 0.000000000000000000, 0.000000000000000000 ) ) ;
#237 = DIRECTION ( 'NONE',  ( 0.000000000000000000, -1.000000000000000000, 0.000000000000000000 ) ) ;
#238 = ORIENTED_EDGE ( 'NONE', *, *, #189, .T. ) ;
#239 = CYLINDRICAL_SURFACE ( 'NONE', #374, 4.000000000000000000 ) ;
#240 = AXIS2_PLACEMENT_3D ( 'NONE', #60, #272, #176 ) ;
#241 = ORIENTED_EDGE ( 'NONE', *, *, #48, .T. ) ;
#242 = ADVANCED_FACE ( 'NONE', ( #226 ), #355, .F. ) ;
#243 = COORDINATED_UNIVERSAL_TIME_OFFSET ( 1, 0, .AHEAD. ) ;
#244 = EDGE_LOOP ( 'NONE', ( #45, #326, #338, #73 ) ) ;
#245 = AXIS2_PLACEMENT_3D ( 'NONE', #6, #237, #274 ) ;
#246 = TOROIDAL_SURFACE ( 'NONE', #180, 2.299999999999999822, 0.2999999999999999889 ) ;
#247 = ORIENTED_EDGE ( 'NONE', *, *, #189, .F. ) ;
#248 = COORDINATED_UNIVERSAL_TIME_OFFSET ( 1, 0, .AHEAD. ) ;
#249 = EDGE_LOOP ( 'NONE', ( #367, #15 ) ) ;
#250 = APPROVAL_DATE_TIME ( #126, #286 ) ;
#251 = LINE ( 'NONE', #38, #344 ) ;
#252 = ADVANCED_FACE ( 'NONE', ( #110, #227 ), #53, .T. ) ;
#253 =( GEOMETRIC_REPRESENTATION_CONTEXT ( 3 ) GLOBAL_UNCERTAINTY_ASSIGNED_CONTEXT ( ( #264 ) ) GLOBAL_UNIT_ASSIGNED_CONTEXT ( ( #233, #331, #58 ) ) REPRESENTATION_CONTEXT ( 'NONE', 'WORKASPACE' ) );
#254 = CARTESIAN_POINT ( 'NONE',  ( 1.000000000000000000, 1.224646799147353207E-16, 353.0000000000000000 ) ) ;
#255 = EDGE_CURVE ( 'NONE', #177, #153, #56, .T. ) ;
#256 = CARTESIAN_POINT ( 'NONE',  ( 0.000000000000000000, 0.000000000000000000, 3.300000000000025135 ) ) ;
#257 = PRODUCT_DEFINITION_SHAPE ( 'NONE', 'NONE',  #229 ) ;
#258 = FACE_BOUND ( 'NONE', #249, .T. ) ;
#259 = PERSON ( 'NEURÈENÝ', 'NEURÈENÝ', 'NEURÈENÝ', ('NEURÈENÝ'), ('NEURÈENÝ'), ('NEURÈENÝ') ) ;
#260 = LOCAL_TIME ( 17, 53, 54.00000000000000000, #128 ) ;
#261 = DIRECTION ( 'NONE',  ( 0.000000000000000000, 0.000000000000000000, 1.000000000000000000 ) ) ;
#262 = EDGE_CURVE ( 'NONE', #284, #369, #208, .T. ) ;
#263 = DIRECTION ( 'NONE',  ( 1.000000000000000000, 0.000000000000000000, 0.000000000000000000 ) ) ;
#264 = UNCERTAINTY_MEASURE_WITH_UNIT (LENGTH_MEASURE( 1.000000000000000082E-05 ), #233, 'distance_accuracy_value', 'NONE');
#265 = DIRECTION ( 'NONE',  ( -0.000000000000000000, -0.000000000000000000, -1.000000000000000000 ) ) ;
#266 = DIRECTION ( 'NONE',  ( 1.000000000000000000, 0.000000000000000000, 0.000000000000000000 ) ) ;
#267 = EDGE_LOOP ( 'NONE', ( #95, #37, #241, #247 ) ) ;
#268 = CIRCLE ( 'NONE', #151, 2.000000000000000000 ) ;
#269 = APPROVAL_PERSON_ORGANIZATION ( #98, #366, #273 ) ;
#270 = CARTESIAN_POINT ( 'NONE',  ( 0.000000000000000000, 0.000000000000000000, 3.000000000000000000 ) ) ;
#271 = ORIENTED_EDGE ( 'NONE', *, *, #141, .F. ) ;
#272 = DIRECTION ( 'NONE',  ( 0.000000000000000000, 0.000000000000000000, 1.000000000000000000 ) ) ;
#273 = APPROVAL_ROLE ( '' ) ;
#274 = DIRECTION ( 'NONE',  ( 0.000000000000000000, 0.000000000000000000, -1.000000000000000000 ) ) ;
#275 = CC_DESIGN_APPROVAL ( #39, ( #229 ) ) ;
#276 = CC_DESIGN_DATE_AND_TIME_ASSIGNMENT ( #285, #368, ( #358 ) ) ;
#277 = EDGE_LOOP ( 'NONE', ( #88, #271 ) ) ;
#278 = ORIENTED_EDGE ( 'NONE', *, *, #21, .T. ) ;
#279 = DIRECTION ( 'NONE',  ( -1.000000000000000000, 0.000000000000000000, 0.000000000000000000 ) ) ;
#280 = CIRCLE ( 'NONE', #157, 4.000000000000000000 ) ;
#281 = APPROVAL_STATUS ( 'not_yet_approved' ) ;
#282 = DIRECTION ( 'NONE',  ( 0.000000000000000000, 0.000000000000000000, 1.000000000000000000 ) ) ;
#283 = CIRCLE ( 'NONE', #113, 4.000000000000000000 ) ;
#284 = VERTEX_POINT ( 'NONE', #293 ) ;
#285 = DATE_AND_TIME ( #150, #188 ) ;
#286 = APPROVAL ( #154, 'NEURÈENÝ' ) ;
#287 = DIRECTION ( 'NONE',  ( 1.000000000000000000, 0.000000000000000000, 0.000000000000000000 ) ) ;
#288 = FACE_OUTER_BOUND ( 'NONE', #307, .T. ) ;
#289 = CARTESIAN_POINT ( 'NONE',  ( 1.000000000000000000, 1.224646799147353207E-16, 353.0000000000000000 ) ) ;
#290 = EDGE_CURVE ( 'NONE', #343, #371, #268, .T. ) ;
#291 = DIRECTION ( 'NONE',  ( 1.000000000000000000, 0.000000000000000000, 0.000000000000000000 ) ) ;
#292 = FACE_OUTER_BOUND ( 'NONE', #267, .T. ) ;
#293 = CARTESIAN_POINT ( 'NONE',  ( -2.000000000000000000, 0.000000000000000000, 3.300000000000025135 ) ) ;
#294 = AXIS2_PLACEMENT_3D ( 'NONE', #152, #127, #279 ) ;
#295 = LOCAL_TIME ( 17, 53, 54.00000000000000000, #297 ) ;
#296 = DIRECTION ( 'NONE',  ( 1.000000000000000000, 0.000000000000000000, 0.000000000000000000 ) ) ;
#297 = COORDINATED_UNIVERSAL_TIME_OFFSET ( 1, 0, .AHEAD. ) ;
#298 = CARTESIAN_POINT ( 'NONE',  ( 0.000000000000000000, 0.000000000000000000, 353.0000000000000000 ) ) ;
#299 = ADVANCED_FACE ( 'NONE', ( #123 ), #87, .T. ) ;
#300 = DATE_AND_TIME ( #61, #295 ) ;
#301 = EDGE_LOOP ( 'NONE', ( #330, #238 ) ) ;
#302 = DIRECTION ( 'NONE',  ( 0.000000000000000000, 0.000000000000000000, 1.000000000000000000 ) ) ;
#303 = EDGE_CURVE ( 'NONE', #153, #177, #357, .T. ) ;
#304 = EDGE_LOOP ( 'NONE', ( #7, #323, #155, #278 ) ) ;
#305 = CLOSED_SHELL ( 'NONE', ( #242, #133, #211, #10, #328, #68, #169, #299, #252, #163, #316 ) ) ;
#306 = LINE ( 'NONE', #339, #101 ) ;
#307 = EDGE_LOOP ( 'NONE', ( #57, #19 ) ) ;
#308 = DIRECTION ( 'NONE',  ( 1.000000000000000000, 0.000000000000000000, 0.000000000000000000 ) ) ;
#309 = PERSON_AND_ORGANIZATION_ROLE ( 'creator' ) ;
#310 = ORIENTED_EDGE ( 'NONE', *, *, #121, .T. ) ;
#311 = DIRECTION ( 'NONE',  ( 0.000000000000000000, 0.000000000000000000, 1.000000000000000000 ) ) ;
#312 = AXIS2_PLACEMENT_3D ( 'NONE', #206, #302, #362 ) ;
#313 = ADVANCED_BREP_SHAPE_REPRESENTATION ( '2740', ( #164, #240 ), #253 ) ;
#314 = DATE_AND_TIME ( #194, #332 ) ;
#315 = CARTESIAN_POINT ( 'NONE',  ( 1.000000000000000000, 1.224646799147353207E-16, 0.000000000000000000 ) ) ;
#316 = ADVANCED_FACE ( 'NONE', ( #31 ), #207, .F. ) ;
#317 = CARTESIAN_POINT ( 'NONE',  ( 0.000000000000000000, 0.000000000000000000, 0.000000000000000000 ) ) ;
#318 = PRODUCT ( '2740', '2740', '', ( #9 ) ) ;
#319 = CARTESIAN_POINT ( 'NONE',  ( -1.000000000000000000, 0.000000000000000000, 353.0000000000000000 ) ) ;
#320 = CARTESIAN_POINT ( 'NONE',  ( 2.299999999999999822, 0.000000000000000000, 3.000000000000012434 ) ) ;
#321 = CC_DESIGN_PERSON_AND_ORGANIZATION_ASSIGNMENT ( #67, #13, ( #358 ) ) ;
#322 = DIRECTION ( 'NONE',  ( -1.000000000000000000, 0.000000000000000000, 0.000000000000000000 ) ) ;
#323 = ORIENTED_EDGE ( 'NONE', *, *, #34, .F. ) ;
#324 = AXIS2_PLACEMENT_3D ( 'NONE', #317, #352, #199 ) ;
#325 = LINE ( 'NONE', #36, #140 ) ;
#326 = ORIENTED_EDGE ( 'NONE', *, *, #78, .T. ) ;
#327 = DIRECTION ( 'NONE',  ( -1.000000000000000000, 0.000000000000000000, 0.000000000000000000 ) ) ;
#328 = ADVANCED_FACE ( 'NONE', ( #363 ), #239, .T. ) ;
#329 = DIRECTION ( 'NONE',  ( 0.000000000000000000, 0.000000000000000000, 1.000000000000000000 ) ) ;
#330 = ORIENTED_EDGE ( 'NONE', *, *, #109, .T. ) ;
#331 =( NAMED_UNIT ( * ) PLANE_ANGLE_UNIT ( ) SI_UNIT ( $, .RADIAN. ) );
#332 = LOCAL_TIME ( 17, 53, 54.00000000000000000, #43 ) ;
#333 = EDGE_CURVE ( 'NONE', #96, #213, #283, .T. ) ;
#334 = APPLICATION_PROTOCOL_DEFINITION ( 'international standard', 'config_control_design', 1994, #18 ) ;
#335 = ORIENTED_EDGE ( 'NONE', *, *, #51, .F. ) ;
#336 = PERSON_AND_ORGANIZATION_ROLE ( 'design_supplier' ) ;
#337 = DIRECTION ( 'NONE',  ( 1.000000000000000000, 0.000000000000000000, 0.000000000000000000 ) ) ;
#338 = ORIENTED_EDGE ( 'NONE', *, *, #85, .T. ) ;
#339 = CARTESIAN_POINT ( 'NONE',  ( 2.000000000000000000, 2.449293598294706414E-16, 353.0000000000000000 ) ) ;
#340 = VECTOR ( 'NONE', #350, 1000.000000000000000 ) ;
#341 = ORIENTED_EDGE ( 'NONE', *, *, #54, .F. ) ;
#342 = DIRECTION ( 'NONE',  ( -0.000000000000000000, -0.000000000000000000, -1.000000000000000000 ) ) ;
#343 = VERTEX_POINT ( 'NONE', #179 ) ;
#344 = VECTOR ( 'NONE', #75, 1000.000000000000000 ) ;
#345 = PERSON_AND_ORGANIZATION ( #259, #24 ) ;
#346 = CARTESIAN_POINT ( 'NONE',  ( 0.000000000000000000, 0.000000000000000000, 3.300000000000025135 ) ) ;
#347 = AXIS2_PLACEMENT_3D ( 'NONE', #29, #261, #296 ) ;
#348 = EDGE_CURVE ( 'NONE', #220, #204, #119, .T. ) ;
#349 = DIRECTION ( 'NONE',  ( -1.000000000000000000, 0.000000000000000000, 0.000000000000000000 ) ) ;
#350 = DIRECTION ( 'NONE',  ( -0.000000000000000000, -0.000000000000000000, -1.000000000000000000 ) ) ;
#351 = AXIS2_PLACEMENT_3D ( 'NONE', #186, #282, #47 ) ;
#352 = DIRECTION ( 'NONE',  ( -0.000000000000000000, -0.000000000000000000, -1.000000000000000000 ) ) ;
#353 = AXIS2_PLACEMENT_3D ( 'NONE', #372, #107, #79 ) ;
#354 = CC_DESIGN_PERSON_AND_ORGANIZATION_ASSIGNMENT ( #345, #214, ( #25 ) ) ;
#355 = CYLINDRICAL_SURFACE ( 'NONE', #17, 1.000000000000000000 ) ;
#356 = CARTESIAN_POINT ( 'NONE',  ( -2.000000000000000000, 0.000000000000000000, 353.0000000000000000 ) ) ;
#357 = CIRCLE ( 'NONE', #63, 1.000000000000000000 ) ;
#358 = SECURITY_CLASSIFICATION ( '', '', #132 ) ;
#359 = CC_DESIGN_DATE_AND_TIME_ASSIGNMENT ( #314, #156, ( #229 ) ) ;
#360 = ORIENTED_EDGE ( 'NONE', *, *, #54, .T. ) ;
#361 = PERSON_AND_ORGANIZATION ( #259, #24 ) ;
#362 = DIRECTION ( 'NONE',  ( 1.000000000000000000, 0.000000000000000000, 0.000000000000000000 ) ) ;
#363 = FACE_OUTER_BOUND ( 'NONE', #304, .T. ) ;
#364 = CC_DESIGN_APPROVAL ( #366, ( #25 ) ) ;
#365 = ORIENTED_EDGE ( 'NONE', *, *, #106, .F. ) ;
#366 = APPROVAL ( #281, 'NEURÈENÝ' ) ;
#367 = ORIENTED_EDGE ( 'NONE', *, *, #255, .F. ) ;
#368 = DATE_TIME_ROLE ( 'classification_date' ) ;
#369 = VERTEX_POINT ( 'NONE', #143 ) ;
#370 = ORIENTED_EDGE ( 'NONE', *, *, #78, .F. ) ;
#371 = VERTEX_POINT ( 'NONE', #356 ) ;
#372 = CARTESIAN_POINT ( 'NONE',  ( 0.000000000000000000, 0.000000000000000000, 3.000000000000000000 ) ) ;
#373 = CARTESIAN_POINT ( 'NONE',  ( -2.000000000000000000, 0.000000000000000000, 353.0000000000000000 ) ) ;
#374 = AXIS2_PLACEMENT_3D ( 'NONE', #116, #265, #327 ) ;
#375 = CARTESIAN_POINT ( 'NONE',  ( 4.000000000000000000, 4.898587196589412829E-16, 3.000000000000000000 ) ) ;
#376 = DIRECTION ( 'NONE',  ( 0.000000000000000000, 0.000000000000000000, 1.000000000000000000 ) ) ;
#377 = PLANE ( 'NONE',  #230 ) ;
#378 = EDGE_CURVE ( 'NONE', #147, #177, #325, .T. ) ;
#379 = CIRCLE ( 'NONE', #353, 2.299999999999999822 ) ;
#380 = CC_DESIGN_APPROVAL ( #286, ( #358 ) ) ;
#381 = CYLINDRICAL_SURFACE ( 'NONE', #125, 2.000000000000000000 ) ;
ENDSEC;
END-ISO-10303-21;
