ISO-10303-21;
HEADER;
FILE_DESCRIPTION (( 'STEP AP203' ),
    '1' );
FILE_NAME ('ac9b.STEP',
    '2022-07-08T15:08:47',
    ( '' ),
    ( '' ),
    'SwSTEP 2.0',
    'SolidWorks 2019',
    '' );
FILE_SCHEMA (( 'CONFIG_CONTROL_DESIGN' ));
ENDSEC;

DATA;
#1 = LINE ( 'NONE', #116, #62 ) ;
#2 = APPROVAL_STATUS ( 'not_yet_approved' ) ;
#3 = CARTESIAN_POINT ( 'NONE',  ( 0.000000000000000000, 0.000000000000000000, 255.0000000000000000 ) ) ;
#4 = MANIFOLD_SOLID_BREP ( 'Odebrat vysunutím3', #154 ) ;
#5 = ADVANCED_BREP_SHAPE_REPRESENTATION ( 'ac9b', ( #4, #95 ), #250 ) ;
#6 = CARTESIAN_POINT ( 'NONE',  ( 0.000000000000000000, 0.000000000000000000, 255.0000000000000000 ) ) ;
#7 = CARTESIAN_POINT ( 'NONE',  ( 0.000000000000000000, 0.000000000000000000, 5.000000000000000000 ) ) ;
#8 = AXIS2_PLACEMENT_3D ( 'NONE', #213, #100, #124 ) ;
#9 = DIRECTION ( 'NONE',  ( 1.000000000000000000, 0.000000000000000000, 0.000000000000000000 ) ) ;
#10 = DIRECTION ( 'NONE',  ( 0.000000000000000000, -1.000000000000000000, 0.000000000000000000 ) ) ;
#11 = CYLINDRICAL_SURFACE ( 'NONE', #114, 2.600000000000000089 ) ;
#12 = CIRCLE ( 'NONE', #221, 2.600000000000000089 ) ;
#13 = DIRECTION ( 'NONE',  ( 1.000000000000000000, 0.000000000000000000, 0.000000000000000000 ) ) ;
#14 = CARTESIAN_POINT ( 'NONE',  ( -2.600000000000000089, 0.000000000000000000, 255.0000000000000000 ) ) ;
#15 = EDGE_CURVE ( 'NONE', #130, #72, #134, .T. ) ;
#16 = PLANE ( 'NONE',  #253 ) ;
#17 = ORIENTED_EDGE ( 'NONE', *, *, #333, .F. ) ;
#18 = DATE_AND_TIME ( #108, #224 ) ;
#19 = DIRECTION ( 'NONE',  ( -0.000000000000000000, -0.000000000000000000, -1.000000000000000000 ) ) ;
#20 = ORIENTED_EDGE ( 'NONE', *, *, #228, .F. ) ;
#21 = DATE_AND_TIME ( #103, #151 ) ;
#22 = ADVANCED_FACE ( 'NONE', ( #136 ), #157, .T. ) ;
#23 = CIRCLE ( 'NONE', #318, 0.5000000000000004441 ) ;
#24 = DIRECTION ( 'NONE',  ( 0.000000000000000000, 0.000000000000000000, 1.000000000000000000 ) ) ;
#25 = APPLICATION_CONTEXT ( 'configuration controlled 3d designs of mechanical parts and assemblies' ) ;
#26 = COORDINATED_UNIVERSAL_TIME_OFFSET ( 1, 0, .AHEAD. ) ;
#27 = CARTESIAN_POINT ( 'NONE',  ( 0.000000000000000000, 0.000000000000000000, 5.000000000000000000 ) ) ;
#28 = DIRECTION ( 'NONE',  ( 1.000000000000000000, 0.000000000000000000, 0.000000000000000000 ) ) ;
#29 = TOROIDAL_SURFACE ( 'NONE', #241, 4.500000000000000888, 0.5000000000000000000 ) ;
#30 = AXIS2_PLACEMENT_3D ( 'NONE', #190, #251, #13 ) ;
#31 = EDGE_CURVE ( 'NONE', #323, #76, #358, .T. ) ;
#32 = FACE_BOUND ( 'NONE', #107, .T. ) ;
#33 = EDGE_LOOP ( 'NONE', ( #115, #287, #48, #122 ) ) ;
#34 = ORIENTED_EDGE ( 'NONE', *, *, #197, .T. ) ;
#35 = ORIENTED_EDGE ( 'NONE', *, *, #191, .F. ) ;
#36 = CARTESIAN_POINT ( 'NONE',  ( 4.000000000000000000, 4.898587196589412829E-16, 255.0000000000000000 ) ) ;
#37 = CARTESIAN_POINT ( 'NONE',  ( 2.600000000000000089, 3.184081677783118191E-16, 255.0000000000000000 ) ) ;
#38 = CARTESIAN_POINT ( 'NONE',  ( 0.000000000000000000, 0.000000000000000000, 255.0000000000000000 ) ) ;
#39 = DIRECTION ( 'NONE',  ( 1.000000000000000000, 0.000000000000000000, 0.000000000000000000 ) ) ;
#40 = VERTEX_POINT ( 'NONE', #242 ) ;
#41 = DIRECTION ( 'NONE',  ( 1.000000000000000000, 0.000000000000000000, 0.000000000000000000 ) ) ;
#42 = AXIS2_PLACEMENT_3D ( 'NONE', #119, #205, #89 ) ;
#43 = CC_DESIGN_DATE_AND_TIME_ASSIGNMENT ( #18, #348, ( #99 ) ) ;
#44 = FACE_OUTER_BOUND ( 'NONE', #59, .T. ) ;
#45 = FACE_OUTER_BOUND ( 'NONE', #255, .T. ) ;
#46 = LOCAL_TIME ( 17, 8, 47.00000000000000000, #79 ) ;
#47 = APPROVAL ( #337, 'NEURÈENÝ' ) ;
#48 = ORIENTED_EDGE ( 'NONE', *, *, #328, .T. ) ;
#49 = TOROIDAL_SURFACE ( 'NONE', #272, 4.500000000000000888, 0.5000000000000000000 ) ;
#50 = DIRECTION ( 'NONE',  ( -0.000000000000000000, -0.000000000000000000, -1.000000000000000000 ) ) ;
#51 = ORIENTED_EDGE ( 'NONE', *, *, #228, .T. ) ;
#52 = CARTESIAN_POINT ( 'NONE',  ( 0.000000000000000000, 0.000000000000000000, 5.500000000000005329 ) ) ;
#53 = CC_DESIGN_APPROVAL ( #282, ( #99 ) ) ;
#54 = APPLICATION_PROTOCOL_DEFINITION ( 'international standard', 'config_control_design', 1994, #296 ) ;
#55 = DIRECTION ( 'NONE',  ( -1.000000000000000000, 0.000000000000000000, 0.000000000000000000 ) ) ;
#56 = CIRCLE ( 'NONE', #291, 4.500000000000000888 ) ;
#57 = PERSON_AND_ORGANIZATION ( #207, #378 ) ;
#58 = EDGE_CURVE ( 'NONE', #307, #130, #74, .T. ) ;
#59 = EDGE_LOOP ( 'NONE', ( #376, #162, #297, #17 ) ) ;
#60 = EDGE_CURVE ( 'NONE', #278, #222, #82, .T. ) ;
#61 = EDGE_LOOP ( 'NONE', ( #344, #179 ) ) ;
#62 = VECTOR ( 'NONE', #50, 1000.000000000000000 ) ;
#63 = ORIENTED_EDGE ( 'NONE', *, *, #266, .T. ) ;
#64 = DIRECTION ( 'NONE',  ( 0.000000000000000000, 0.000000000000000000, 1.000000000000000000 ) ) ;
#65 = APPROVAL_DATE_TIME ( #325, #350 ) ;
#66 = CARTESIAN_POINT ( 'NONE',  ( 0.000000000000000000, 0.000000000000000000, 5.000000000000000000 ) ) ;
#67 = AXIS2_PLACEMENT_3D ( 'NONE', #209, #208, #39 ) ;
#68 = LOCAL_TIME ( 17, 8, 47.00000000000000000, #343 ) ;
#69 = CARTESIAN_POINT ( 'NONE',  ( -2.600000000000000089, 0.000000000000000000, 255.0000000000000000 ) ) ;
#70 = CYLINDRICAL_SURFACE ( 'NONE', #180, 2.600000000000000089 ) ;
#71 = ORIENTED_EDGE ( 'NONE', *, *, #245, .T. ) ;
#72 = VERTEX_POINT ( 'NONE', #335 ) ;
#73 = CALENDAR_DATE ( 2022, 8, 7 ) ;
#74 = CIRCLE ( 'NONE', #288, 4.000000000000000000 ) ;
#75 = PLANE ( 'NONE',  #375 ) ;
#76 = VERTEX_POINT ( 'NONE', #97 ) ;
#77 = DATE_AND_TIME ( #280, #68 ) ;
#78 = AXIS2_PLACEMENT_3D ( 'NONE', #144, #320, #351 ) ;
#79 = COORDINATED_UNIVERSAL_TIME_OFFSET ( 1, 0, .AHEAD. ) ;
#80 = DESIGN_CONTEXT ( 'detailed design', #296, 'design' ) ;
#81 = VERTEX_POINT ( 'NONE', #69 ) ;
#82 = CIRCLE ( 'NONE', #8, 2.600000000000000089 ) ;
#83 = CIRCLE ( 'NONE', #67, 7.000000000000000000 ) ;
#84 = ADVANCED_FACE ( 'NONE', ( #44 ), #70, .F. ) ;
#85 = APPROVAL_PERSON_ORGANIZATION ( #298, #350, #329 ) ;
#86 = DIRECTION ( 'NONE',  ( -0.000000000000000000, -0.000000000000000000, -1.000000000000000000 ) ) ;
#87 = PERSON_AND_ORGANIZATION_ROLE ( 'creator' ) ;
#88 = AXIS2_PLACEMENT_3D ( 'NONE', #363, #19, #41 ) ;
#89 = DIRECTION ( 'NONE',  ( 1.000000000000000000, 0.000000000000000000, 0.000000000000000000 ) ) ;
#90 = CYLINDRICAL_SURFACE ( 'NONE', #78, 4.000000000000000000 ) ;
#91 = DIRECTION ( 'NONE',  ( 0.000000000000000000, 0.000000000000000000, 1.000000000000000000 ) ) ;
#92 = DIRECTION ( 'NONE',  ( 0.000000000000000000, 0.000000000000000000, 1.000000000000000000 ) ) ;
#93 = ADVANCED_FACE ( 'NONE', ( #45 ), #49, .F. ) ;
#94 = AXIS2_PLACEMENT_3D ( 'NONE', #66, #226, #150 ) ;
#95 = AXIS2_PLACEMENT_3D ( 'NONE', #110, #223, #189 ) ;
#96 = CARTESIAN_POINT ( 'NONE',  ( 0.000000000000000000, 0.000000000000000000, 0.000000000000000000 ) ) ;
#97 = CARTESIAN_POINT ( 'NONE',  ( 7.000000000000000000, 8.572527594031473190E-16, 0.000000000000000000 ) ) ;
#98 = DIRECTION ( 'NONE',  ( 0.000000000000000000, 0.000000000000000000, -1.000000000000000000 ) ) ;
#99 = PRODUCT_DEFINITION ( 'NEZNÁMÝ', '', #324, #80 ) ;
#100 = DIRECTION ( 'NONE',  ( -0.000000000000000000, -0.000000000000000000, -1.000000000000000000 ) ) ;
#101 = CIRCLE ( 'NONE', #257, 4.000000000000000000 ) ;
#102 = ORIENTED_EDGE ( 'NONE', *, *, #306, .T. ) ;
#103 = CALENDAR_DATE ( 2022, 8, 7 ) ;
#104 = VERTEX_POINT ( 'NONE', #106 ) ;
#105 =( LENGTH_UNIT ( ) NAMED_UNIT ( * ) SI_UNIT ( .MILLI., .METRE. ) );
#106 = CARTESIAN_POINT ( 'NONE',  ( 4.000000000000000000, 4.898587196589412829E-16, 255.0000000000000000 ) ) ;
#107 = EDGE_LOOP ( 'NONE', ( #143, #35 ) ) ;
#108 = CALENDAR_DATE ( 2022, 8, 7 ) ;
#109 = DIRECTION ( 'NONE',  ( 0.000000000000000000, 0.000000000000000000, -1.000000000000000000 ) ) ;
#110 = CARTESIAN_POINT ( 'NONE',  ( 0.000000000000000000, 0.000000000000000000, 0.000000000000000000 ) ) ;
#111 = VECTOR ( 'NONE', #86, 1000.000000000000000 ) ;
#112 = DIRECTION ( 'NONE',  ( -1.000000000000000000, 1.224646799147351482E-16, 0.000000000000000000 ) ) ;
#113 = ADVANCED_FACE ( 'NONE', ( #218, #340 ), #75, .T. ) ;
#114 = AXIS2_PLACEMENT_3D ( 'NONE', #183, #237, #240 ) ;
#115 = ORIENTED_EDGE ( 'NONE', *, *, #123, .F. ) ;
#116 = CARTESIAN_POINT ( 'NONE',  ( -4.000000000000000000, 0.000000000000000000, 255.0000000000000000 ) ) ;
#117 = DIRECTION ( 'NONE',  ( 1.000000000000000000, 0.000000000000000000, -0.000000000000000000 ) ) ;
#118 = EDGE_LOOP ( 'NONE', ( #264, #147, #229, #182 ) ) ;
#119 = CARTESIAN_POINT ( 'NONE',  ( 0.000000000000000000, 0.000000000000000000, 0.000000000000000000 ) ) ;
#120 = CC_DESIGN_SECURITY_CLASSIFICATION ( #345, ( #324 ) ) ;
#121 = FACE_OUTER_BOUND ( 'NONE', #342, .T. ) ;
#122 = ORIENTED_EDGE ( 'NONE', *, *, #58, .T. ) ;
#123 = EDGE_CURVE ( 'NONE', #104, #130, #231, .T. ) ;
#124 = DIRECTION ( 'NONE',  ( 1.000000000000000000, 0.000000000000000000, 0.000000000000000000 ) ) ;
#125 = EDGE_CURVE ( 'NONE', #222, #278, #202, .T. ) ;
#126 = ORIENTED_EDGE ( 'NONE', *, *, #306, .F. ) ;
#127 = CARTESIAN_POINT ( 'NONE',  ( 0.000000000000000000, 0.000000000000000000, 5.500000000000005329 ) ) ;
#128 = PERSON_AND_ORGANIZATION_ROLE ( 'classification_officer' ) ;
#129 = VECTOR ( 'NONE', #149, 1000.000000000000000 ) ;
#130 = VERTEX_POINT ( 'NONE', #327 ) ;
#131 = PERSON_AND_ORGANIZATION_ROLE ( 'design_owner' ) ;
#132 = DIRECTION ( 'NONE',  ( -1.000000000000000000, 0.000000000000000000, 0.000000000000000000 ) ) ;
#133 = CC_DESIGN_PERSON_AND_ORGANIZATION_ASSIGNMENT ( #140, #161, ( #99 ) ) ;
#134 = CIRCLE ( 'NONE', #364, 0.5000000000000004441 ) ;
#135 = DIRECTION ( 'NONE',  ( 0.000000000000000000, 0.000000000000000000, 1.000000000000000000 ) ) ;
#136 = FACE_OUTER_BOUND ( 'NONE', #216, .T. ) ;
#137 = VECTOR ( 'NONE', #259, 1000.000000000000000 ) ;
#138 = CARTESIAN_POINT ( 'NONE',  ( 0.000000000000000000, 0.000000000000000000, 5.000000000000000000 ) ) ;
#139 = AXIS2_PLACEMENT_3D ( 'NONE', #331, #334, #311 ) ;
#140 = PERSON_AND_ORGANIZATION ( #207, #378 ) ;
#141 = FACE_OUTER_BOUND ( 'NONE', #243, .T. ) ;
#142 = VERTEX_POINT ( 'NONE', #37 ) ;
#143 = ORIENTED_EDGE ( 'NONE', *, *, #314, .F. ) ;
#144 = CARTESIAN_POINT ( 'NONE',  ( 0.000000000000000000, 0.000000000000000000, 255.0000000000000000 ) ) ;
#145 = CARTESIAN_POINT ( 'NONE',  ( 0.000000000000000000, 0.000000000000000000, 255.0000000000000000 ) ) ;
#146 = CC_DESIGN_PERSON_AND_ORGANIZATION_ASSIGNMENT ( #308, #167, ( #324 ) ) ;
#147 = ORIENTED_EDGE ( 'NONE', *, *, #191, .T. ) ;
#148 = CYLINDRICAL_SURFACE ( 'NONE', #94, 7.000000000000000000 ) ;
#149 = DIRECTION ( 'NONE',  ( -0.000000000000000000, -0.000000000000000000, -1.000000000000000000 ) ) ;
#150 = DIRECTION ( 'NONE',  ( -1.000000000000000000, 0.000000000000000000, 0.000000000000000000 ) ) ;
#151 = LOCAL_TIME ( 17, 8, 47.00000000000000000, #26 ) ;
#152 = ORIENTED_EDGE ( 'NONE', *, *, #15, .T. ) ;
#153 = SHAPE_DEFINITION_REPRESENTATION ( #159, #5 ) ;
#154 = CLOSED_SHELL ( 'NONE', ( #84, #93, #22, #260, #301, #113, #165, #227, #234, #370, #292 ) ) ;
#155 = CARTESIAN_POINT ( 'NONE',  ( 0.000000000000000000, 0.000000000000000000, 5.500000000000005329 ) ) ;
#156 = FACE_OUTER_BOUND ( 'NONE', #338, .T. ) ;
#157 = CYLINDRICAL_SURFACE ( 'NONE', #139, 4.000000000000000000 ) ;
#158 = DIRECTION ( 'NONE',  ( 0.000000000000000000, 0.000000000000000000, 1.000000000000000000 ) ) ;
#159 = PRODUCT_DEFINITION_SHAPE ( 'NONE', 'NONE',  #99 ) ;
#160 = ORIENTED_EDGE ( 'NONE', *, *, #15, .F. ) ;
#161 = PERSON_AND_ORGANIZATION_ROLE ( 'creator' ) ;
#162 = ORIENTED_EDGE ( 'NONE', *, *, #379, .T. ) ;
#163 = CARTESIAN_POINT ( 'NONE',  ( 2.600000000000000089, 3.184081677783118191E-16, 255.0000000000000000 ) ) ;
#164 = ORIENTED_EDGE ( 'NONE', *, *, #123, .T. ) ;
#165 = ADVANCED_FACE ( 'NONE', ( #304, #156 ), #16, .F. ) ;
#166 = LOCAL_TIME ( 17, 8, 47.00000000000000000, #352 ) ;
#167 = PERSON_AND_ORGANIZATION_ROLE ( 'design_supplier' ) ;
#168 = VERTEX_POINT ( 'NONE', #299 ) ;
#169 = CC_DESIGN_PERSON_AND_ORGANIZATION_ASSIGNMENT ( #175, #131, ( #336 ) ) ;
#170 = AXIS2_PLACEMENT_3D ( 'NONE', #357, #268, #9 ) ;
#171 = CARTESIAN_POINT ( 'NONE',  ( 7.000000000000000000, 8.572527594031473190E-16, 5.000000000000000000 ) ) ;
#172 = CARTESIAN_POINT ( 'NONE',  ( -7.000000000000000000, 0.000000000000000000, 5.000000000000000000 ) ) ;
#173 = PERSON_AND_ORGANIZATION ( #207, #378 ) ;
#174 = LINE ( 'NONE', #171, #137 ) ;
#175 = PERSON_AND_ORGANIZATION ( #207, #378 ) ;
#176 = ORIENTED_EDGE ( 'NONE', *, *, #256, .F. ) ;
#177 = DIRECTION ( 'NONE',  ( 0.000000000000000000, 0.000000000000000000, 1.000000000000000000 ) ) ;
#178 = CC_DESIGN_DATE_AND_TIME_ASSIGNMENT ( #21, #321, ( #345 ) ) ;
#179 = ORIENTED_EDGE ( 'NONE', *, *, #60, .F. ) ;
#180 = AXIS2_PLACEMENT_3D ( 'NONE', #273, #187, #132 ) ;
#181 = EDGE_CURVE ( 'NONE', #168, #104, #246, .T. ) ;
#182 = ORIENTED_EDGE ( 'NONE', *, *, #125, .T. ) ;
#183 = CARTESIAN_POINT ( 'NONE',  ( 0.000000000000000000, 0.000000000000000000, 255.0000000000000000 ) ) ;
#184 = EDGE_LOOP ( 'NONE', ( #126, #360, #192, #261 ) ) ;
#185 = AXIS2_PLACEMENT_3D ( 'NONE', #38, #158, #206 ) ;
#186 = DIRECTION ( 'NONE',  ( 1.000000000000000000, 0.000000000000000000, -0.000000000000000000 ) ) ;
#187 = DIRECTION ( 'NONE',  ( 0.000000000000000000, 0.000000000000000000, -1.000000000000000000 ) ) ;
#188 = EDGE_LOOP ( 'NONE', ( #200, #254, #238, #194 ) ) ;
#189 = DIRECTION ( 'NONE',  ( 1.000000000000000000, 0.000000000000000000, 0.000000000000000000 ) ) ;
#190 = CARTESIAN_POINT ( 'NONE',  ( 0.000000000000000000, 0.000000000000000000, 0.000000000000000000 ) ) ;
#191 = EDGE_CURVE ( 'NONE', #142, #81, #347, .T. ) ;
#192 = ORIENTED_EDGE ( 'NONE', *, *, #256, .T. ) ;
#193 = AXIS2_PLACEMENT_3D ( 'NONE', #281, #135, #346 ) ;
#194 = ORIENTED_EDGE ( 'NONE', *, *, #31, .T. ) ;
#195 =( NAMED_UNIT ( * ) PLANE_ANGLE_UNIT ( ) SI_UNIT ( $, .RADIAN. ) );
#196 = APPROVAL_DATE_TIME ( #244, #282 ) ;
#197 = EDGE_CURVE ( 'NONE', #40, #316, #83, .T. ) ;
#198 = CARTESIAN_POINT ( 'NONE',  ( -7.000000000000000000, 0.000000000000000000, 0.000000000000000000 ) ) ;
#199 =( NAMED_UNIT ( * ) SI_UNIT ( $, .STERADIAN. ) SOLID_ANGLE_UNIT ( ) );
#200 = ORIENTED_EDGE ( 'NONE', *, *, #271, .F. ) ;
#201 = FACE_OUTER_BOUND ( 'NONE', #118, .T. ) ;
#202 = CIRCLE ( 'NONE', #42, 2.600000000000000089 ) ;
#203 = CALENDAR_DATE ( 2022, 8, 7 ) ;
#204 = LINE ( 'NONE', #172, #111 ) ;
#205 = DIRECTION ( 'NONE',  ( -0.000000000000000000, -0.000000000000000000, -1.000000000000000000 ) ) ;
#206 = DIRECTION ( 'NONE',  ( 1.000000000000000000, 0.000000000000000000, -0.000000000000000000 ) ) ;
#207 = PERSON ( 'NEURÈENÝ', 'NEURÈENÝ', 'NEURÈENÝ', ('NEURÈENÝ'), ('NEURÈENÝ'), ('NEURÈENÝ') ) ;
#208 = DIRECTION ( 'NONE',  ( 0.000000000000000000, 0.000000000000000000, 1.000000000000000000 ) ) ;
#209 = CARTESIAN_POINT ( 'NONE',  ( 0.000000000000000000, 0.000000000000000000, 5.000000000000000000 ) ) ;
#210 = PRODUCT_RELATED_PRODUCT_CATEGORY ( 'detail', '', ( #336 ) ) ;
#211 = EDGE_LOOP ( 'NONE', ( #34, #102 ) ) ;
#212 = APPROVAL_ROLE ( '' ) ;
#213 = CARTESIAN_POINT ( 'NONE',  ( 0.000000000000000000, 0.000000000000000000, 0.000000000000000000 ) ) ;
#214 = EDGE_CURVE ( 'NONE', #72, #315, #56, .T. ) ;
#215 = DIRECTION ( 'NONE',  ( 1.000000000000000000, 0.000000000000000000, 0.000000000000000000 ) ) ;
#216 = EDGE_LOOP ( 'NONE', ( #219, #164, #51, #295 ) ) ;
#217 = PERSON_AND_ORGANIZATION ( #207, #378 ) ;
#218 = FACE_BOUND ( 'NONE', #274, .T. ) ;
#219 = ORIENTED_EDGE ( 'NONE', *, *, #300, .F. ) ;
#220 = APPROVAL_ROLE ( '' ) ;
#221 = AXIS2_PLACEMENT_3D ( 'NONE', #3, #293, #322 ) ;
#222 = VERTEX_POINT ( 'NONE', #294 ) ;
#223 = DIRECTION ( 'NONE',  ( 0.000000000000000000, 0.000000000000000000, 1.000000000000000000 ) ) ;
#224 = LOCAL_TIME ( 17, 8, 47.00000000000000000, #374 ) ;
#225 = FACE_OUTER_BOUND ( 'NONE', #188, .T. ) ;
#226 = DIRECTION ( 'NONE',  ( -0.000000000000000000, -0.000000000000000000, -1.000000000000000000 ) ) ;
#227 = ADVANCED_FACE ( 'NONE', ( #233 ), #90, .T. ) ;
#228 = EDGE_CURVE ( 'NONE', #130, #307, #101, .T. ) ;
#229 = ORIENTED_EDGE ( 'NONE', *, *, #333, .T. ) ;
#230 = PLANE ( 'NONE',  #185 ) ;
#231 = LINE ( 'NONE', #36, #129 ) ;
#232 = CARTESIAN_POINT ( 'NONE',  ( 0.000000000000000000, 0.000000000000000000, 5.500000000000005329 ) ) ;
#233 = FACE_OUTER_BOUND ( 'NONE', #33, .T. ) ;
#234 = ADVANCED_FACE ( 'NONE', ( #32, #141 ), #230, .T. ) ;
#235 = APPROVAL_PERSON_ORGANIZATION ( #173, #282, #212 ) ;
#236 = CARTESIAN_POINT ( 'NONE',  ( 4.500000000000000888, 0.000000000000000000, 5.500000000000005329 ) ) ;
#237 = DIRECTION ( 'NONE',  ( 0.000000000000000000, 0.000000000000000000, -1.000000000000000000 ) ) ;
#238 = ORIENTED_EDGE ( 'NONE', *, *, #317, .T. ) ;
#239 = CC_DESIGN_PERSON_AND_ORGANIZATION_ASSIGNMENT ( #217, #128, ( #345 ) ) ;
#240 = DIRECTION ( 'NONE',  ( -1.000000000000000000, 0.000000000000000000, 0.000000000000000000 ) ) ;
#241 = AXIS2_PLACEMENT_3D ( 'NONE', #52, #310, #286 ) ;
#242 = CARTESIAN_POINT ( 'NONE',  ( -7.000000000000000000, 0.000000000000000000, 5.000000000000000000 ) ) ;
#243 = EDGE_LOOP ( 'NONE', ( #354, #326 ) ) ;
#244 = DATE_AND_TIME ( #73, #46 ) ;
#245 = EDGE_CURVE ( 'NONE', #315, #72, #277, .T. ) ;
#246 = CIRCLE ( 'NONE', #170, 4.000000000000000000 ) ;
#247 = UNCERTAINTY_MEASURE_WITH_UNIT (LENGTH_MEASURE( 1.000000000000000082E-05 ), #105, 'distance_accuracy_value', 'NONE');
#248 = ORIENTED_EDGE ( 'NONE', *, *, #58, .F. ) ;
#249 = APPROVAL_STATUS ( 'not_yet_approved' ) ;
#250 =( GEOMETRIC_REPRESENTATION_CONTEXT ( 3 ) GLOBAL_UNCERTAINTY_ASSIGNED_CONTEXT ( ( #247 ) ) GLOBAL_UNIT_ASSIGNED_CONTEXT ( ( #105, #195, #199 ) ) REPRESENTATION_CONTEXT ( 'NONE', 'WORKASPACE' ) );
#251 = DIRECTION ( 'NONE',  ( 0.000000000000000000, 0.000000000000000000, 1.000000000000000000 ) ) ;
#252 = MECHANICAL_CONTEXT ( 'NONE', #25, 'mechanical' ) ;
#253 = AXIS2_PLACEMENT_3D ( 'NONE', #96, #270, #186 ) ;
#254 = ORIENTED_EDGE ( 'NONE', *, *, #197, .F. ) ;
#255 = EDGE_LOOP ( 'NONE', ( #248, #63, #373, #160 ) ) ;
#256 = EDGE_CURVE ( 'NONE', #76, #323, #361, .T. ) ;
#257 = AXIS2_PLACEMENT_3D ( 'NONE', #232, #64, #289 ) ;
#258 = CYLINDRICAL_SURFACE ( 'NONE', #312, 7.000000000000000000 ) ;
#259 = DIRECTION ( 'NONE',  ( -0.000000000000000000, -0.000000000000000000, -1.000000000000000000 ) ) ;
#260 = ADVANCED_FACE ( 'NONE', ( #372 ), #148, .T. ) ;
#261 = ORIENTED_EDGE ( 'NONE', *, *, #317, .F. ) ;
#262 = CARTESIAN_POINT ( 'NONE',  ( -4.500000000000000888, 5.510910596163089556E-16, 5.500000000000005329 ) ) ;
#263 = CIRCLE ( 'NONE', #193, 7.000000000000000000 ) ;
#264 = ORIENTED_EDGE ( 'NONE', *, *, #379, .F. ) ;
#265 = CARTESIAN_POINT ( 'NONE',  ( -4.500000000000000888, 5.510910596163088569E-16, 5.000000000000002665 ) ) ;
#266 = EDGE_CURVE ( 'NONE', #307, #315, #23, .T. ) ;
#267 = AXIS2_PLACEMENT_3D ( 'NONE', #6, #91, #302 ) ;
#268 = DIRECTION ( 'NONE',  ( 0.000000000000000000, 0.000000000000000000, 1.000000000000000000 ) ) ;
#269 = ORIENTED_EDGE ( 'NONE', *, *, #31, .F. ) ;
#270 = DIRECTION ( 'NONE',  ( 0.000000000000000000, 0.000000000000000000, 1.000000000000000000 ) ) ;
#271 = EDGE_CURVE ( 'NONE', #316, #76, #174, .T. ) ;
#272 = AXIS2_PLACEMENT_3D ( 'NONE', #155, #24, #371 ) ;
#273 = CARTESIAN_POINT ( 'NONE',  ( 0.000000000000000000, 0.000000000000000000, 255.0000000000000000 ) ) ;
#274 = EDGE_LOOP ( 'NONE', ( #366, #71 ) ) ;
#275 = APPROVAL_DATE_TIME ( #77, #47 ) ;
#276 = DIRECTION ( 'NONE',  ( 0.000000000000000000, 0.000000000000000000, 1.000000000000000000 ) ) ;
#277 = CIRCLE ( 'NONE', #88, 4.500000000000000888 ) ;
#278 = VERTEX_POINT ( 'NONE', #349 ) ;
#279 = APPLICATION_PROTOCOL_DEFINITION ( 'international standard', 'config_control_design', 1994, #25 ) ;
#280 = CALENDAR_DATE ( 2022, 8, 7 ) ;
#281 = CARTESIAN_POINT ( 'NONE',  ( 0.000000000000000000, 0.000000000000000000, 5.000000000000000000 ) ) ;
#282 = APPROVAL ( #249, 'NEURÈENÝ' ) ;
#283 = DIRECTION ( 'NONE',  ( 0.000000000000000000, 0.000000000000000000, 1.000000000000000000 ) ) ;
#284 = CC_DESIGN_APPROVAL ( #350, ( #345 ) ) ;
#285 = CARTESIAN_POINT ( 'NONE',  ( -4.000000000000000000, 0.000000000000000000, 5.500000000000005329 ) ) ;
#286 = DIRECTION ( 'NONE',  ( 1.000000000000000000, 0.000000000000000000, 0.000000000000000000 ) ) ;
#287 = ORIENTED_EDGE ( 'NONE', *, *, #181, .F. ) ;
#288 = AXIS2_PLACEMENT_3D ( 'NONE', #127, #276, #365 ) ;
#289 = DIRECTION ( 'NONE',  ( 1.000000000000000000, 0.000000000000000000, 0.000000000000000000 ) ) ;
#290 = ORIENTED_EDGE ( 'NONE', *, *, #245, .F. ) ;
#291 = AXIS2_PLACEMENT_3D ( 'NONE', #7, #332, #303 ) ;
#292 = ADVANCED_FACE ( 'NONE', ( #201 ), #11, .F. ) ;
#293 = DIRECTION ( 'NONE',  ( 0.000000000000000000, 0.000000000000000000, 1.000000000000000000 ) ) ;
#294 = CARTESIAN_POINT ( 'NONE',  ( -2.600000000000000089, 0.000000000000000000, 0.000000000000000000 ) ) ;
#295 = ORIENTED_EDGE ( 'NONE', *, *, #328, .F. ) ;
#296 = APPLICATION_CONTEXT ( 'configuration controlled 3d designs of mechanical parts and assemblies' ) ;
#297 = ORIENTED_EDGE ( 'NONE', *, *, #60, .T. ) ;
#298 = PERSON_AND_ORGANIZATION ( #207, #378 ) ;
#299 = CARTESIAN_POINT ( 'NONE',  ( -4.000000000000000000, 0.000000000000000000, 255.0000000000000000 ) ) ;
#300 = EDGE_CURVE ( 'NONE', #104, #168, #355, .T. ) ;
#301 = ADVANCED_FACE ( 'NONE', ( #225 ), #258, .T. ) ;
#302 = DIRECTION ( 'NONE',  ( 1.000000000000000000, 0.000000000000000000, 0.000000000000000000 ) ) ;
#303 = DIRECTION ( 'NONE',  ( 1.000000000000000000, 0.000000000000000000, 0.000000000000000000 ) ) ;
#304 = FACE_BOUND ( 'NONE', #61, .T. ) ;
#305 = AXIS2_PLACEMENT_3D ( 'NONE', #359, #92, #215 ) ;
#306 = EDGE_CURVE ( 'NONE', #316, #40, #263, .T. ) ;
#307 = VERTEX_POINT ( 'NONE', #285 ) ;
#308 = PERSON_AND_ORGANIZATION ( #207, #378 ) ;
#309 = ORIENTED_EDGE ( 'NONE', *, *, #266, .F. ) ;
#310 = DIRECTION ( 'NONE',  ( 0.000000000000000000, 0.000000000000000000, 1.000000000000000000 ) ) ;
#311 = DIRECTION ( 'NONE',  ( -1.000000000000000000, 0.000000000000000000, 0.000000000000000000 ) ) ;
#312 = AXIS2_PLACEMENT_3D ( 'NONE', #27, #380, #55 ) ;
#313 = PERSON_AND_ORGANIZATION ( #207, #378 ) ;
#314 = EDGE_CURVE ( 'NONE', #81, #142, #12, .T. ) ;
#315 = VERTEX_POINT ( 'NONE', #265 ) ;
#316 = VERTEX_POINT ( 'NONE', #353 ) ;
#317 = EDGE_CURVE ( 'NONE', #40, #323, #204, .T. ) ;
#318 = AXIS2_PLACEMENT_3D ( 'NONE', #262, #381, #112 ) ;
#319 = CC_DESIGN_APPROVAL ( #47, ( #324 ) ) ;
#320 = DIRECTION ( 'NONE',  ( -0.000000000000000000, -0.000000000000000000, -1.000000000000000000 ) ) ;
#321 = DATE_TIME_ROLE ( 'classification_date' ) ;
#322 = DIRECTION ( 'NONE',  ( 1.000000000000000000, 0.000000000000000000, 0.000000000000000000 ) ) ;
#323 = VERTEX_POINT ( 'NONE', #198 ) ;
#324 = PRODUCT_DEFINITION_FORMATION_WITH_SPECIFIED_SOURCE ( 'LIBOVOLNÝ', '', #336, .NOT_KNOWN. ) ;
#325 = DATE_AND_TIME ( #203, #166 ) ;
#326 = ORIENTED_EDGE ( 'NONE', *, *, #300, .T. ) ;
#327 = CARTESIAN_POINT ( 'NONE',  ( 4.000000000000000000, 4.898587196589412829E-16, 5.500000000000005329 ) ) ;
#328 = EDGE_CURVE ( 'NONE', #168, #307, #1, .T. ) ;
#329 = APPROVAL_ROLE ( '' ) ;
#330 = AXIS2_PLACEMENT_3D ( 'NONE', #145, #283, #28 ) ;
#331 = CARTESIAN_POINT ( 'NONE',  ( 0.000000000000000000, 0.000000000000000000, 255.0000000000000000 ) ) ;
#332 = DIRECTION ( 'NONE',  ( -0.000000000000000000, -0.000000000000000000, -1.000000000000000000 ) ) ;
#333 = EDGE_CURVE ( 'NONE', #81, #222, #362, .T. ) ;
#334 = DIRECTION ( 'NONE',  ( -0.000000000000000000, -0.000000000000000000, -1.000000000000000000 ) ) ;
#335 = CARTESIAN_POINT ( 'NONE',  ( 4.500000000000000888, 0.000000000000000000, 5.000000000000002665 ) ) ;
#336 = PRODUCT ( 'ac9b', 'ac9b', '', ( #252 ) ) ;
#337 = APPROVAL_STATUS ( 'not_yet_approved' ) ;
#338 = EDGE_LOOP ( 'NONE', ( #269, #176 ) ) ;
#339 = DIRECTION ( 'NONE',  ( 0.000000000000000000, 0.000000000000000000, -1.000000000000000000 ) ) ;
#340 = FACE_OUTER_BOUND ( 'NONE', #211, .T. ) ;
#341 = CC_DESIGN_PERSON_AND_ORGANIZATION_ASSIGNMENT ( #313, #87, ( #324 ) ) ;
#342 = EDGE_LOOP ( 'NONE', ( #309, #20, #152, #290 ) ) ;
#343 = COORDINATED_UNIVERSAL_TIME_OFFSET ( 1, 0, .AHEAD. ) ;
#344 = ORIENTED_EDGE ( 'NONE', *, *, #125, .F. ) ;
#345 = SECURITY_CLASSIFICATION ( '', '', #367 ) ;
#346 = DIRECTION ( 'NONE',  ( 1.000000000000000000, 0.000000000000000000, 0.000000000000000000 ) ) ;
#347 = CIRCLE ( 'NONE', #267, 2.600000000000000089 ) ;
#348 = DATE_TIME_ROLE ( 'creation_date' ) ;
#349 = CARTESIAN_POINT ( 'NONE',  ( 2.600000000000000089, 3.184081677783118191E-16, 0.000000000000000000 ) ) ;
#350 = APPROVAL ( #2, 'NEURÈENÝ' ) ;
#351 = DIRECTION ( 'NONE',  ( -1.000000000000000000, 0.000000000000000000, 0.000000000000000000 ) ) ;
#352 = COORDINATED_UNIVERSAL_TIME_OFFSET ( 1, 0, .AHEAD. ) ;
#353 = CARTESIAN_POINT ( 'NONE',  ( 7.000000000000000000, 8.572527594031473190E-16, 5.000000000000000000 ) ) ;
#354 = ORIENTED_EDGE ( 'NONE', *, *, #181, .T. ) ;
#355 = CIRCLE ( 'NONE', #330, 4.000000000000000000 ) ;
#356 = VECTOR ( 'NONE', #339, 1000.000000000000000 ) ;
#357 = CARTESIAN_POINT ( 'NONE',  ( 0.000000000000000000, 0.000000000000000000, 255.0000000000000000 ) ) ;
#358 = CIRCLE ( 'NONE', #30, 7.000000000000000000 ) ;
#359 = CARTESIAN_POINT ( 'NONE',  ( 0.000000000000000000, 0.000000000000000000, 0.000000000000000000 ) ) ;
#360 = ORIENTED_EDGE ( 'NONE', *, *, #271, .T. ) ;
#361 = CIRCLE ( 'NONE', #305, 7.000000000000000000 ) ;
#362 = LINE ( 'NONE', #14, #377 ) ;
#363 = CARTESIAN_POINT ( 'NONE',  ( 0.000000000000000000, 0.000000000000000000, 5.000000000000000000 ) ) ;
#364 = AXIS2_PLACEMENT_3D ( 'NONE', #236, #10, #109 ) ;
#365 = DIRECTION ( 'NONE',  ( 1.000000000000000000, 0.000000000000000000, 0.000000000000000000 ) ) ;
#366 = ORIENTED_EDGE ( 'NONE', *, *, #214, .T. ) ;
#367 = SECURITY_CLASSIFICATION_LEVEL ( 'unclassified' ) ;
#368 = APPROVAL_PERSON_ORGANIZATION ( #57, #47, #220 ) ;
#369 = LINE ( 'NONE', #163, #356 ) ;
#370 = ADVANCED_FACE ( 'NONE', ( #121 ), #29, .F. ) ;
#371 = DIRECTION ( 'NONE',  ( 1.000000000000000000, 0.000000000000000000, 0.000000000000000000 ) ) ;
#372 = FACE_OUTER_BOUND ( 'NONE', #184, .T. ) ;
#373 = ORIENTED_EDGE ( 'NONE', *, *, #214, .F. ) ;
#374 = COORDINATED_UNIVERSAL_TIME_OFFSET ( 1, 0, .AHEAD. ) ;
#375 = AXIS2_PLACEMENT_3D ( 'NONE', #138, #177, #117 ) ;
#376 = ORIENTED_EDGE ( 'NONE', *, *, #314, .T. ) ;
#377 = VECTOR ( 'NONE', #98, 1000.000000000000000 ) ;
#378 = ORGANIZATION ( 'NEURÈENÝ', 'NEURÈENÝ', '' ) ;
#379 = EDGE_CURVE ( 'NONE', #142, #278, #369, .T. ) ;
#380 = DIRECTION ( 'NONE',  ( -0.000000000000000000, -0.000000000000000000, -1.000000000000000000 ) ) ;
#381 = DIRECTION ( 'NONE',  ( 1.224646799147353207E-16, 1.000000000000000000, -0.000000000000000000 ) ) ;
ENDSEC;
END-ISO-10303-21;
