ISO-10303-21;
HEADER;
FILE_DESCRIPTION (( 'STEP AP203' ),
    '1' );
FILE_NAME ('35a3.STEP',
    '2022-07-08T15:17:28',
    ( '' ),
    ( '' ),
    'SwSTEP 2.0',
    'SolidWorks 2019',
    '' );
FILE_SCHEMA (( 'CONFIG_CONTROL_DESIGN' ));
ENDSEC;

DATA;
#1 = CC_DESIGN_SECURITY_CLASSIFICATION ( #54, ( #158 ) ) ;
#2 = EDGE_LOOP ( 'NONE', ( #123, #119 ) ) ;
#3 = DIRECTION ( 'NONE',  ( 1.000000000000000000, 0.000000000000000000, 0.000000000000000000 ) ) ;
#4 = FACE_OUTER_BOUND ( 'NONE', #272, .T. ) ;
#5 = AXIS2_PLACEMENT_3D ( 'NONE', #232, #126, #377 ) ;
#6 = ADVANCED_FACE ( 'NONE', ( #139, #165 ), #18, .T. ) ;
#7 = CC_DESIGN_APPROVAL ( #273, ( #158 ) ) ;
#8 = CARTESIAN_POINT ( 'NONE',  ( 2.500000000000000000, 3.061616997868383141E-16, 105.0000000000000142 ) ) ;
#9 = ORIENTED_EDGE ( 'NONE', *, *, #90, .T. ) ;
#10 = CC_DESIGN_PERSON_AND_ORGANIZATION_ASSIGNMENT ( #247, #370, ( #231 ) ) ;
#11 = CARTESIAN_POINT ( 'NONE',  ( 5.500000000000000000, 0.000000000000000000, 5.500000000000005329 ) ) ;
#12 = ADVANCED_FACE ( 'NONE', ( #50 ), #345, .F. ) ;
#13 = CARTESIAN_POINT ( 'NONE',  ( 0.000000000000000000, 0.000000000000000000, 0.000000000000000000 ) ) ;
#14 = COORDINATED_UNIVERSAL_TIME_OFFSET ( 1, 0, .AHEAD. ) ;
#15 = EDGE_LOOP ( 'NONE', ( #94, #106, #111, #337 ) ) ;
#16 = VERTEX_POINT ( 'NONE', #83 ) ;
#17 = CARTESIAN_POINT ( 'NONE',  ( -5.000000000000000000, 0.000000000000000000, 105.0000000000000142 ) ) ;
#18 = PLANE ( 'NONE',  #130 ) ;
#19 = DIRECTION ( 'NONE',  ( -1.000000000000000000, 0.000000000000000000, 0.000000000000000000 ) ) ;
#20 = CARTESIAN_POINT ( 'NONE',  ( 0.000000000000000000, 0.000000000000000000, 0.000000000000000000 ) ) ;
#21 = AXIS2_PLACEMENT_3D ( 'NONE', #75, #44, #101 ) ;
#22 = DIRECTION ( 'NONE',  ( 1.000000000000000000, 0.000000000000000000, 0.000000000000000000 ) ) ;
#23 = EDGE_CURVE ( 'NONE', #47, #319, #195, .T. ) ;
#24 = CARTESIAN_POINT ( 'NONE',  ( 0.000000000000000000, 0.000000000000000000, 5.000000000000000000 ) ) ;
#25 = ORIENTED_EDGE ( 'NONE', *, *, #185, .F. ) ;
#26 = EDGE_CURVE ( 'NONE', #47, #270, #347, .T. ) ;
#27 = LOCAL_TIME ( 17, 17, 28.00000000000000000, #196 ) ;
#28 = PLANE ( 'NONE',  #221 ) ;
#29 = PERSON ( 'NEURÈENÝ', 'NEURÈENÝ', 'NEURÈENÝ', ('NEURÈENÝ'), ('NEURÈENÝ'), ('NEURÈENÝ') ) ;
#30 = CYLINDRICAL_SURFACE ( 'NONE', #312, 2.500000000000000000 ) ;
#31 = CARTESIAN_POINT ( 'NONE',  ( 8.000000000000000000, 9.797174393178825657E-16, 5.000000000000000000 ) ) ;
#32 = CIRCLE ( 'NONE', #219, 8.000000000000000000 ) ;
#33 = EDGE_CURVE ( 'NONE', #330, #304, #323, .T. ) ;
#34 = CARTESIAN_POINT ( 'NONE',  ( 0.000000000000000000, 0.000000000000000000, 0.000000000000000000 ) ) ;
#35 = CARTESIAN_POINT ( 'NONE',  ( 5.000000000000000000, 6.123233995736766282E-16, 105.0000000000000142 ) ) ;
#36 = CC_DESIGN_APPROVAL ( #173, ( #54 ) ) ;
#37 =( LENGTH_UNIT ( ) NAMED_UNIT ( * ) SI_UNIT ( .MILLI., .METRE. ) );
#38 = DIRECTION ( 'NONE',  ( -0.000000000000000000, -0.000000000000000000, -1.000000000000000000 ) ) ;
#39 = CALENDAR_DATE ( 2022, 8, 7 ) ;
#40 = VECTOR ( 'NONE', #226, 1000.000000000000000 ) ;
#41 = ORIENTED_EDGE ( 'NONE', *, *, #349, .F. ) ;
#42 = AXIS2_PLACEMENT_3D ( 'NONE', #264, #248, #216 ) ;
#43 = ORIENTED_EDGE ( 'NONE', *, *, #33, .T. ) ;
#44 = DIRECTION ( 'NONE',  ( 0.000000000000000000, 0.000000000000000000, 1.000000000000000000 ) ) ;
#45 = DATE_AND_TIME ( #302, #168 ) ;
#46 = CARTESIAN_POINT ( 'NONE',  ( 0.000000000000000000, 0.000000000000000000, 5.000000000000000000 ) ) ;
#47 = VERTEX_POINT ( 'NONE', #340 ) ;
#48 = CARTESIAN_POINT ( 'NONE',  ( 2.500000000000000000, 3.061616997868383141E-16, 105.0000000000000142 ) ) ;
#49 = DIRECTION ( 'NONE',  ( 0.000000000000000000, 0.000000000000000000, 1.000000000000000000 ) ) ;
#50 = FACE_OUTER_BOUND ( 'NONE', #360, .T. ) ;
#51 = CC_DESIGN_PERSON_AND_ORGANIZATION_ASSIGNMENT ( #76, #275, ( #158 ) ) ;
#52 = AXIS2_PLACEMENT_3D ( 'NONE', #249, #115, #346 ) ;
#53 = CARTESIAN_POINT ( 'NONE',  ( 0.000000000000000000, 0.000000000000000000, 5.000000000000000000 ) ) ;
#54 = SECURITY_CLASSIFICATION ( '', '', #332 ) ;
#55 = DIRECTION ( 'NONE',  ( -0.000000000000000000, -0.000000000000000000, -1.000000000000000000 ) ) ;
#56 = ORIENTED_EDGE ( 'NONE', *, *, #321, .F. ) ;
#57 = ADVANCED_FACE ( 'NONE', ( #138, #228 ), #140, .F. ) ;
#58 = APPLICATION_CONTEXT ( 'configuration controlled 3d designs of mechanical parts and assemblies' ) ;
#59 = AXIS2_PLACEMENT_3D ( 'NONE', #113, #171, #144 ) ;
#60 = DIRECTION ( 'NONE',  ( 1.000000000000000000, 0.000000000000000000, 0.000000000000000000 ) ) ;
#61 = AXIS2_PLACEMENT_3D ( 'NONE', #11, #289, #151 ) ;
#62 = FACE_OUTER_BOUND ( 'NONE', #136, .T. ) ;
#63 = EDGE_LOOP ( 'NONE', ( #41, #236 ) ) ;
#64 = CARTESIAN_POINT ( 'NONE',  ( 5.000000000000000000, 6.123233995736766282E-16, 5.500000000000005329 ) ) ;
#65 = APPLICATION_PROTOCOL_DEFINITION ( 'international standard', 'config_control_design', 1994, #357 ) ;
#66 = CARTESIAN_POINT ( 'NONE',  ( 0.000000000000000000, 0.000000000000000000, 5.500000000000005329 ) ) ;
#67 = FACE_OUTER_BOUND ( 'NONE', #2, .T. ) ;
#68 = ORIENTED_EDGE ( 'NONE', *, *, #349, .T. ) ;
#69 = DIRECTION ( 'NONE',  ( -0.000000000000000000, -0.000000000000000000, -1.000000000000000000 ) ) ;
#70 = AXIS2_PLACEMENT_3D ( 'NONE', #269, #293, #3 ) ;
#71 = CARTESIAN_POINT ( 'NONE',  ( -5.500000000000000000, 6.735557395310442023E-16, 5.000000000000002665 ) ) ;
#72 = VERTEX_POINT ( 'NONE', #48 ) ;
#73 = CC_DESIGN_PERSON_AND_ORGANIZATION_ASSIGNMENT ( #79, #164, ( #54 ) ) ;
#74 = APPROVAL_STATUS ( 'not_yet_approved' ) ;
#75 = CARTESIAN_POINT ( 'NONE',  ( 0.000000000000000000, 0.000000000000000000, 105.0000000000000142 ) ) ;
#76 = PERSON_AND_ORGANIZATION ( #29, #335 ) ;
#77 = VECTOR ( 'NONE', #373, 1000.000000000000000 ) ;
#78 = ORIENTED_EDGE ( 'NONE', *, *, #321, .T. ) ;
#79 = PERSON_AND_ORGANIZATION ( #29, #335 ) ;
#80 = ORIENTED_EDGE ( 'NONE', *, *, #129, .T. ) ;
#81 = CIRCLE ( 'NONE', #42, 5.000000000000000000 ) ;
#82 = PERSON_AND_ORGANIZATION ( #29, #335 ) ;
#83 = CARTESIAN_POINT ( 'NONE',  ( 5.000000000000000000, 6.123233995736766282E-16, 105.0000000000000142 ) ) ;
#84 = PERSON_AND_ORGANIZATION ( #29, #335 ) ;
#85 = LINE ( 'NONE', #17, #40 ) ;
#86 = AXIS2_PLACEMENT_3D ( 'NONE', #326, #38, #318 ) ;
#87 = DIRECTION ( 'NONE',  ( 1.000000000000000000, 0.000000000000000000, 0.000000000000000000 ) ) ;
#88 = CALENDAR_DATE ( 2022, 8, 7 ) ;
#89 = AXIS2_PLACEMENT_3D ( 'NONE', #210, #157, #361 ) ;
#90 = EDGE_CURVE ( 'NONE', #367, #330, #314, .T. ) ;
#91 = EDGE_LOOP ( 'NONE', ( #242, #127 ) ) ;
#92 = DIRECTION ( 'NONE',  ( -0.000000000000000000, -0.000000000000000000, -1.000000000000000000 ) ) ;
#93 = CARTESIAN_POINT ( 'NONE',  ( 0.000000000000000000, 0.000000000000000000, 5.500000000000005329 ) ) ;
#94 = ORIENTED_EDGE ( 'NONE', *, *, #218, .F. ) ;
#95 = AXIS2_PLACEMENT_3D ( 'NONE', #282, #200, #169 ) ;
#96 = DIRECTION ( 'NONE',  ( 1.000000000000000000, 0.000000000000000000, -0.000000000000000000 ) ) ;
#97 =( NAMED_UNIT ( * ) SI_UNIT ( $, .STERADIAN. ) SOLID_ANGLE_UNIT ( ) );
#98 = CARTESIAN_POINT ( 'NONE',  ( -2.500000000000000000, 0.000000000000000000, 0.000000000000000000 ) ) ;
#99 = VERTEX_POINT ( 'NONE', #227 ) ;
#100 = FACE_OUTER_BOUND ( 'NONE', #204, .T. ) ;
#101 = DIRECTION ( 'NONE',  ( 1.000000000000000000, 0.000000000000000000, 0.000000000000000000 ) ) ;
#102 = APPROVAL ( #133, 'NEURÈENÝ' ) ;
#103 = DATE_AND_TIME ( #244, #224 ) ;
#104 = EDGE_LOOP ( 'NONE', ( #316, #43 ) ) ;
#105 = APPROVAL_DATE_TIME ( #103, #102 ) ;
#106 = ORIENTED_EDGE ( 'NONE', *, *, #276, .F. ) ;
#107 = EDGE_CURVE ( 'NONE', #155, #367, #85, .T. ) ;
#108 = AXIS2_PLACEMENT_3D ( 'NONE', #292, #92, #202 ) ;
#109 = APPROVAL_DATE_TIME ( #252, #173 ) ;
#110 = DIRECTION ( 'NONE',  ( 0.000000000000000000, 0.000000000000000000, -1.000000000000000000 ) ) ;
#111 = ORIENTED_EDGE ( 'NONE', *, *, #107, .T. ) ;
#112 = CIRCLE ( 'NONE', #89, 2.500000000000000000 ) ;
#113 = CARTESIAN_POINT ( 'NONE',  ( -5.500000000000000000, 6.735557395310442023E-16, 5.500000000000005329 ) ) ;
#114 = ORIENTED_EDGE ( 'NONE', *, *, #295, .F. ) ;
#115 = DIRECTION ( 'NONE',  ( 0.000000000000000000, 0.000000000000000000, 1.000000000000000000 ) ) ;
#116 = DIRECTION ( 'NONE',  ( 0.000000000000000000, 0.000000000000000000, 1.000000000000000000 ) ) ;
#117 = CIRCLE ( 'NONE', #61, 0.5000000000000004441 ) ;
#118 = FACE_OUTER_BOUND ( 'NONE', #15, .T. ) ;
#119 = ORIENTED_EDGE ( 'NONE', *, *, #160, .T. ) ;
#120 = CARTESIAN_POINT ( 'NONE',  ( 8.000000000000000000, 9.797174393178825657E-16, 5.000000000000000000 ) ) ;
#121 = EDGE_CURVE ( 'NONE', #245, #381, #183, .T. ) ;
#122 = CYLINDRICAL_SURFACE ( 'NONE', #278, 8.000000000000000000 ) ;
#123 = ORIENTED_EDGE ( 'NONE', *, *, #26, .T. ) ;
#124 = ADVANCED_FACE ( 'NONE', ( #310 ), #375, .T. ) ;
#125 = LINE ( 'NONE', #35, #334 ) ;
#126 = DIRECTION ( 'NONE',  ( -0.000000000000000000, -0.000000000000000000, -1.000000000000000000 ) ) ;
#127 = ORIENTED_EDGE ( 'NONE', *, *, #205, .T. ) ;
#128 = DIRECTION ( 'NONE',  ( 0.000000000000000000, 0.000000000000000000, 1.000000000000000000 ) ) ;
#129 = EDGE_CURVE ( 'NONE', #134, #319, #32, .T. ) ;
#130 = AXIS2_PLACEMENT_3D ( 'NONE', #376, #225, #343 ) ;
#131 = CARTESIAN_POINT ( 'NONE',  ( 5.500000000000000000, 0.000000000000000000, 5.000000000000002665 ) ) ;
#132 = EDGE_LOOP ( 'NONE', ( #56, #198 ) ) ;
#133 = APPROVAL_STATUS ( 'not_yet_approved' ) ;
#134 = VERTEX_POINT ( 'NONE', #251 ) ;
#135 = DIRECTION ( 'NONE',  ( 0.000000000000000000, 0.000000000000000000, 1.000000000000000000 ) ) ;
#136 = EDGE_LOOP ( 'NONE', ( #78, #352, #351, #215 ) ) ;
#137 = DIRECTION ( 'NONE',  ( -1.000000000000000000, 0.000000000000000000, 0.000000000000000000 ) ) ;
#138 = FACE_BOUND ( 'NONE', #147, .T. ) ;
#139 = FACE_BOUND ( 'NONE', #132, .T. ) ;
#140 = PLANE ( 'NONE',  #52 ) ;
#141 = CIRCLE ( 'NONE', #305, 8.000000000000000000 ) ;
#142 = DIRECTION ( 'NONE',  ( 1.000000000000000000, 0.000000000000000000, 0.000000000000000000 ) ) ;
#143 = EDGE_CURVE ( 'NONE', #99, #381, #284, .T. ) ;
#144 = DIRECTION ( 'NONE',  ( -1.000000000000000000, 1.224646799147351482E-16, 0.000000000000000000 ) ) ;
#145 = APPROVAL_ROLE ( '' ) ;
#146 = DIRECTION ( 'NONE',  ( 0.000000000000000000, 0.000000000000000000, 1.000000000000000000 ) ) ;
#147 = EDGE_LOOP ( 'NONE', ( #193, #328 ) ) ;
#148 = CIRCLE ( 'NONE', #277, 5.000000000000000000 ) ;
#149 = LOCAL_TIME ( 17, 17, 28.00000000000000000, #296 ) ;
#150 = FACE_OUTER_BOUND ( 'NONE', #300, .T. ) ;
#151 = DIRECTION ( 'NONE',  ( 0.000000000000000000, 0.000000000000000000, -1.000000000000000000 ) ) ;
#152 = ORIENTED_EDGE ( 'NONE', *, *, #281, .T. ) ;
#153 = DIRECTION ( 'NONE',  ( -0.000000000000000000, -0.000000000000000000, -1.000000000000000000 ) ) ;
#154 = CARTESIAN_POINT ( 'NONE',  ( 0.000000000000000000, 0.000000000000000000, 105.0000000000000142 ) ) ;
#155 = VERTEX_POINT ( 'NONE', #175 ) ;
#156 = CARTESIAN_POINT ( 'NONE',  ( 0.000000000000000000, 0.000000000000000000, 5.000000000000000000 ) ) ;
#157 = DIRECTION ( 'NONE',  ( -0.000000000000000000, -0.000000000000000000, -1.000000000000000000 ) ) ;
#158 = PRODUCT_DEFINITION_FORMATION_WITH_SPECIFIED_SOURCE ( 'LIBOVOLNÝ', '', #324, .NOT_KNOWN. ) ;
#159 = DIRECTION ( 'NONE',  ( -0.000000000000000000, -0.000000000000000000, -1.000000000000000000 ) ) ;
#160 = EDGE_CURVE ( 'NONE', #270, #47, #141, .T. ) ;
#161 = MECHANICAL_CONTEXT ( 'NONE', #357, 'mechanical' ) ;
#162 =( GEOMETRIC_REPRESENTATION_CONTEXT ( 3 ) GLOBAL_UNCERTAINTY_ASSIGNED_CONTEXT ( ( #254 ) ) GLOBAL_UNIT_ASSIGNED_CONTEXT ( ( #37, #238, #97 ) ) REPRESENTATION_CONTEXT ( 'NONE', 'WORKASPACE' ) );
#163 = DIRECTION ( 'NONE',  ( 0.000000000000000000, 0.000000000000000000, -1.000000000000000000 ) ) ;
#164 = PERSON_AND_ORGANIZATION_ROLE ( 'classification_officer' ) ;
#165 = FACE_OUTER_BOUND ( 'NONE', #91, .T. ) ;
#166 = AXIS2_PLACEMENT_3D ( 'NONE', #268, #182, #288 ) ;
#167 = DIRECTION ( 'NONE',  ( 1.000000000000000000, 0.000000000000000000, 0.000000000000000000 ) ) ;
#168 = LOCAL_TIME ( 17, 17, 28.00000000000000000, #194 ) ;
#169 = DIRECTION ( 'NONE',  ( 1.000000000000000000, 0.000000000000000000, 0.000000000000000000 ) ) ;
#170 = DIRECTION ( 'NONE',  ( 1.000000000000000000, 0.000000000000000000, 0.000000000000000000 ) ) ;
#171 = DIRECTION ( 'NONE',  ( 1.224646799147353207E-16, 1.000000000000000000, -0.000000000000000000 ) ) ;
#172 = APPROVAL_PERSON_ORGANIZATION ( #84, #102, #222 ) ;
#173 = APPROVAL ( #174, 'NEURÈENÝ' ) ;
#174 = APPROVAL_STATUS ( 'not_yet_approved' ) ;
#175 = CARTESIAN_POINT ( 'NONE',  ( -5.000000000000000000, 0.000000000000000000, 105.0000000000000142 ) ) ;
#176 = ORIENTED_EDGE ( 'NONE', *, *, #336, .F. ) ;
#177 = AXIS2_PLACEMENT_3D ( 'NONE', #309, #163, #137 ) ;
#178 = CC_DESIGN_PERSON_AND_ORGANIZATION_ASSIGNMENT ( #271, #190, ( #324 ) ) ;
#179 = DIRECTION ( 'NONE',  ( -1.000000000000000000, 0.000000000000000000, 0.000000000000000000 ) ) ;
#180 = ADVANCED_BREP_SHAPE_REPRESENTATION ( '35a3', ( #274, #283 ), #162 ) ;
#181 = FACE_BOUND ( 'NONE', #104, .T. ) ;
#182 = DIRECTION ( 'NONE',  ( 0.000000000000000000, 0.000000000000000000, 1.000000000000000000 ) ) ;
#183 = CIRCLE ( 'NONE', #95, 2.500000000000000000 ) ;
#184 = DIRECTION ( 'NONE',  ( -1.000000000000000000, 0.000000000000000000, 0.000000000000000000 ) ) ;
#185 = EDGE_CURVE ( 'NONE', #262, #367, #148, .T. ) ;
#186 = VECTOR ( 'NONE', #259, 1000.000000000000000 ) ;
#187 = FACE_OUTER_BOUND ( 'NONE', #322, .T. ) ;
#188 = APPROVAL_ROLE ( '' ) ;
#189 = ORIENTED_EDGE ( 'NONE', *, *, #223, .T. ) ;
#190 = PERSON_AND_ORGANIZATION_ROLE ( 'design_owner' ) ;
#191 = ADVANCED_FACE ( 'NONE', ( #150 ), #327, .F. ) ;
#192 = PERSON_AND_ORGANIZATION_ROLE ( 'creator' ) ;
#193 = ORIENTED_EDGE ( 'NONE', *, *, #223, .F. ) ;
#194 = COORDINATED_UNIVERSAL_TIME_OFFSET ( 1, 0, .AHEAD. ) ;
#195 = LINE ( 'NONE', #303, #77 ) ;
#196 = COORDINATED_UNIVERSAL_TIME_OFFSET ( 1, 0, .AHEAD. ) ;
#197 = CARTESIAN_POINT ( 'NONE',  ( 0.000000000000000000, 0.000000000000000000, 5.500000000000005329 ) ) ;
#198 = ORIENTED_EDGE ( 'NONE', *, *, #281, .F. ) ;
#199 = ORIENTED_EDGE ( 'NONE', *, *, #205, .F. ) ;
#200 = DIRECTION ( 'NONE',  ( -0.000000000000000000, -0.000000000000000000, -1.000000000000000000 ) ) ;
#201 = ORIENTED_EDGE ( 'NONE', *, *, #364, .F. ) ;
#202 = DIRECTION ( 'NONE',  ( -1.000000000000000000, 0.000000000000000000, 0.000000000000000000 ) ) ;
#203 = DIRECTION ( 'NONE',  ( 0.000000000000000000, 0.000000000000000000, 1.000000000000000000 ) ) ;
#204 = EDGE_LOOP ( 'NONE', ( #199, #355, #212, #333 ) ) ;
#205 = EDGE_CURVE ( 'NONE', #16, #155, #298, .T. ) ;
#206 = DIRECTION ( 'NONE',  ( 0.000000000000000000, 0.000000000000000000, 1.000000000000000000 ) ) ;
#207 = EDGE_LOOP ( 'NONE', ( #313, #239, #257, #68 ) ) ;
#208 = CIRCLE ( 'NONE', #21, 2.500000000000000000 ) ;
#209 = DIRECTION ( 'NONE',  ( 1.000000000000000000, 0.000000000000000000, 0.000000000000000000 ) ) ;
#210 = CARTESIAN_POINT ( 'NONE',  ( 0.000000000000000000, 0.000000000000000000, 0.000000000000000000 ) ) ;
#211 = PRODUCT_DEFINITION_SHAPE ( 'NONE', 'NONE',  #231 ) ;
#212 = ORIENTED_EDGE ( 'NONE', *, *, #185, .T. ) ;
#213 = AXIS2_PLACEMENT_3D ( 'NONE', #34, #206, #286 ) ;
#214 = DATE_TIME_ROLE ( 'creation_date' ) ;
#215 = ORIENTED_EDGE ( 'NONE', *, *, #143, .F. ) ;
#216 = DIRECTION ( 'NONE',  ( 1.000000000000000000, 0.000000000000000000, 0.000000000000000000 ) ) ;
#217 = DATE_AND_TIME ( #39, #149 ) ;
#218 = EDGE_CURVE ( 'NONE', #16, #262, #125, .T. ) ;
#219 = AXIS2_PLACEMENT_3D ( 'NONE', #20, #116, #142 ) ;
#220 = ORIENTED_EDGE ( 'NONE', *, *, #90, .F. ) ;
#221 = AXIS2_PLACEMENT_3D ( 'NONE', #287, #241, #96 ) ;
#222 = APPROVAL_ROLE ( '' ) ;
#223 = EDGE_CURVE ( 'NONE', #381, #245, #112, .T. ) ;
#224 = LOCAL_TIME ( 17, 17, 28.00000000000000000, #14 ) ;
#225 = DIRECTION ( 'NONE',  ( 0.000000000000000000, 0.000000000000000000, 1.000000000000000000 ) ) ;
#226 = DIRECTION ( 'NONE',  ( -0.000000000000000000, -0.000000000000000000, -1.000000000000000000 ) ) ;
#227 = CARTESIAN_POINT ( 'NONE',  ( -2.500000000000000000, 0.000000000000000000, 105.0000000000000142 ) ) ;
#228 = FACE_OUTER_BOUND ( 'NONE', #63, .T. ) ;
#229 = DATE_TIME_ROLE ( 'classification_date' ) ;
#230 = CC_DESIGN_APPROVAL ( #102, ( #231 ) ) ;
#231 = PRODUCT_DEFINITION ( 'NEZNÁMÝ', '', #158, #344 ) ;
#232 = CARTESIAN_POINT ( 'NONE',  ( 0.000000000000000000, 0.000000000000000000, 5.000000000000000000 ) ) ;
#233 = ORIENTED_EDGE ( 'NONE', *, *, #143, .T. ) ;
#234 = CYLINDRICAL_SURFACE ( 'NONE', #108, 5.000000000000000000 ) ;
#235 = DIRECTION ( 'NONE',  ( 1.000000000000000000, 0.000000000000000000, 0.000000000000000000 ) ) ;
#236 = ORIENTED_EDGE ( 'NONE', *, *, #129, .F. ) ;
#237 = DIRECTION ( 'NONE',  ( -0.000000000000000000, -0.000000000000000000, -1.000000000000000000 ) ) ;
#238 =( NAMED_UNIT ( * ) PLANE_ANGLE_UNIT ( ) SI_UNIT ( $, .RADIAN. ) );
#239 = ORIENTED_EDGE ( 'NONE', *, *, #26, .F. ) ;
#240 = AXIS2_PLACEMENT_3D ( 'NONE', #265, #203, #235 ) ;
#241 = DIRECTION ( 'NONE',  ( 0.000000000000000000, 0.000000000000000000, 1.000000000000000000 ) ) ;
#242 = ORIENTED_EDGE ( 'NONE', *, *, #276, .T. ) ;
#243 = CALENDAR_DATE ( 2022, 8, 7 ) ;
#244 = CALENDAR_DATE ( 2022, 8, 7 ) ;
#245 = VERTEX_POINT ( 'NONE', #267 ) ;
#246 = ADVANCED_FACE ( 'NONE', ( #100 ), #325, .T. ) ;
#247 = PERSON_AND_ORGANIZATION ( #29, #335 ) ;
#248 = DIRECTION ( 'NONE',  ( 0.000000000000000000, 0.000000000000000000, 1.000000000000000000 ) ) ;
#249 = CARTESIAN_POINT ( 'NONE',  ( 0.000000000000000000, 0.000000000000000000, 0.000000000000000000 ) ) ;
#250 = APPROVAL_PERSON_ORGANIZATION ( #369, #273, #188 ) ;
#251 = CARTESIAN_POINT ( 'NONE',  ( 8.000000000000000000, 9.797174393178825657E-16, 0.000000000000000000 ) ) ;
#252 = DATE_AND_TIME ( #88, #368 ) ;
#253 = DIRECTION ( 'NONE',  ( 0.000000000000000000, 0.000000000000000000, 1.000000000000000000 ) ) ;
#254 = UNCERTAINTY_MEASURE_WITH_UNIT (LENGTH_MEASURE( 1.000000000000000082E-05 ), #37, 'distance_accuracy_value', 'NONE');
#255 = EDGE_CURVE ( 'NONE', #270, #134, #260, .T. ) ;
#256 = ADVANCED_FACE ( 'NONE', ( #118 ), #234, .T. ) ;
#257 = ORIENTED_EDGE ( 'NONE', *, *, #23, .T. ) ;
#258 = ADVANCED_FACE ( 'NONE', ( #4 ), #122, .T. ) ;
#259 = DIRECTION ( 'NONE',  ( 0.000000000000000000, 0.000000000000000000, -1.000000000000000000 ) ) ;
#260 = LINE ( 'NONE', #120, #299 ) ;
#261 = LINE ( 'NONE', #8, #186 ) ;
#262 = VERTEX_POINT ( 'NONE', #64 ) ;
#263 = VECTOR ( 'NONE', #110, 1000.000000000000000 ) ;
#264 = CARTESIAN_POINT ( 'NONE',  ( 0.000000000000000000, 0.000000000000000000, 105.0000000000000142 ) ) ;
#265 = CARTESIAN_POINT ( 'NONE',  ( 0.000000000000000000, 0.000000000000000000, 105.0000000000000142 ) ) ;
#266 = APPROVAL_PERSON_ORGANIZATION ( #279, #173, #145 ) ;
#267 = CARTESIAN_POINT ( 'NONE',  ( 2.500000000000000000, 3.061616997868383141E-16, 0.000000000000000000 ) ) ;
#268 = CARTESIAN_POINT ( 'NONE',  ( 0.000000000000000000, 0.000000000000000000, 105.0000000000000142 ) ) ;
#269 = CARTESIAN_POINT ( 'NONE',  ( 0.000000000000000000, 0.000000000000000000, 5.500000000000005329 ) ) ;
#270 = VERTEX_POINT ( 'NONE', #31 ) ;
#271 = PERSON_AND_ORGANIZATION ( #29, #335 ) ;
#272 = EDGE_LOOP ( 'NONE', ( #307, #297, #80, #372 ) ) ;
#273 = APPROVAL ( #74, 'NEURÈENÝ' ) ;
#274 = MANIFOLD_SOLID_BREP ( 'Odebrat vysunutím3', #285 ) ;
#275 = PERSON_AND_ORGANIZATION_ROLE ( 'design_supplier' ) ;
#276 = EDGE_CURVE ( 'NONE', #155, #16, #81, .T. ) ;
#277 = AXIS2_PLACEMENT_3D ( 'NONE', #197, #49, #170 ) ;
#278 = AXIS2_PLACEMENT_3D ( 'NONE', #156, #237, #320 ) ;
#279 = PERSON_AND_ORGANIZATION ( #29, #335 ) ;
#280 = ORIENTED_EDGE ( 'NONE', *, *, #336, .T. ) ;
#281 = EDGE_CURVE ( 'NONE', #72, #99, #208, .T. ) ;
#282 = CARTESIAN_POINT ( 'NONE',  ( 0.000000000000000000, 0.000000000000000000, 0.000000000000000000 ) ) ;
#283 = AXIS2_PLACEMENT_3D ( 'NONE', #13, #135, #167 ) ;
#284 = LINE ( 'NONE', #306, #263 ) ;
#285 = CLOSED_SHELL ( 'NONE', ( #374, #191, #246, #258, #124, #294, #57, #256, #6, #308, #12 ) ) ;
#286 = DIRECTION ( 'NONE',  ( 1.000000000000000000, 0.000000000000000000, 0.000000000000000000 ) ) ;
#287 = CARTESIAN_POINT ( 'NONE',  ( 0.000000000000000000, 0.000000000000000000, 5.000000000000000000 ) ) ;
#288 = DIRECTION ( 'NONE',  ( 1.000000000000000000, 0.000000000000000000, 0.000000000000000000 ) ) ;
#289 = DIRECTION ( 'NONE',  ( 0.000000000000000000, -1.000000000000000000, 0.000000000000000000 ) ) ;
#290 = DIRECTION ( 'NONE',  ( 0.000000000000000000, 0.000000000000000000, -1.000000000000000000 ) ) ;
#291 = CIRCLE ( 'NONE', #86, 5.500000000000000000 ) ;
#292 = CARTESIAN_POINT ( 'NONE',  ( 0.000000000000000000, 0.000000000000000000, 105.0000000000000142 ) ) ;
#293 = DIRECTION ( 'NONE',  ( 0.000000000000000000, 0.000000000000000000, 1.000000000000000000 ) ) ;
#294 = ADVANCED_FACE ( 'NONE', ( #181, #67 ), #28, .T. ) ;
#295 = EDGE_CURVE ( 'NONE', #304, #330, #291, .T. ) ;
#296 = COORDINATED_UNIVERSAL_TIME_OFFSET ( 1, 0, .AHEAD. ) ;
#297 = ORIENTED_EDGE ( 'NONE', *, *, #255, .T. ) ;
#298 = CIRCLE ( 'NONE', #166, 5.000000000000000000 ) ;
#299 = VECTOR ( 'NONE', #69, 1000.000000000000000 ) ;
#300 = EDGE_LOOP ( 'NONE', ( #371, #9, #114, #176 ) ) ;
#301 = CC_DESIGN_PERSON_AND_ORGANIZATION_ASSIGNMENT ( #82, #192, ( #158 ) ) ;
#302 = CALENDAR_DATE ( 2022, 8, 7 ) ;
#303 = CARTESIAN_POINT ( 'NONE',  ( -8.000000000000000000, 0.000000000000000000, 5.000000000000000000 ) ) ;
#304 = VERTEX_POINT ( 'NONE', #131 ) ;
#305 = AXIS2_PLACEMENT_3D ( 'NONE', #24, #146, #87 ) ;
#306 = CARTESIAN_POINT ( 'NONE',  ( -2.500000000000000000, 0.000000000000000000, 105.0000000000000142 ) ) ;
#307 = ORIENTED_EDGE ( 'NONE', *, *, #160, .F. ) ;
#308 = ADVANCED_FACE ( 'NONE', ( #187 ), #350, .F. ) ;
#309 = CARTESIAN_POINT ( 'NONE',  ( 0.000000000000000000, 0.000000000000000000, 105.0000000000000142 ) ) ;
#310 = FACE_OUTER_BOUND ( 'NONE', #207, .T. ) ;
#311 = CIRCLE ( 'NONE', #329, 5.000000000000000000 ) ;
#312 = AXIS2_PLACEMENT_3D ( 'NONE', #154, #290, #184 ) ;
#313 = ORIENTED_EDGE ( 'NONE', *, *, #255, .F. ) ;
#314 = CIRCLE ( 'NONE', #59, 0.5000000000000004441 ) ;
#315 = DIRECTION ( 'NONE',  ( 0.000000000000000000, 0.000000000000000000, 1.000000000000000000 ) ) ;
#316 = ORIENTED_EDGE ( 'NONE', *, *, #295, .T. ) ;
#317 = CARTESIAN_POINT ( 'NONE',  ( 0.000000000000000000, 0.000000000000000000, 105.0000000000000142 ) ) ;
#318 = DIRECTION ( 'NONE',  ( 1.000000000000000000, 0.000000000000000000, 0.000000000000000000 ) ) ;
#319 = VERTEX_POINT ( 'NONE', #354 ) ;
#320 = DIRECTION ( 'NONE',  ( -1.000000000000000000, 0.000000000000000000, 0.000000000000000000 ) ) ;
#321 = EDGE_CURVE ( 'NONE', #99, #72, #358, .T. ) ;
#322 = EDGE_LOOP ( 'NONE', ( #220, #25, #280, #362 ) ) ;
#323 = CIRCLE ( 'NONE', #5, 5.500000000000000000 ) ;
#324 = PRODUCT ( '35a3', '35a3', '', ( #161 ) ) ;
#325 = CYLINDRICAL_SURFACE ( 'NONE', #378, 5.000000000000000000 ) ;
#326 = CARTESIAN_POINT ( 'NONE',  ( 0.000000000000000000, 0.000000000000000000, 5.000000000000000000 ) ) ;
#327 = TOROIDAL_SURFACE ( 'NONE', #366, 5.500000000000000000, 0.5000000000000000000 ) ;
#328 = ORIENTED_EDGE ( 'NONE', *, *, #121, .F. ) ;
#329 = AXIS2_PLACEMENT_3D ( 'NONE', #93, #315, #60 ) ;
#330 = VERTEX_POINT ( 'NONE', #71 ) ;
#331 = APPROVAL_DATE_TIME ( #217, #273 ) ;
#332 = SECURITY_CLASSIFICATION_LEVEL ( 'unclassified' ) ;
#333 = ORIENTED_EDGE ( 'NONE', *, *, #107, .F. ) ;
#334 = VECTOR ( 'NONE', #153, 1000.000000000000000 ) ;
#335 = ORGANIZATION ( 'NEURÈENÝ', 'NEURÈENÝ', '' ) ;
#336 = EDGE_CURVE ( 'NONE', #262, #304, #117, .T. ) ;
#337 = ORIENTED_EDGE ( 'NONE', *, *, #356, .T. ) ;
#338 = APPLICATION_PROTOCOL_DEFINITION ( 'international standard', 'config_control_design', 1994, #58 ) ;
#339 = CC_DESIGN_DATE_AND_TIME_ASSIGNMENT ( #365, #214, ( #231 ) ) ;
#340 = CARTESIAN_POINT ( 'NONE',  ( -8.000000000000000000, 0.000000000000000000, 5.000000000000000000 ) ) ;
#341 = AXIS2_PLACEMENT_3D ( 'NONE', #46, #253, #22 ) ;
#342 = CIRCLE ( 'NONE', #213, 8.000000000000000000 ) ;
#343 = DIRECTION ( 'NONE',  ( 1.000000000000000000, 0.000000000000000000, -0.000000000000000000 ) ) ;
#344 = DESIGN_CONTEXT ( 'detailed design', #58, 'design' ) ;
#345 = CYLINDRICAL_SURFACE ( 'NONE', #177, 2.500000000000000000 ) ;
#346 = DIRECTION ( 'NONE',  ( 1.000000000000000000, 0.000000000000000000, -0.000000000000000000 ) ) ;
#347 = CIRCLE ( 'NONE', #341, 8.000000000000000000 ) ;
#348 = COORDINATED_UNIVERSAL_TIME_OFFSET ( 1, 0, .AHEAD. ) ;
#349 = EDGE_CURVE ( 'NONE', #319, #134, #342, .T. ) ;
#350 = TOROIDAL_SURFACE ( 'NONE', #70, 5.500000000000000000, 0.5000000000000000000 ) ;
#351 = ORIENTED_EDGE ( 'NONE', *, *, #121, .T. ) ;
#352 = ORIENTED_EDGE ( 'NONE', *, *, #364, .T. ) ;
#353 = AXIS2_PLACEMENT_3D ( 'NONE', #53, #55, #19 ) ;
#354 = CARTESIAN_POINT ( 'NONE',  ( -8.000000000000000000, 0.000000000000000000, 0.000000000000000000 ) ) ;
#355 = ORIENTED_EDGE ( 'NONE', *, *, #218, .T. ) ;
#356 = EDGE_CURVE ( 'NONE', #367, #262, #311, .T. ) ;
#357 = APPLICATION_CONTEXT ( 'configuration controlled 3d designs of mechanical parts and assemblies' ) ;
#358 = CIRCLE ( 'NONE', #240, 2.500000000000000000 ) ;
#359 = CARTESIAN_POINT ( 'NONE',  ( -5.000000000000000000, 0.000000000000000000, 5.500000000000005329 ) ) ;
#360 = EDGE_LOOP ( 'NONE', ( #201, #152, #233, #189 ) ) ;
#361 = DIRECTION ( 'NONE',  ( 1.000000000000000000, 0.000000000000000000, 0.000000000000000000 ) ) ;
#362 = ORIENTED_EDGE ( 'NONE', *, *, #33, .F. ) ;
#363 = CC_DESIGN_DATE_AND_TIME_ASSIGNMENT ( #45, #229, ( #54 ) ) ;
#364 = EDGE_CURVE ( 'NONE', #72, #245, #261, .T. ) ;
#365 = DATE_AND_TIME ( #243, #27 ) ;
#366 = AXIS2_PLACEMENT_3D ( 'NONE', #66, #128, #209 ) ;
#367 = VERTEX_POINT ( 'NONE', #359 ) ;
#368 = LOCAL_TIME ( 17, 17, 28.00000000000000000, #348 ) ;
#369 = PERSON_AND_ORGANIZATION ( #29, #335 ) ;
#370 = PERSON_AND_ORGANIZATION_ROLE ( 'creator' ) ;
#371 = ORIENTED_EDGE ( 'NONE', *, *, #356, .F. ) ;
#372 = ORIENTED_EDGE ( 'NONE', *, *, #23, .F. ) ;
#373 = DIRECTION ( 'NONE',  ( -0.000000000000000000, -0.000000000000000000, -1.000000000000000000 ) ) ;
#374 = ADVANCED_FACE ( 'NONE', ( #62 ), #30, .F. ) ;
#375 = CYLINDRICAL_SURFACE ( 'NONE', #353, 8.000000000000000000 ) ;
#376 = CARTESIAN_POINT ( 'NONE',  ( 0.000000000000000000, 0.000000000000000000, 105.0000000000000142 ) ) ;
#377 = DIRECTION ( 'NONE',  ( 1.000000000000000000, 0.000000000000000000, 0.000000000000000000 ) ) ;
#378 = AXIS2_PLACEMENT_3D ( 'NONE', #317, #159, #179 ) ;
#379 = PRODUCT_RELATED_PRODUCT_CATEGORY ( 'detail', '', ( #324 ) ) ;
#380 = SHAPE_DEFINITION_REPRESENTATION ( #211, #180 ) ;
#381 = VERTEX_POINT ( 'NONE', #98 ) ;
ENDSEC;
END-ISO-10303-21;
