ISO-10303-21;
HEADER;
FILE_DESCRIPTION (( 'STEP AP203' ),
    '1' );
FILE_NAME ('ebff.STEP',
    '2022-07-08T15:04:32',
    ( '' ),
    ( '' ),
    'SwSTEP 2.0',
    'SolidWorks 2019',
    '' );
FILE_SCHEMA (( 'CONFIG_CONTROL_DESIGN' ));
ENDSEC;

DATA;
#1 = DIRECTION ( 'NONE',  ( -0.000000000000000000, -0.000000000000000000, -1.000000000000000000 ) ) ;
#2 = ADVANCED_FACE ( 'NONE', ( #80, #100 ), #368, .T. ) ;
#3 = VECTOR ( 'NONE', #331, 1000.000000000000000 ) ;
#4 = CARTESIAN_POINT ( 'NONE',  ( 0.000000000000000000, 0.000000000000000000, 355.0000000000000000 ) ) ;
#5 = ORIENTED_EDGE ( 'NONE', *, *, #355, .F. ) ;
#6 = EDGE_LOOP ( 'NONE', ( #41, #177 ) ) ;
#7 = EDGE_CURVE ( 'NONE', #8, #241, #32, .T. ) ;
#8 = VERTEX_POINT ( 'NONE', #76 ) ;
#9 = CIRCLE ( 'NONE', #218, 5.000000000000000000 ) ;
#10 = ORIENTED_EDGE ( 'NONE', *, *, #7, .F. ) ;
#11 = ORIENTED_EDGE ( 'NONE', *, *, #75, .F. ) ;
#12 = DIRECTION ( 'NONE',  ( 0.000000000000000000, 0.000000000000000000, 1.000000000000000000 ) ) ;
#13 = EDGE_CURVE ( 'NONE', #276, #174, #245, .T. ) ;
#14 = ORIENTED_EDGE ( 'NONE', *, *, #38, .F. ) ;
#15 = AXIS2_PLACEMENT_3D ( 'NONE', #112, #311, #50 ) ;
#16 = DIRECTION ( 'NONE',  ( 0.000000000000000000, 0.000000000000000000, 1.000000000000000000 ) ) ;
#17 = EDGE_LOOP ( 'NONE', ( #146, #203 ) ) ;
#18 = EDGE_CURVE ( 'NONE', #189, #22, #251, .T. ) ;
#19 = CARTESIAN_POINT ( 'NONE',  ( 8.000000000000000000, 9.797174393178825657E-16, 5.000000000000000000 ) ) ;
#20 = VECTOR ( 'NONE', #85, 1000.000000000000000 ) ;
#21 = APPROVAL_ROLE ( '' ) ;
#22 = VERTEX_POINT ( 'NONE', #181 ) ;
#23 = CARTESIAN_POINT ( 'NONE',  ( -5.000000000000000000, 0.000000000000000000, 355.0000000000000000 ) ) ;
#24 = CC_DESIGN_PERSON_AND_ORGANIZATION_ASSIGNMENT ( #287, #197, ( #106 ) ) ;
#25 = CARTESIAN_POINT ( 'NONE',  ( 5.000000000000000000, 6.123233995736766282E-16, 5.500000000000005329 ) ) ;
#26 = CIRCLE ( 'NONE', #270, 5.500000000000000000 ) ;
#27 = CC_DESIGN_PERSON_AND_ORGANIZATION_ASSIGNMENT ( #275, #135, ( #102 ) ) ;
#28 = DIRECTION ( 'NONE',  ( 1.000000000000000000, 0.000000000000000000, -0.000000000000000000 ) ) ;
#29 = ORIENTED_EDGE ( 'NONE', *, *, #18, .T. ) ;
#30 = EDGE_LOOP ( 'NONE', ( #294, #337, #362, #67 ) ) ;
#31 = DIRECTION ( 'NONE',  ( -1.000000000000000000, 0.000000000000000000, 0.000000000000000000 ) ) ;
#32 = CIRCLE ( 'NONE', #381, 2.750000000000000000 ) ;
#33 = DIRECTION ( 'NONE',  ( 1.000000000000000000, 0.000000000000000000, 0.000000000000000000 ) ) ;
#34 = ORIENTED_EDGE ( 'NONE', *, *, #256, .F. ) ;
#35 = CIRCLE ( 'NONE', #178, 0.5000000000000004441 ) ;
#36 = CC_DESIGN_APPROVAL ( #190, ( #106 ) ) ;
#37 = ORIENTED_EDGE ( 'NONE', *, *, #145, .T. ) ;
#38 = EDGE_CURVE ( 'NONE', #327, #8, #156, .T. ) ;
#39 = FACE_OUTER_BOUND ( 'NONE', #30, .T. ) ;
#40 = VERTEX_POINT ( 'NONE', #19 ) ;
#41 = ORIENTED_EDGE ( 'NONE', *, *, #75, .T. ) ;
#42 = AXIS2_PLACEMENT_3D ( 'NONE', #351, #89, #317 ) ;
#43 = DIRECTION ( 'NONE',  ( 1.000000000000000000, 0.000000000000000000, 0.000000000000000000 ) ) ;
#44 = ORIENTED_EDGE ( 'NONE', *, *, #45, .T. ) ;
#45 = EDGE_CURVE ( 'NONE', #297, #241, #298, .T. ) ;
#46 = ORIENTED_EDGE ( 'NONE', *, *, #113, .F. ) ;
#47 = EDGE_LOOP ( 'NONE', ( #90, #95 ) ) ;
#48 = CIRCLE ( 'NONE', #235, 2.750000000000000000 ) ;
#49 = CALENDAR_DATE ( 2022, 8, 7 ) ;
#50 = DIRECTION ( 'NONE',  ( 1.000000000000000000, 0.000000000000000000, 0.000000000000000000 ) ) ;
#51 = DATE_TIME_ROLE ( 'classification_date' ) ;
#52 = EDGE_CURVE ( 'NONE', #40, #231, #306, .T. ) ;
#53 = FACE_BOUND ( 'NONE', #6, .T. ) ;
#54 = DIRECTION ( 'NONE',  ( 1.224646799147353207E-16, 1.000000000000000000, -0.000000000000000000 ) ) ;
#55 = DIRECTION ( 'NONE',  ( 0.000000000000000000, 0.000000000000000000, 1.000000000000000000 ) ) ;
#56 = LOCAL_TIME ( 17, 4, 32.00000000000000000, #347 ) ;
#57 = CARTESIAN_POINT ( 'NONE',  ( 0.000000000000000000, 0.000000000000000000, 5.000000000000000000 ) ) ;
#58 = APPROVAL_STATUS ( 'not_yet_approved' ) ;
#59 = CARTESIAN_POINT ( 'NONE',  ( 8.000000000000000000, 9.797174393178825657E-16, 5.000000000000000000 ) ) ;
#60 = ORIENTED_EDGE ( 'NONE', *, *, #375, .F. ) ;
#61 = EDGE_CURVE ( 'NONE', #241, #8, #153, .T. ) ;
#62 = FACE_OUTER_BOUND ( 'NONE', #339, .T. ) ;
#63 = EDGE_LOOP ( 'NONE', ( #34, #46, #152, #325 ) ) ;
#64 = FACE_OUTER_BOUND ( 'NONE', #206, .T. ) ;
#65 = FACE_OUTER_BOUND ( 'NONE', #124, .T. ) ;
#66 = CARTESIAN_POINT ( 'NONE',  ( -2.750000000000000000, 0.000000000000000000, 0.000000000000000000 ) ) ;
#67 = ORIENTED_EDGE ( 'NONE', *, *, #83, .T. ) ;
#68 = CIRCLE ( 'NONE', #15, 2.750000000000000000 ) ;
#69 = AXIS2_PLACEMENT_3D ( 'NONE', #173, #92, #31 ) ;
#70 = ADVANCED_FACE ( 'NONE', ( #255 ), #299, .F. ) ;
#71 =( NAMED_UNIT ( * ) SI_UNIT ( $, .STERADIAN. ) SOLID_ANGLE_UNIT ( ) );
#72 = DIRECTION ( 'NONE',  ( -0.000000000000000000, -0.000000000000000000, -1.000000000000000000 ) ) ;
#73 = CARTESIAN_POINT ( 'NONE',  ( 0.000000000000000000, 0.000000000000000000, 355.0000000000000000 ) ) ;
#74 = VERTEX_POINT ( 'NONE', #162 ) ;
#75 = EDGE_CURVE ( 'NONE', #22, #148, #320, .T. ) ;
#76 = CARTESIAN_POINT ( 'NONE',  ( 2.750000000000000000, 3.367778697655221012E-16, 0.000000000000000000 ) ) ;
#77 = CC_DESIGN_APPROVAL ( #240, ( #127 ) ) ;
#78 = DIRECTION ( 'NONE',  ( 0.000000000000000000, 0.000000000000000000, 1.000000000000000000 ) ) ;
#79 = CARTESIAN_POINT ( 'NONE',  ( -8.000000000000000000, 0.000000000000000000, 5.000000000000000000 ) ) ;
#80 = FACE_BOUND ( 'NONE', #267, .T. ) ;
#81 = PERSON_AND_ORGANIZATION_ROLE ( 'design_supplier' ) ;
#82 = DIRECTION ( 'NONE',  ( 0.000000000000000000, 0.000000000000000000, 1.000000000000000000 ) ) ;
#83 = EDGE_CURVE ( 'NONE', #242, #189, #164, .T. ) ;
#84 = DATE_AND_TIME ( #308, #56 ) ;
#85 = DIRECTION ( 'NONE',  ( -0.000000000000000000, -0.000000000000000000, -1.000000000000000000 ) ) ;
#86 = FACE_OUTER_BOUND ( 'NONE', #47, .T. ) ;
#87 = EDGE_CURVE ( 'NONE', #242, #148, #35, .T. ) ;
#88 = AXIS2_PLACEMENT_3D ( 'NONE', #195, #342, #249 ) ;
#89 = DIRECTION ( 'NONE',  ( 0.000000000000000000, 0.000000000000000000, 1.000000000000000000 ) ) ;
#90 = ORIENTED_EDGE ( 'NONE', *, *, #113, .T. ) ;
#91 = CALENDAR_DATE ( 2022, 8, 7 ) ;
#92 = DIRECTION ( 'NONE',  ( 0.000000000000000000, 0.000000000000000000, -1.000000000000000000 ) ) ;
#93 = APPROVAL ( #304, 'NEURÈENÝ' ) ;
#94 = CARTESIAN_POINT ( 'NONE',  ( 0.000000000000000000, 0.000000000000000000, 5.500000000000005329 ) ) ;
#95 = ORIENTED_EDGE ( 'NONE', *, *, #52, .T. ) ;
#96 = DIRECTION ( 'NONE',  ( 0.000000000000000000, 0.000000000000000000, 1.000000000000000000 ) ) ;
#97 = ADVANCED_FACE ( 'NONE', ( #53, #86 ), #196, .T. ) ;
#98 = ORIENTED_EDGE ( 'NONE', *, *, #18, .F. ) ;
#99 = VECTOR ( 'NONE', #370, 1000.000000000000000 ) ;
#100 = FACE_OUTER_BOUND ( 'NONE', #17, .T. ) ;
#101 = LOCAL_TIME ( 17, 4, 32.00000000000000000, #312 ) ;
#102 = PRODUCT ( 'ebff', 'ebff', '', ( #188 ) ) ;
#103 = EDGE_LOOP ( 'NONE', ( #220, #319, #364, #60 ) ) ;
#104 = CC_DESIGN_PERSON_AND_ORGANIZATION_ASSIGNMENT ( #341, #81, ( #336 ) ) ;
#105 = DIRECTION ( 'NONE',  ( 0.000000000000000000, 0.000000000000000000, 1.000000000000000000 ) ) ;
#106 = SECURITY_CLASSIFICATION ( '', '', #194 ) ;
#107 = ADVANCED_BREP_SHAPE_REPRESENTATION ( 'ebff', ( #193, #302 ), #264 ) ;
#108 = APPROVAL_ROLE ( '' ) ;
#109 = DIRECTION ( 'NONE',  ( 1.000000000000000000, 0.000000000000000000, 0.000000000000000000 ) ) ;
#110 = AXIS2_PLACEMENT_3D ( 'NONE', #345, #313, #348 ) ;
#111 = CARTESIAN_POINT ( 'NONE',  ( 0.000000000000000000, 0.000000000000000000, 5.000000000000000000 ) ) ;
#112 = CARTESIAN_POINT ( 'NONE',  ( 0.000000000000000000, 0.000000000000000000, 355.0000000000000000 ) ) ;
#113 = EDGE_CURVE ( 'NONE', #231, #40, #170, .T. ) ;
#114 = CALENDAR_DATE ( 2022, 8, 7 ) ;
#115 = CARTESIAN_POINT ( 'NONE',  ( -5.500000000000000000, 6.735557395310442023E-16, 5.500000000000005329 ) ) ;
#116 = DIRECTION ( 'NONE',  ( 0.000000000000000000, 0.000000000000000000, -1.000000000000000000 ) ) ;
#117 = AXIS2_PLACEMENT_3D ( 'NONE', #172, #361, #28 ) ;
#118 = CYLINDRICAL_SURFACE ( 'NONE', #353, 8.000000000000000000 ) ;
#119 = COORDINATED_UNIVERSAL_TIME_OFFSET ( 1, 0, .AHEAD. ) ;
#120 = DIRECTION ( 'NONE',  ( 1.000000000000000000, 0.000000000000000000, 0.000000000000000000 ) ) ;
#121 = DATE_AND_TIME ( #91, #151 ) ;
#122 = CARTESIAN_POINT ( 'NONE',  ( 0.000000000000000000, 0.000000000000000000, 0.000000000000000000 ) ) ;
#123 = AXIS2_PLACEMENT_3D ( 'NONE', #225, #373, #198 ) ;
#124 = EDGE_LOOP ( 'NONE', ( #292, #126, #11, #98 ) ) ;
#125 = CIRCLE ( 'NONE', #258, 8.000000000000000000 ) ;
#126 = ORIENTED_EDGE ( 'NONE', *, *, #87, .T. ) ;
#127 = PRODUCT_DEFINITION ( 'NEZNÁMÝ', '', #336, #224 ) ;
#128 = CARTESIAN_POINT ( 'NONE',  ( 5.000000000000000000, 6.123233995736766282E-16, 355.0000000000000000 ) ) ;
#129 = APPLICATION_PROTOCOL_DEFINITION ( 'international standard', 'config_control_design', 1994, #365 ) ;
#130 = LINE ( 'NONE', #79, #3 ) ;
#131 = ORIENTED_EDGE ( 'NONE', *, *, #228, .F. ) ;
#132 = ORIENTED_EDGE ( 'NONE', *, *, #38, .T. ) ;
#133 =( LENGTH_UNIT ( ) NAMED_UNIT ( * ) SI_UNIT ( .MILLI., .METRE. ) );
#134 = ORIENTED_EDGE ( 'NONE', *, *, #87, .F. ) ;
#135 = PERSON_AND_ORGANIZATION_ROLE ( 'design_owner' ) ;
#136 = CIRCLE ( 'NONE', #253, 5.000000000000000000 ) ;
#137 = EDGE_CURVE ( 'NONE', #261, #189, #143, .T. ) ;
#138 = DIRECTION ( 'NONE',  ( 0.000000000000000000, 0.000000000000000000, 1.000000000000000000 ) ) ;
#139 = DATE_TIME_ROLE ( 'creation_date' ) ;
#140 = PERSON_AND_ORGANIZATION_ROLE ( 'creator' ) ;
#141 = DIRECTION ( 'NONE',  ( 1.000000000000000000, 0.000000000000000000, 0.000000000000000000 ) ) ;
#142 = ORGANIZATION ( 'NEURÈENÝ', 'NEURÈENÝ', '' ) ;
#143 = LINE ( 'NONE', #350, #229 ) ;
#144 = AXIS2_PLACEMENT_3D ( 'NONE', #380, #116, #227 ) ;
#145 = EDGE_CURVE ( 'NONE', #327, #297, #68, .T. ) ;
#146 = ORIENTED_EDGE ( 'NONE', *, *, #360, .T. ) ;
#147 = FACE_OUTER_BOUND ( 'NONE', #103, .T. ) ;
#148 = VERTEX_POINT ( 'NONE', #288 ) ;
#149 = DIRECTION ( 'NONE',  ( -1.000000000000000000, 0.000000000000000000, 0.000000000000000000 ) ) ;
#150 = ORIENTED_EDGE ( 'NONE', *, *, #61, .T. ) ;
#151 = LOCAL_TIME ( 17, 4, 32.00000000000000000, #119 ) ;
#152 = ORIENTED_EDGE ( 'NONE', *, *, #375, .T. ) ;
#153 = CIRCLE ( 'NONE', #110, 2.750000000000000000 ) ;
#154 = CARTESIAN_POINT ( 'NONE',  ( 0.000000000000000000, 0.000000000000000000, 5.500000000000005329 ) ) ;
#155 = CARTESIAN_POINT ( 'NONE',  ( 0.000000000000000000, 0.000000000000000000, 355.0000000000000000 ) ) ;
#156 = LINE ( 'NONE', #274, #99 ) ;
#157 = CC_DESIGN_PERSON_AND_ORGANIZATION_ASSIGNMENT ( #278, #140, ( #127 ) ) ;
#158 = PERSON_AND_ORGANIZATION ( #252, #142 ) ;
#159 = DIRECTION ( 'NONE',  ( 0.000000000000000000, -1.000000000000000000, 0.000000000000000000 ) ) ;
#160 = AXIS2_PLACEMENT_3D ( 'NONE', #73, #338, #301 ) ;
#161 = DATE_AND_TIME ( #114, #101 ) ;
#162 = CARTESIAN_POINT ( 'NONE',  ( -5.000000000000000000, 0.000000000000000000, 355.0000000000000000 ) ) ;
#163 = EDGE_CURVE ( 'NONE', #74, #242, #282, .T. ) ;
#164 = CIRCLE ( 'NONE', #262, 5.000000000000000000 ) ;
#165 = CARTESIAN_POINT ( 'NONE',  ( 0.000000000000000000, 0.000000000000000000, 5.000000000000000000 ) ) ;
#166 = CC_DESIGN_APPROVAL ( #93, ( #336 ) ) ;
#167 = CYLINDRICAL_SURFACE ( 'NONE', #144, 2.750000000000000000 ) ;
#168 = DIRECTION ( 'NONE',  ( -0.000000000000000000, -0.000000000000000000, -1.000000000000000000 ) ) ;
#169 = APPROVAL_ROLE ( '' ) ;
#170 = CIRCLE ( 'NONE', #88, 8.000000000000000000 ) ;
#171 = AXIS2_PLACEMENT_3D ( 'NONE', #94, #357, #208 ) ;
#172 = CARTESIAN_POINT ( 'NONE',  ( 0.000000000000000000, 0.000000000000000000, 0.000000000000000000 ) ) ;
#173 = CARTESIAN_POINT ( 'NONE',  ( 0.000000000000000000, 0.000000000000000000, 355.0000000000000000 ) ) ;
#174 = VERTEX_POINT ( 'NONE', #285 ) ;
#175 = DIRECTION ( 'NONE',  ( -0.000000000000000000, -0.000000000000000000, -1.000000000000000000 ) ) ;
#176 = AXIS2_PLACEMENT_3D ( 'NONE', #271, #159, #332 ) ;
#177 = ORIENTED_EDGE ( 'NONE', *, *, #228, .T. ) ;
#178 = AXIS2_PLACEMENT_3D ( 'NONE', #115, #54, #222 ) ;
#179 = CARTESIAN_POINT ( 'NONE',  ( 8.000000000000000000, 9.797174393178825657E-16, 0.000000000000000000 ) ) ;
#180 = EDGE_LOOP ( 'NONE', ( #210, #10 ) ) ;
#181 = CARTESIAN_POINT ( 'NONE',  ( 5.500000000000000000, 0.000000000000000000, 5.000000000000002665 ) ) ;
#182 = CC_DESIGN_DATE_AND_TIME_ASSIGNMENT ( #310, #51, ( #106 ) ) ;
#183 = CARTESIAN_POINT ( 'NONE',  ( -2.750000000000000000, 0.000000000000000000, 355.0000000000000000 ) ) ;
#184 = CYLINDRICAL_SURFACE ( 'NONE', #160, 5.000000000000000000 ) ;
#185 = ORIENTED_EDGE ( 'NONE', *, *, #340, .F. ) ;
#186 = LOCAL_TIME ( 17, 4, 32.00000000000000000, #284 ) ;
#187 = PRODUCT_DEFINITION_SHAPE ( 'NONE', 'NONE',  #127 ) ;
#188 = MECHANICAL_CONTEXT ( 'NONE', #365, 'mechanical' ) ;
#189 = VERTEX_POINT ( 'NONE', #25 ) ;
#190 = APPROVAL ( #58, 'NEURÈENÝ' ) ;
#191 = APPROVAL_DATE_TIME ( #226, #240 ) ;
#192 = CARTESIAN_POINT ( 'NONE',  ( 0.000000000000000000, 0.000000000000000000, 0.000000000000000000 ) ) ;
#193 = MANIFOLD_SOLID_BREP ( 'Odebrat vysunutím3', #233 ) ;
#194 = SECURITY_CLASSIFICATION_LEVEL ( 'unclassified' ) ;
#195 = CARTESIAN_POINT ( 'NONE',  ( 0.000000000000000000, 0.000000000000000000, 5.000000000000000000 ) ) ;
#196 = PLANE ( 'NONE',  #247 ) ;
#197 = PERSON_AND_ORGANIZATION_ROLE ( 'classification_officer' ) ;
#198 = DIRECTION ( 'NONE',  ( 1.000000000000000000, 0.000000000000000000, 0.000000000000000000 ) ) ;
#199 = APPROVAL_PERSON_ORGANIZATION ( #254, #93, #108 ) ;
#200 = DIRECTION ( 'NONE',  ( 1.000000000000000000, 0.000000000000000000, -0.000000000000000000 ) ) ;
#201 = ADVANCED_FACE ( 'NONE', ( #257 ), #167, .F. ) ;
#202 = DIRECTION ( 'NONE',  ( -1.000000000000000000, 0.000000000000000000, 0.000000000000000000 ) ) ;
#203 = ORIENTED_EDGE ( 'NONE', *, *, #214, .T. ) ;
#204 = AXIS2_PLACEMENT_3D ( 'NONE', #213, #78, #215 ) ;
#205 = CARTESIAN_POINT ( 'NONE',  ( 0.000000000000000000, 0.000000000000000000, 5.000000000000000000 ) ) ;
#206 = EDGE_LOOP ( 'NONE', ( #263, #212, #243, #333 ) ) ;
#207 = CIRCLE ( 'NONE', #42, 5.000000000000000000 ) ;
#208 = DIRECTION ( 'NONE',  ( 1.000000000000000000, 0.000000000000000000, 0.000000000000000000 ) ) ;
#209 = ORIENTED_EDGE ( 'NONE', *, *, #13, .F. ) ;
#210 = ORIENTED_EDGE ( 'NONE', *, *, #61, .F. ) ;
#211 = PLANE ( 'NONE',  #117 ) ;
#212 = ORIENTED_EDGE ( 'NONE', *, *, #137, .T. ) ;
#213 = CARTESIAN_POINT ( 'NONE',  ( 0.000000000000000000, 0.000000000000000000, 0.000000000000000000 ) ) ;
#214 = EDGE_CURVE ( 'NONE', #261, #74, #207, .T. ) ;
#215 = DIRECTION ( 'NONE',  ( 1.000000000000000000, 0.000000000000000000, 0.000000000000000000 ) ) ;
#216 = DIRECTION ( 'NONE',  ( 0.000000000000000000, 0.000000000000000000, 1.000000000000000000 ) ) ;
#217 = ORIENTED_EDGE ( 'NONE', *, *, #272, .F. ) ;
#218 = AXIS2_PLACEMENT_3D ( 'NONE', #154, #12, #273 ) ;
#219 = APPROVAL_STATUS ( 'not_yet_approved' ) ;
#220 = ORIENTED_EDGE ( 'NONE', *, *, #52, .F. ) ;
#221 = PERSON_AND_ORGANIZATION_ROLE ( 'creator' ) ;
#222 = DIRECTION ( 'NONE',  ( -1.000000000000000000, 1.224646799147351482E-16, 0.000000000000000000 ) ) ;
#223 = CARTESIAN_POINT ( 'NONE',  ( 0.000000000000000000, 0.000000000000000000, 5.500000000000005329 ) ) ;
#224 = DESIGN_CONTEXT ( 'detailed design', #268, 'design' ) ;
#225 = CARTESIAN_POINT ( 'NONE',  ( 0.000000000000000000, 0.000000000000000000, 5.000000000000000000 ) ) ;
#226 = DATE_AND_TIME ( #49, #186 ) ;
#227 = DIRECTION ( 'NONE',  ( -1.000000000000000000, 0.000000000000000000, 0.000000000000000000 ) ) ;
#228 = EDGE_CURVE ( 'NONE', #148, #22, #26, .T. ) ;
#229 = VECTOR ( 'NONE', #280, 1000.000000000000000 ) ;
#230 = DIRECTION ( 'NONE',  ( -0.000000000000000000, -0.000000000000000000, -1.000000000000000000 ) ) ;
#231 = VERTEX_POINT ( 'NONE', #324 ) ;
#232 = ADVANCED_FACE ( 'NONE', ( #293 ), #118, .T. ) ;
#233 = CLOSED_SHELL ( 'NONE', ( #201, #244, #279, #314, #232, #97, #321, #346, #2, #70, #307 ) ) ;
#234 = DIRECTION ( 'NONE',  ( 0.000000000000000000, 0.000000000000000000, 1.000000000000000000 ) ) ;
#235 = AXIS2_PLACEMENT_3D ( 'NONE', #4, #96, #120 ) ;
#236 = CYLINDRICAL_SURFACE ( 'NONE', #69, 2.750000000000000000 ) ;
#237 = EDGE_LOOP ( 'NONE', ( #303, #132, #296, #329 ) ) ;
#238 = CARTESIAN_POINT ( 'NONE',  ( 0.000000000000000000, 0.000000000000000000, 355.0000000000000000 ) ) ;
#239 = CARTESIAN_POINT ( 'NONE',  ( 0.000000000000000000, 0.000000000000000000, 0.000000000000000000 ) ) ;
#240 = APPROVAL ( #219, 'NEURÈENÝ' ) ;
#241 = VERTEX_POINT ( 'NONE', #66 ) ;
#242 = VERTEX_POINT ( 'NONE', #259 ) ;
#243 = ORIENTED_EDGE ( 'NONE', *, *, #355, .T. ) ;
#244 = ADVANCED_FACE ( 'NONE', ( #65 ), #286, .F. ) ;
#245 = CIRCLE ( 'NONE', #204, 8.000000000000000000 ) ;
#246 = APPLICATION_PROTOCOL_DEFINITION ( 'international standard', 'config_control_design', 1994, #268 ) ;
#247 = AXIS2_PLACEMENT_3D ( 'NONE', #165, #82, #200 ) ;
#248 = CC_DESIGN_SECURITY_CLASSIFICATION ( #106, ( #336 ) ) ;
#249 = DIRECTION ( 'NONE',  ( 1.000000000000000000, 0.000000000000000000, 0.000000000000000000 ) ) ;
#250 = CC_DESIGN_DATE_AND_TIME_ASSIGNMENT ( #84, #139, ( #127 ) ) ;
#251 = CIRCLE ( 'NONE', #176, 0.5000000000000004441 ) ;
#252 = PERSON ( 'NEURÈENÝ', 'NEURÈENÝ', 'NEURÈENÝ', ('NEURÈENÝ'), ('NEURÈENÝ'), ('NEURÈENÝ') ) ;
#253 = AXIS2_PLACEMENT_3D ( 'NONE', #334, #16, #369 ) ;
#254 = PERSON_AND_ORGANIZATION ( #252, #142 ) ;
#255 = FACE_OUTER_BOUND ( 'NONE', #367, .T. ) ;
#256 = EDGE_CURVE ( 'NONE', #40, #276, #318, .T. ) ;
#257 = FACE_OUTER_BOUND ( 'NONE', #237, .T. ) ;
#258 = AXIS2_PLACEMENT_3D ( 'NONE', #122, #234, #43 ) ;
#259 = CARTESIAN_POINT ( 'NONE',  ( -5.000000000000000000, 0.000000000000000000, 5.500000000000005329 ) ) ;
#260 = CARTESIAN_POINT ( 'NONE',  ( 2.750000000000000000, 3.367778697655221012E-16, 355.0000000000000000 ) ) ;
#261 = VERTEX_POINT ( 'NONE', #128 ) ;
#262 = AXIS2_PLACEMENT_3D ( 'NONE', #223, #138, #109 ) ;
#263 = ORIENTED_EDGE ( 'NONE', *, *, #214, .F. ) ;
#264 =( GEOMETRIC_REPRESENTATION_CONTEXT ( 3 ) GLOBAL_UNCERTAINTY_ASSIGNED_CONTEXT ( ( #376 ) ) GLOBAL_UNIT_ASSIGNED_CONTEXT ( ( #133, #371, #71 ) ) REPRESENTATION_CONTEXT ( 'NONE', 'WORKASPACE' ) );
#265 = CYLINDRICAL_SURFACE ( 'NONE', #277, 8.000000000000000000 ) ;
#266 = PRODUCT_RELATED_PRODUCT_CATEGORY ( 'detail', '', ( #102 ) ) ;
#267 = EDGE_LOOP ( 'NONE', ( #217, #354 ) ) ;
#268 = APPLICATION_CONTEXT ( 'configuration controlled 3d designs of mechanical parts and assemblies' ) ;
#269 = VECTOR ( 'NONE', #374, 1000.000000000000000 ) ;
#270 = AXIS2_PLACEMENT_3D ( 'NONE', #57, #168, #33 ) ;
#271 = CARTESIAN_POINT ( 'NONE',  ( 5.500000000000000000, 0.000000000000000000, 5.500000000000005329 ) ) ;
#272 = EDGE_CURVE ( 'NONE', #297, #327, #48, .T. ) ;
#273 = DIRECTION ( 'NONE',  ( 1.000000000000000000, 0.000000000000000000, 0.000000000000000000 ) ) ;
#274 = CARTESIAN_POINT ( 'NONE',  ( 2.750000000000000000, 3.367778697655221012E-16, 355.0000000000000000 ) ) ;
#275 = PERSON_AND_ORGANIZATION ( #252, #142 ) ;
#276 = VERTEX_POINT ( 'NONE', #179 ) ;
#277 = AXIS2_PLACEMENT_3D ( 'NONE', #205, #363, #149 ) ;
#278 = PERSON_AND_ORGANIZATION ( #252, #142 ) ;
#279 = ADVANCED_FACE ( 'NONE', ( #64 ), #328, .T. ) ;
#280 = DIRECTION ( 'NONE',  ( -0.000000000000000000, -0.000000000000000000, -1.000000000000000000 ) ) ;
#281 = PERSON_AND_ORGANIZATION ( #252, #142 ) ;
#282 = LINE ( 'NONE', #23, #20 ) ;
#283 = AXIS2_PLACEMENT_3D ( 'NONE', #315, #55, #141 ) ;
#284 = COORDINATED_UNIVERSAL_TIME_OFFSET ( 1, 0, .AHEAD. ) ;
#285 = CARTESIAN_POINT ( 'NONE',  ( -8.000000000000000000, 0.000000000000000000, 0.000000000000000000 ) ) ;
#286 = TOROIDAL_SURFACE ( 'NONE', #171, 5.500000000000000000, 0.5000000000000000000 ) ;
#287 = PERSON_AND_ORGANIZATION ( #252, #142 ) ;
#288 = CARTESIAN_POINT ( 'NONE',  ( -5.500000000000000000, 6.735557395310442023E-16, 5.000000000000002665 ) ) ;
#289 = AXIS2_PLACEMENT_3D ( 'NONE', #155, #105, #335 ) ;
#290 = SHAPE_DEFINITION_REPRESENTATION ( #187, #107 ) ;
#291 = FACE_OUTER_BOUND ( 'NONE', #358, .T. ) ;
#292 = ORIENTED_EDGE ( 'NONE', *, *, #83, .F. ) ;
#293 = FACE_OUTER_BOUND ( 'NONE', #63, .T. ) ;
#294 = ORIENTED_EDGE ( 'NONE', *, *, #137, .F. ) ;
#295 = CARTESIAN_POINT ( 'NONE',  ( -2.750000000000000000, 0.000000000000000000, 355.0000000000000000 ) ) ;
#296 = ORIENTED_EDGE ( 'NONE', *, *, #7, .T. ) ;
#297 = VERTEX_POINT ( 'NONE', #295 ) ;
#298 = LINE ( 'NONE', #183, #269 ) ;
#299 = TOROIDAL_SURFACE ( 'NONE', #283, 5.500000000000000000, 0.5000000000000000000 ) ;
#300 = CC_DESIGN_PERSON_AND_ORGANIZATION_ASSIGNMENT ( #158, #221, ( #336 ) ) ;
#301 = DIRECTION ( 'NONE',  ( -1.000000000000000000, 0.000000000000000000, 0.000000000000000000 ) ) ;
#302 = AXIS2_PLACEMENT_3D ( 'NONE', #239, #216, #366 ) ;
#303 = ORIENTED_EDGE ( 'NONE', *, *, #272, .T. ) ;
#304 = APPROVAL_STATUS ( 'not_yet_approved' ) ;
#305 = DIRECTION ( 'NONE',  ( 1.000000000000000000, 0.000000000000000000, 0.000000000000000000 ) ) ;
#306 = CIRCLE ( 'NONE', #343, 8.000000000000000000 ) ;
#307 = ADVANCED_FACE ( 'NONE', ( #291 ), #236, .F. ) ;
#308 = CALENDAR_DATE ( 2022, 8, 7 ) ;
#309 = APPROVAL_PERSON_ORGANIZATION ( #281, #190, #169 ) ;
#310 = DATE_AND_TIME ( #344, #316 ) ;
#311 = DIRECTION ( 'NONE',  ( 0.000000000000000000, 0.000000000000000000, 1.000000000000000000 ) ) ;
#312 = COORDINATED_UNIVERSAL_TIME_OFFSET ( 1, 0, .AHEAD. ) ;
#313 = DIRECTION ( 'NONE',  ( -0.000000000000000000, -0.000000000000000000, -1.000000000000000000 ) ) ;
#314 = ADVANCED_FACE ( 'NONE', ( #147 ), #265, .T. ) ;
#315 = CARTESIAN_POINT ( 'NONE',  ( 0.000000000000000000, 0.000000000000000000, 5.500000000000005329 ) ) ;
#316 = LOCAL_TIME ( 17, 4, 32.00000000000000000, #379 ) ;
#317 = DIRECTION ( 'NONE',  ( 1.000000000000000000, 0.000000000000000000, 0.000000000000000000 ) ) ;
#318 = LINE ( 'NONE', #59, #352 ) ;
#319 = ORIENTED_EDGE ( 'NONE', *, *, #256, .T. ) ;
#320 = CIRCLE ( 'NONE', #123, 5.500000000000000000 ) ;
#321 = ADVANCED_FACE ( 'NONE', ( #323, #62 ), #211, .F. ) ;
#322 = APPROVAL_DATE_TIME ( #121, #190 ) ;
#323 = FACE_BOUND ( 'NONE', #180, .T. ) ;
#324 = CARTESIAN_POINT ( 'NONE',  ( -8.000000000000000000, 0.000000000000000000, 5.000000000000000000 ) ) ;
#325 = ORIENTED_EDGE ( 'NONE', *, *, #340, .T. ) ;
#326 = CARTESIAN_POINT ( 'NONE',  ( 0.000000000000000000, 0.000000000000000000, 5.000000000000000000 ) ) ;
#327 = VERTEX_POINT ( 'NONE', #260 ) ;
#328 = CYLINDRICAL_SURFACE ( 'NONE', #330, 5.000000000000000000 ) ;
#329 = ORIENTED_EDGE ( 'NONE', *, *, #45, .F. ) ;
#330 = AXIS2_PLACEMENT_3D ( 'NONE', #238, #230, #356 ) ;
#331 = DIRECTION ( 'NONE',  ( -0.000000000000000000, -0.000000000000000000, -1.000000000000000000 ) ) ;
#332 = DIRECTION ( 'NONE',  ( 0.000000000000000000, 0.000000000000000000, -1.000000000000000000 ) ) ;
#333 = ORIENTED_EDGE ( 'NONE', *, *, #163, .F. ) ;
#334 = CARTESIAN_POINT ( 'NONE',  ( 0.000000000000000000, 0.000000000000000000, 355.0000000000000000 ) ) ;
#335 = DIRECTION ( 'NONE',  ( 1.000000000000000000, 0.000000000000000000, -0.000000000000000000 ) ) ;
#336 = PRODUCT_DEFINITION_FORMATION_WITH_SPECIFIED_SOURCE ( 'LIBOVOLNÝ', '', #102, .NOT_KNOWN. ) ;
#337 = ORIENTED_EDGE ( 'NONE', *, *, #360, .F. ) ;
#338 = DIRECTION ( 'NONE',  ( -0.000000000000000000, -0.000000000000000000, -1.000000000000000000 ) ) ;
#339 = EDGE_LOOP ( 'NONE', ( #185, #209 ) ) ;
#340 = EDGE_CURVE ( 'NONE', #174, #276, #125, .T. ) ;
#341 = PERSON_AND_ORGANIZATION ( #252, #142 ) ;
#342 = DIRECTION ( 'NONE',  ( 0.000000000000000000, 0.000000000000000000, 1.000000000000000000 ) ) ;
#343 = AXIS2_PLACEMENT_3D ( 'NONE', #111, #377, #378 ) ;
#344 = CALENDAR_DATE ( 2022, 8, 7 ) ;
#345 = CARTESIAN_POINT ( 'NONE',  ( 0.000000000000000000, 0.000000000000000000, 0.000000000000000000 ) ) ;
#346 = ADVANCED_FACE ( 'NONE', ( #39 ), #184, .T. ) ;
#347 = COORDINATED_UNIVERSAL_TIME_OFFSET ( 1, 0, .AHEAD. ) ;
#348 = DIRECTION ( 'NONE',  ( 1.000000000000000000, 0.000000000000000000, 0.000000000000000000 ) ) ;
#349 = APPROVAL_DATE_TIME ( #161, #93 ) ;
#350 = CARTESIAN_POINT ( 'NONE',  ( 5.000000000000000000, 6.123233995736766282E-16, 355.0000000000000000 ) ) ;
#351 = CARTESIAN_POINT ( 'NONE',  ( 0.000000000000000000, 0.000000000000000000, 355.0000000000000000 ) ) ;
#352 = VECTOR ( 'NONE', #175, 1000.000000000000000 ) ;
#353 = AXIS2_PLACEMENT_3D ( 'NONE', #326, #1, #202 ) ;
#354 = ORIENTED_EDGE ( 'NONE', *, *, #145, .F. ) ;
#355 = EDGE_CURVE ( 'NONE', #189, #242, #9, .T. ) ;
#356 = DIRECTION ( 'NONE',  ( -1.000000000000000000, 0.000000000000000000, 0.000000000000000000 ) ) ;
#357 = DIRECTION ( 'NONE',  ( 0.000000000000000000, 0.000000000000000000, 1.000000000000000000 ) ) ;
#358 = EDGE_LOOP ( 'NONE', ( #14, #37, #44, #150 ) ) ;
#359 = APPROVAL_PERSON_ORGANIZATION ( #372, #240, #21 ) ;
#360 = EDGE_CURVE ( 'NONE', #74, #261, #136, .T. ) ;
#361 = DIRECTION ( 'NONE',  ( 0.000000000000000000, 0.000000000000000000, 1.000000000000000000 ) ) ;
#362 = ORIENTED_EDGE ( 'NONE', *, *, #163, .T. ) ;
#363 = DIRECTION ( 'NONE',  ( -0.000000000000000000, -0.000000000000000000, -1.000000000000000000 ) ) ;
#364 = ORIENTED_EDGE ( 'NONE', *, *, #13, .T. ) ;
#365 = APPLICATION_CONTEXT ( 'configuration controlled 3d designs of mechanical parts and assemblies' ) ;
#366 = DIRECTION ( 'NONE',  ( 1.000000000000000000, 0.000000000000000000, 0.000000000000000000 ) ) ;
#367 = EDGE_LOOP ( 'NONE', ( #134, #5, #29, #131 ) ) ;
#368 = PLANE ( 'NONE',  #289 ) ;
#369 = DIRECTION ( 'NONE',  ( 1.000000000000000000, 0.000000000000000000, 0.000000000000000000 ) ) ;
#370 = DIRECTION ( 'NONE',  ( 0.000000000000000000, 0.000000000000000000, -1.000000000000000000 ) ) ;
#371 =( NAMED_UNIT ( * ) PLANE_ANGLE_UNIT ( ) SI_UNIT ( $, .RADIAN. ) );
#372 = PERSON_AND_ORGANIZATION ( #252, #142 ) ;
#373 = DIRECTION ( 'NONE',  ( -0.000000000000000000, -0.000000000000000000, -1.000000000000000000 ) ) ;
#374 = DIRECTION ( 'NONE',  ( 0.000000000000000000, 0.000000000000000000, -1.000000000000000000 ) ) ;
#375 = EDGE_CURVE ( 'NONE', #231, #174, #130, .T. ) ;
#376 = UNCERTAINTY_MEASURE_WITH_UNIT (LENGTH_MEASURE( 1.000000000000000082E-05 ), #133, 'distance_accuracy_value', 'NONE');
#377 = DIRECTION ( 'NONE',  ( 0.000000000000000000, 0.000000000000000000, 1.000000000000000000 ) ) ;
#378 = DIRECTION ( 'NONE',  ( 1.000000000000000000, 0.000000000000000000, 0.000000000000000000 ) ) ;
#379 = COORDINATED_UNIVERSAL_TIME_OFFSET ( 1, 0, .AHEAD. ) ;
#380 = CARTESIAN_POINT ( 'NONE',  ( 0.000000000000000000, 0.000000000000000000, 355.0000000000000000 ) ) ;
#381 = AXIS2_PLACEMENT_3D ( 'NONE', #192, #72, #305 ) ;
ENDSEC;
END-ISO-10303-21;
