ISO-10303-21;
HEADER;
FILE_DESCRIPTION (( 'STEP AP203' ),
    '1' );
FILE_NAME ('2ba2.STEP',
    '2022-07-08T15:29:19',
    ( '' ),
    ( '' ),
    'SwSTEP 2.0',
    'SolidWorks 2019',
    '' );
FILE_SCHEMA (( 'CONFIG_CONTROL_DESIGN' ));
ENDSEC;

DATA;
#1 = CC_DESIGN_PERSON_AND_ORGANIZATION_ASSIGNMENT ( #120, #14, ( #204 ) ) ;
#2 = DIRECTION ( 'NONE',  ( 0.000000000000000000, 0.000000000000000000, -1.000000000000000000 ) ) ;
#3 = VERTEX_POINT ( 'NONE', #166 ) ;
#4 = AXIS2_PLACEMENT_3D ( 'NONE', #126, #348, #153 ) ;
#5 = AXIS2_PLACEMENT_3D ( 'NONE', #91, #209, #150 ) ;
#6 = CARTESIAN_POINT ( 'NONE',  ( 0.000000000000000000, 0.000000000000000000, 0.000000000000000000 ) ) ;
#7 = AXIS2_PLACEMENT_3D ( 'NONE', #65, #64, #186 ) ;
#8 = ORIENTED_EDGE ( 'NONE', *, *, #357, .T. ) ;
#9 = FACE_BOUND ( 'NONE', #250, .T. ) ;
#10 = CYLINDRICAL_SURFACE ( 'NONE', #130, 4.000000000000000000 ) ;
#11 = EDGE_CURVE ( 'NONE', #157, #103, #158, .T. ) ;
#12 = CYLINDRICAL_SURFACE ( 'NONE', #303, 2.000000000000000000 ) ;
#13 = ORIENTED_EDGE ( 'NONE', *, *, #123, .T. ) ;
#14 = PERSON_AND_ORGANIZATION_ROLE ( 'creator' ) ;
#15 = VERTEX_POINT ( 'NONE', #140 ) ;
#16 = ADVANCED_BREP_SHAPE_REPRESENTATION ( '2ba2', ( #101, #227 ), #257 ) ;
#17 = EDGE_CURVE ( 'NONE', #189, #132, #84, .T. ) ;
#18 = DIRECTION ( 'NONE',  ( 0.000000000000000000, 0.000000000000000000, -1.000000000000000000 ) ) ;
#19 = ORIENTED_EDGE ( 'NONE', *, *, #239, .F. ) ;
#20 = DIRECTION ( 'NONE',  ( 0.000000000000000000, 0.000000000000000000, 1.000000000000000000 ) ) ;
#21 = DIRECTION ( 'NONE',  ( -0.000000000000000000, -0.000000000000000000, -1.000000000000000000 ) ) ;
#22 = DATE_TIME_ROLE ( 'classification_date' ) ;
#23 = FACE_OUTER_BOUND ( 'NONE', #259, .T. ) ;
#24 = CARTESIAN_POINT ( 'NONE',  ( 0.000000000000000000, 0.000000000000000000, 0.000000000000000000 ) ) ;
#25 = LOCAL_TIME ( 17, 29, 19.00000000000000000, #340 ) ;
#26 = CARTESIAN_POINT ( 'NONE',  ( 4.500000000000000888, 0.000000000000000000, 4.999999999999975131 ) ) ;
#27 = APPROVAL_ROLE ( '' ) ;
#28 = ADVANCED_FACE ( 'NONE', ( #311 ), #183, .F. ) ;
#29 = FACE_OUTER_BOUND ( 'NONE', #334, .T. ) ;
#30 = SHAPE_DEFINITION_REPRESENTATION ( #229, #16 ) ;
#31 = APPROVAL_PERSON_ORGANIZATION ( #147, #119, #27 ) ;
#32 = CYLINDRICAL_SURFACE ( 'NONE', #5, 4.000000000000000000 ) ;
#33 = EDGE_CURVE ( 'NONE', #3, #219, #122, .T. ) ;
#34 = CARTESIAN_POINT ( 'NONE',  ( 4.000000000000000000, 4.898587196589412829E-16, 805.0000000000000000 ) ) ;
#35 = ORIENTED_EDGE ( 'NONE', *, *, #242, .T. ) ;
#36 = DIRECTION ( 'NONE',  ( 1.000000000000000000, 0.000000000000000000, -0.000000000000000000 ) ) ;
#37 = ORIENTED_EDGE ( 'NONE', *, *, #357, .F. ) ;
#38 = VECTOR ( 'NONE', #298, 1000.000000000000000 ) ;
#39 = AXIS2_PLACEMENT_3D ( 'NONE', #222, #18, #141 ) ;
#40 = VECTOR ( 'NONE', #254, 1000.000000000000000 ) ;
#41 = CARTESIAN_POINT ( 'NONE',  ( 7.000000000000000000, 8.572527594031473190E-16, 0.000000000000000000 ) ) ;
#42 = ORIENTED_EDGE ( 'NONE', *, *, #33, .T. ) ;
#43 = UNCERTAINTY_MEASURE_WITH_UNIT (LENGTH_MEASURE( 1.000000000000000082E-05 ), #203, 'distance_accuracy_value', 'NONE');
#44 = CYLINDRICAL_SURFACE ( 'NONE', #71, 7.000000000000000000 ) ;
#45 = EDGE_CURVE ( 'NONE', #280, #304, #146, .T. ) ;
#46 = DIRECTION ( 'NONE',  ( 0.000000000000000000, -1.000000000000000000, 0.000000000000000000 ) ) ;
#47 = EDGE_CURVE ( 'NONE', #132, #159, #164, .T. ) ;
#48 = APPROVAL_DATE_TIME ( #310, #62 ) ;
#49 = DIRECTION ( 'NONE',  ( 0.000000000000000000, 0.000000000000000000, 1.000000000000000000 ) ) ;
#50 = CYLINDRICAL_SURFACE ( 'NONE', #39, 2.000000000000000000 ) ;
#51 = CIRCLE ( 'NONE', #63, 0.5000000000000004441 ) ;
#52 = FACE_BOUND ( 'NONE', #364, .T. ) ;
#53 = LOCAL_TIME ( 17, 29, 19.00000000000000000, #83 ) ;
#54 = APPLICATION_CONTEXT ( 'configuration controlled 3d designs of mechanical parts and assemblies' ) ;
#55 = APPROVAL_DATE_TIME ( #138, #301 ) ;
#56 = ORIENTED_EDGE ( 'NONE', *, *, #155, .T. ) ;
#57 = DATE_AND_TIME ( #344, #349 ) ;
#58 = DIRECTION ( 'NONE',  ( -0.000000000000000000, -0.000000000000000000, -1.000000000000000000 ) ) ;
#59 = ADVANCED_FACE ( 'NONE', ( #23 ), #374, .T. ) ;
#60 = EDGE_LOOP ( 'NONE', ( #325, #154 ) ) ;
#61 = DIRECTION ( 'NONE',  ( 1.000000000000000000, 0.000000000000000000, 0.000000000000000000 ) ) ;
#62 = APPROVAL ( #113, 'NEURÈENÝ' ) ;
#63 = AXIS2_PLACEMENT_3D ( 'NONE', #129, #215, #353 ) ;
#64 = DIRECTION ( 'NONE',  ( 0.000000000000000000, 0.000000000000000000, 1.000000000000000000 ) ) ;
#65 = CARTESIAN_POINT ( 'NONE',  ( 0.000000000000000000, 0.000000000000000000, 805.0000000000000000 ) ) ;
#66 = EDGE_LOOP ( 'NONE', ( #256, #270, #13, #77 ) ) ;
#67 = DESIGN_CONTEXT ( 'detailed design', #54, 'design' ) ;
#68 = DIRECTION ( 'NONE',  ( 0.000000000000000000, 0.000000000000000000, -1.000000000000000000 ) ) ;
#69 = EDGE_LOOP ( 'NONE', ( #291, #223, #240, #235 ) ) ;
#70 = VECTOR ( 'NONE', #2, 1000.000000000000000 ) ;
#71 = AXIS2_PLACEMENT_3D ( 'NONE', #269, #72, #191 ) ;
#72 = DIRECTION ( 'NONE',  ( -0.000000000000000000, -0.000000000000000000, -1.000000000000000000 ) ) ;
#73 = ORIENTED_EDGE ( 'NONE', *, *, #47, .F. ) ;
#74 = CARTESIAN_POINT ( 'NONE',  ( 7.000000000000000000, 8.572527594031473190E-16, 5.000000000000000000 ) ) ;
#75 = EDGE_LOOP ( 'NONE', ( #162, #252 ) ) ;
#76 = PERSON_AND_ORGANIZATION_ROLE ( 'design_owner' ) ;
#77 = ORIENTED_EDGE ( 'NONE', *, *, #86, .F. ) ;
#78 = AXIS2_PLACEMENT_3D ( 'NONE', #90, #241, #352 ) ;
#79 = PLANE ( 'NONE',  #114 ) ;
#80 = DIRECTION ( 'NONE',  ( 1.000000000000000000, 0.000000000000000000, 0.000000000000000000 ) ) ;
#81 = PERSON_AND_ORGANIZATION ( #202, #294 ) ;
#82 = ORIENTED_EDGE ( 'NONE', *, *, #260, .T. ) ;
#83 = COORDINATED_UNIVERSAL_TIME_OFFSET ( 1, 0, .AHEAD. ) ;
#84 = LINE ( 'NONE', #339, #40 ) ;
#85 = COORDINATED_UNIVERSAL_TIME_OFFSET ( 1, 0, .AHEAD. ) ;
#86 = EDGE_CURVE ( 'NONE', #280, #157, #295, .T. ) ;
#87 = LOCAL_TIME ( 17, 29, 19.00000000000000000, #149 ) ;
#88 = CARTESIAN_POINT ( 'NONE',  ( 0.000000000000000000, 0.000000000000000000, 5.000000000000000000 ) ) ;
#89 = CLOSED_SHELL ( 'NONE', ( #284, #181, #105, #59, #320, #380, #185, #333, #266, #28, #372 ) ) ;
#90 = CARTESIAN_POINT ( 'NONE',  ( 0.000000000000000000, 0.000000000000000000, 0.000000000000000000 ) ) ;
#91 = CARTESIAN_POINT ( 'NONE',  ( 0.000000000000000000, 0.000000000000000000, 805.0000000000000000 ) ) ;
#92 = DIRECTION ( 'NONE',  ( 0.000000000000000000, 0.000000000000000000, 1.000000000000000000 ) ) ;
#93 = APPROVAL_PERSON_ORGANIZATION ( #115, #301, #165 ) ;
#94 = AXIS2_PLACEMENT_3D ( 'NONE', #342, #315, #313 ) ;
#95 = CARTESIAN_POINT ( 'NONE',  ( -4.000000000000000000, 0.000000000000000000, 5.499999999999949374 ) ) ;
#96 = EDGE_LOOP ( 'NONE', ( #19, #216, #35, #56 ) ) ;
#97 = CARTESIAN_POINT ( 'NONE',  ( 2.000000000000000000, 2.449293598294706414E-16, 805.0000000000000000 ) ) ;
#98 = CARTESIAN_POINT ( 'NONE',  ( -7.000000000000000000, 0.000000000000000000, 5.000000000000000000 ) ) ;
#99 = AXIS2_PLACEMENT_3D ( 'NONE', #128, #175, #124 ) ;
#100 = PRODUCT ( '2ba2', '2ba2', '', ( #307 ) ) ;
#101 = MANIFOLD_SOLID_BREP ( 'Odebrat vysunutím3', #89 ) ;
#102 = CARTESIAN_POINT ( 'NONE',  ( 0.000000000000000000, 0.000000000000000000, 5.000000000000000000 ) ) ;
#103 = VERTEX_POINT ( 'NONE', #376 ) ;
#104 = CARTESIAN_POINT ( 'NONE',  ( -7.000000000000000000, 0.000000000000000000, 5.000000000000000000 ) ) ;
#105 = ADVANCED_FACE ( 'NONE', ( #293 ), #32, .T. ) ;
#106 = DIRECTION ( 'NONE',  ( 0.000000000000000000, 0.000000000000000000, 1.000000000000000000 ) ) ;
#107 = ORIENTED_EDGE ( 'NONE', *, *, #17, .F. ) ;
#108 = CC_DESIGN_SECURITY_CLASSIFICATION ( #318, ( #198 ) ) ;
#109 = ORIENTED_EDGE ( 'NONE', *, *, #118, .F. ) ;
#110 = CARTESIAN_POINT ( 'NONE',  ( 0.000000000000000000, 0.000000000000000000, 0.000000000000000000 ) ) ;
#111 = CC_DESIGN_PERSON_AND_ORGANIZATION_ASSIGNMENT ( #279, #369, ( #198 ) ) ;
#112 = EDGE_LOOP ( 'NONE', ( #328, #299, #8, #171 ) ) ;
#113 = APPROVAL_STATUS ( 'not_yet_approved' ) ;
#114 = AXIS2_PLACEMENT_3D ( 'NONE', #232, #373, #169 ) ;
#115 = PERSON_AND_ORGANIZATION ( #202, #294 ) ;
#116 = CARTESIAN_POINT ( 'NONE',  ( 0.000000000000000000, 0.000000000000000000, 0.000000000000000000 ) ) ;
#117 = DIRECTION ( 'NONE',  ( 1.000000000000000000, 0.000000000000000000, 0.000000000000000000 ) ) ;
#118 = EDGE_CURVE ( 'NONE', #159, #132, #337, .T. ) ;
#119 = APPROVAL ( #262, 'NEURÈENÝ' ) ;
#120 = PERSON_AND_ORGANIZATION ( #202, #294 ) ;
#121 = CC_DESIGN_APPROVAL ( #119, ( #318 ) ) ;
#122 = CIRCLE ( 'NONE', #94, 4.500000000000000888 ) ;
#123 = EDGE_CURVE ( 'NONE', #103, #157, #238, .T. ) ;
#124 = DIRECTION ( 'NONE',  ( 1.000000000000000000, 0.000000000000000000, 0.000000000000000000 ) ) ;
#125 = ORIENTED_EDGE ( 'NONE', *, *, #220, .T. ) ;
#126 = CARTESIAN_POINT ( 'NONE',  ( 0.000000000000000000, 0.000000000000000000, 5.000000000000000000 ) ) ;
#127 = CC_DESIGN_DATE_AND_TIME_ASSIGNMENT ( #57, #22, ( #318 ) ) ;
#128 = CARTESIAN_POINT ( 'NONE',  ( 0.000000000000000000, 0.000000000000000000, 0.000000000000000000 ) ) ;
#129 = CARTESIAN_POINT ( 'NONE',  ( -4.500000000000000888, 5.510910596163089556E-16, 5.499999999999949374 ) ) ;
#130 = AXIS2_PLACEMENT_3D ( 'NONE', #363, #327, #193 ) ;
#131 = DIRECTION ( 'NONE',  ( 0.000000000000000000, 0.000000000000000000, 1.000000000000000000 ) ) ;
#132 = VERTEX_POINT ( 'NONE', #347 ) ;
#133 = APPLICATION_CONTEXT ( 'configuration controlled 3d designs of mechanical parts and assemblies' ) ;
#134 = LINE ( 'NONE', #221, #70 ) ;
#135 = ORIENTED_EDGE ( 'NONE', *, *, #151, .F. ) ;
#136 = APPROVAL_PERSON_ORGANIZATION ( #81, #62, #224 ) ;
#137 = CC_DESIGN_DATE_AND_TIME_ASSIGNMENT ( #253, #366, ( #204 ) ) ;
#138 = DATE_AND_TIME ( #170, #25 ) ;
#139 = CALENDAR_DATE ( 2022, 8, 7 ) ;
#140 = CARTESIAN_POINT ( 'NONE',  ( -7.000000000000000000, 0.000000000000000000, 0.000000000000000000 ) ) ;
#141 = DIRECTION ( 'NONE',  ( -1.000000000000000000, 0.000000000000000000, 0.000000000000000000 ) ) ;
#142 = DIRECTION ( 'NONE',  ( 1.000000000000000000, 0.000000000000000000, 0.000000000000000000 ) ) ;
#143 = EDGE_CURVE ( 'NONE', #365, #189, #354, .T. ) ;
#144 = CIRCLE ( 'NONE', #173, 4.500000000000000888 ) ;
#145 = DIRECTION ( 'NONE',  ( 1.000000000000000000, 0.000000000000000000, 0.000000000000000000 ) ) ;
#146 = CIRCLE ( 'NONE', #322, 4.000000000000000000 ) ;
#147 = PERSON_AND_ORGANIZATION ( #202, #294 ) ;
#148 = FACE_BOUND ( 'NONE', #187, .T. ) ;
#149 = COORDINATED_UNIVERSAL_TIME_OFFSET ( 1, 0, .AHEAD. ) ;
#150 = DIRECTION ( 'NONE',  ( -1.000000000000000000, 0.000000000000000000, 0.000000000000000000 ) ) ;
#151 = EDGE_CURVE ( 'NONE', #189, #365, #213, .T. ) ;
#152 = CARTESIAN_POINT ( 'NONE',  ( 0.000000000000000000, 0.000000000000000000, 5.499999999999949374 ) ) ;
#153 = DIRECTION ( 'NONE',  ( 1.000000000000000000, 0.000000000000000000, 0.000000000000000000 ) ) ;
#154 = ORIENTED_EDGE ( 'NONE', *, *, #314, .T. ) ;
#155 = EDGE_CURVE ( 'NONE', #15, #370, #261, .T. ) ;
#156 = FACE_OUTER_BOUND ( 'NONE', #96, .T. ) ;
#157 = VERTEX_POINT ( 'NONE', #95 ) ;
#158 = CIRCLE ( 'NONE', #343, 4.000000000000000000 ) ;
#159 = VERTEX_POINT ( 'NONE', #377 ) ;
#160 = PLANE ( 'NONE',  #329 ) ;
#161 = DIRECTION ( 'NONE',  ( 0.000000000000000000, 0.000000000000000000, 1.000000000000000000 ) ) ;
#162 = ORIENTED_EDGE ( 'NONE', *, *, #155, .F. ) ;
#163 = AXIS2_PLACEMENT_3D ( 'NONE', #152, #264, #145 ) ;
#164 = CIRCLE ( 'NONE', #176, 2.000000000000000000 ) ;
#165 = APPROVAL_ROLE ( '' ) ;
#166 = CARTESIAN_POINT ( 'NONE',  ( -4.500000000000000888, 5.510910596163088569E-16, 4.999999999999975131 ) ) ;
#167 = PERSON_AND_ORGANIZATION ( #202, #294 ) ;
#168 = CIRCLE ( 'NONE', #379, 7.000000000000000000 ) ;
#169 = DIRECTION ( 'NONE',  ( 1.000000000000000000, 0.000000000000000000, -0.000000000000000000 ) ) ;
#170 = CALENDAR_DATE ( 2022, 8, 7 ) ;
#171 = ORIENTED_EDGE ( 'NONE', *, *, #33, .F. ) ;
#172 = DIRECTION ( 'NONE',  ( 1.000000000000000000, 0.000000000000000000, 0.000000000000000000 ) ) ;
#173 = AXIS2_PLACEMENT_3D ( 'NONE', #316, #58, #172 ) ;
#174 = AXIS2_PLACEMENT_3D ( 'NONE', #6, #131, #244 ) ;
#175 = DIRECTION ( 'NONE',  ( 0.000000000000000000, 0.000000000000000000, 1.000000000000000000 ) ) ;
#176 = AXIS2_PLACEMENT_3D ( 'NONE', #116, #21, #142 ) ;
#177 = ORIENTED_EDGE ( 'NONE', *, *, #194, .F. ) ;
#178 = APPROVAL_DATE_TIME ( #208, #119 ) ;
#179 = CARTESIAN_POINT ( 'NONE',  ( 0.000000000000000000, 0.000000000000000000, 805.0000000000000000 ) ) ;
#180 = ORIENTED_EDGE ( 'NONE', *, *, #242, .F. ) ;
#181 = ADVANCED_FACE ( 'NONE', ( #29 ), #308, .F. ) ;
#182 = PRODUCT_RELATED_PRODUCT_CATEGORY ( 'detail', '', ( #100 ) ) ;
#183 = TOROIDAL_SURFACE ( 'NONE', #375, 4.500000000000000888, 0.5000000000000000000 ) ;
#184 = ORIENTED_EDGE ( 'NONE', *, *, #118, .T. ) ;
#185 = ADVANCED_FACE ( 'NONE', ( #148, #317 ), #346, .F. ) ;
#186 = DIRECTION ( 'NONE',  ( 1.000000000000000000, 0.000000000000000000, 0.000000000000000000 ) ) ;
#187 = EDGE_LOOP ( 'NONE', ( #109, #73 ) ) ;
#188 = CARTESIAN_POINT ( 'NONE',  ( -2.000000000000000000, 0.000000000000000000, 805.0000000000000000 ) ) ;
#189 = VERTEX_POINT ( 'NONE', #97 ) ;
#190 = CC_DESIGN_APPROVAL ( #301, ( #204 ) ) ;
#191 = DIRECTION ( 'NONE',  ( -1.000000000000000000, 0.000000000000000000, 0.000000000000000000 ) ) ;
#192 = ORIENTED_EDGE ( 'NONE', *, *, #47, .T. ) ;
#193 = DIRECTION ( 'NONE',  ( -1.000000000000000000, 0.000000000000000000, 0.000000000000000000 ) ) ;
#194 = EDGE_CURVE ( 'NONE', #219, #3, #144, .T. ) ;
#195 = ORIENTED_EDGE ( 'NONE', *, *, #326, .T. ) ;
#196 = APPLICATION_PROTOCOL_DEFINITION ( 'international standard', 'config_control_design', 1994, #54 ) ;
#197 = DIRECTION ( 'NONE',  ( 1.000000000000000000, 0.000000000000000000, 0.000000000000000000 ) ) ;
#198 = PRODUCT_DEFINITION_FORMATION_WITH_SPECIFIED_SOURCE ( 'LIBOVOLNÝ', '', #100, .NOT_KNOWN. ) ;
#199 = AXIS2_PLACEMENT_3D ( 'NONE', #88, #206, #287 ) ;
#200 = CALENDAR_DATE ( 2022, 8, 7 ) ;
#201 = DIRECTION ( 'NONE',  ( 0.000000000000000000, 0.000000000000000000, 1.000000000000000000 ) ) ;
#202 = PERSON ( 'NEURÈENÝ', 'NEURÈENÝ', 'NEURÈENÝ', ('NEURÈENÝ'), ('NEURÈENÝ'), ('NEURÈENÝ') ) ;
#203 =( LENGTH_UNIT ( ) NAMED_UNIT ( * ) SI_UNIT ( .MILLI., .METRE. ) );
#204 = PRODUCT_DEFINITION ( 'NEZNÁMÝ', '', #198, #67 ) ;
#205 = CIRCLE ( 'NONE', #174, 7.000000000000000000 ) ;
#206 = DIRECTION ( 'NONE',  ( -0.000000000000000000, -0.000000000000000000, -1.000000000000000000 ) ) ;
#207 = COORDINATED_UNIVERSAL_TIME_OFFSET ( 1, 0, .AHEAD. ) ;
#208 = DATE_AND_TIME ( #236, #87 ) ;
#209 = DIRECTION ( 'NONE',  ( -0.000000000000000000, -0.000000000000000000, -1.000000000000000000 ) ) ;
#210 = AXIS2_PLACEMENT_3D ( 'NONE', #263, #381, #267 ) ;
#211 = EDGE_LOOP ( 'NONE', ( #297, #319, #192, #362 ) ) ;
#212 = DIRECTION ( 'NONE',  ( -0.000000000000000000, -0.000000000000000000, -1.000000000000000000 ) ) ;
#213 = CIRCLE ( 'NONE', #210, 2.000000000000000000 ) ;
#214 = LINE ( 'NONE', #34, #38 ) ;
#215 = DIRECTION ( 'NONE',  ( 1.224646799147353207E-16, 1.000000000000000000, -0.000000000000000000 ) ) ;
#216 = ORIENTED_EDGE ( 'NONE', *, *, #271, .F. ) ;
#217 = FACE_OUTER_BOUND ( 'NONE', #60, .T. ) ;
#218 = DIRECTION ( 'NONE',  ( 0.000000000000000000, 0.000000000000000000, -1.000000000000000000 ) ) ;
#219 = VERTEX_POINT ( 'NONE', #26 ) ;
#220 = EDGE_CURVE ( 'NONE', #335, #351, #288, .T. ) ;
#221 = CARTESIAN_POINT ( 'NONE',  ( -2.000000000000000000, 0.000000000000000000, 805.0000000000000000 ) ) ;
#222 = CARTESIAN_POINT ( 'NONE',  ( 0.000000000000000000, 0.000000000000000000, 805.0000000000000000 ) ) ;
#223 = ORIENTED_EDGE ( 'NONE', *, *, #45, .F. ) ;
#224 = APPROVAL_ROLE ( '' ) ;
#225 = CARTESIAN_POINT ( 'NONE',  ( 0.000000000000000000, 0.000000000000000000, 805.0000000000000000 ) ) ;
#226 = VECTOR ( 'NONE', #268, 1000.000000000000000 ) ;
#227 = AXIS2_PLACEMENT_3D ( 'NONE', #110, #20, #117 ) ;
#228 = AXIS2_PLACEMENT_3D ( 'NONE', #24, #321, #265 ) ;
#229 = PRODUCT_DEFINITION_SHAPE ( 'NONE', 'NONE',  #204 ) ;
#230 = PERSON_AND_ORGANIZATION ( #202, #294 ) ;
#231 = CARTESIAN_POINT ( 'NONE',  ( 0.000000000000000000, 0.000000000000000000, 5.499999999999949374 ) ) ;
#232 = CARTESIAN_POINT ( 'NONE',  ( 0.000000000000000000, 0.000000000000000000, 5.000000000000000000 ) ) ;
#233 = ORIENTED_EDGE ( 'NONE', *, *, #11, .F. ) ;
#234 = AXIS2_PLACEMENT_3D ( 'NONE', #179, #92, #350 ) ;
#235 = ORIENTED_EDGE ( 'NONE', *, *, #11, .T. ) ;
#236 = CALENDAR_DATE ( 2022, 8, 7 ) ;
#237 = CARTESIAN_POINT ( 'NONE',  ( 0.000000000000000000, 0.000000000000000000, 5.499999999999949374 ) ) ;
#238 = CIRCLE ( 'NONE', #163, 4.000000000000000000 ) ;
#239 = EDGE_CURVE ( 'NONE', #335, #370, #323, .T. ) ;
#240 = ORIENTED_EDGE ( 'NONE', *, *, #86, .T. ) ;
#241 = DIRECTION ( 'NONE',  ( 0.000000000000000000, 0.000000000000000000, 1.000000000000000000 ) ) ;
#242 = EDGE_CURVE ( 'NONE', #351, #15, #296, .T. ) ;
#243 = DIRECTION ( 'NONE',  ( 1.000000000000000000, 0.000000000000000000, 0.000000000000000000 ) ) ;
#244 = DIRECTION ( 'NONE',  ( 1.000000000000000000, 0.000000000000000000, 0.000000000000000000 ) ) ;
#245 = EDGE_LOOP ( 'NONE', ( #274, #125 ) ) ;
#246 = CARTESIAN_POINT ( 'NONE',  ( -4.000000000000000000, 0.000000000000000000, 805.0000000000000000 ) ) ;
#247 = ORIENTED_EDGE ( 'NONE', *, *, #194, .T. ) ;
#248 = EDGE_CURVE ( 'NONE', #304, #103, #214, .T. ) ;
#249 = CARTESIAN_POINT ( 'NONE',  ( 4.000000000000000000, 4.898587196589412829E-16, 805.0000000000000000 ) ) ;
#250 = EDGE_LOOP ( 'NONE', ( #283, #135 ) ) ;
#251 =( NAMED_UNIT ( * ) SI_UNIT ( $, .STERADIAN. ) SOLID_ANGLE_UNIT ( ) );
#252 = ORIENTED_EDGE ( 'NONE', *, *, #326, .F. ) ;
#253 = DATE_AND_TIME ( #139, #275 ) ;
#254 = DIRECTION ( 'NONE',  ( 0.000000000000000000, 0.000000000000000000, -1.000000000000000000 ) ) ;
#255 = APPROVAL_STATUS ( 'not_yet_approved' ) ;
#256 = ORIENTED_EDGE ( 'NONE', *, *, #314, .F. ) ;
#257 =( GEOMETRIC_REPRESENTATION_CONTEXT ( 3 ) GLOBAL_UNCERTAINTY_ASSIGNED_CONTEXT ( ( #43 ) ) GLOBAL_UNIT_ASSIGNED_CONTEXT ( ( #203, #285, #251 ) ) REPRESENTATION_CONTEXT ( 'NONE', 'WORKASPACE' ) );
#258 = FACE_OUTER_BOUND ( 'NONE', #245, .T. ) ;
#259 = EDGE_LOOP ( 'NONE', ( #341, #358, #195, #180 ) ) ;
#260 = EDGE_CURVE ( 'NONE', #365, #159, #134, .T. ) ;
#261 = CIRCLE ( 'NONE', #99, 7.000000000000000000 ) ;
#262 = APPROVAL_STATUS ( 'not_yet_approved' ) ;
#263 = CARTESIAN_POINT ( 'NONE',  ( 0.000000000000000000, 0.000000000000000000, 805.0000000000000000 ) ) ;
#264 = DIRECTION ( 'NONE',  ( 0.000000000000000000, 0.000000000000000000, 1.000000000000000000 ) ) ;
#265 = DIRECTION ( 'NONE',  ( 1.000000000000000000, 0.000000000000000000, 0.000000000000000000 ) ) ;
#266 = ADVANCED_FACE ( 'NONE', ( #9, #217 ), #160, .T. ) ;
#267 = DIRECTION ( 'NONE',  ( 1.000000000000000000, 0.000000000000000000, 0.000000000000000000 ) ) ;
#268 = DIRECTION ( 'NONE',  ( -0.000000000000000000, -0.000000000000000000, -1.000000000000000000 ) ) ;
#269 = CARTESIAN_POINT ( 'NONE',  ( 0.000000000000000000, 0.000000000000000000, 5.000000000000000000 ) ) ;
#270 = ORIENTED_EDGE ( 'NONE', *, *, #248, .T. ) ;
#271 = EDGE_CURVE ( 'NONE', #351, #335, #168, .T. ) ;
#272 = DIRECTION ( 'NONE',  ( -1.000000000000000000, 0.000000000000000000, 0.000000000000000000 ) ) ;
#273 = FACE_OUTER_BOUND ( 'NONE', #211, .T. ) ;
#274 = ORIENTED_EDGE ( 'NONE', *, *, #271, .T. ) ;
#275 = LOCAL_TIME ( 17, 29, 19.00000000000000000, #85 ) ;
#276 = CC_DESIGN_PERSON_AND_ORGANIZATION_ASSIGNMENT ( #167, #292, ( #318 ) ) ;
#277 = APPLICATION_PROTOCOL_DEFINITION ( 'international standard', 'config_control_design', 1994, #133 ) ;
#278 = CARTESIAN_POINT ( 'NONE',  ( 0.000000000000000000, 0.000000000000000000, 5.499999999999949374 ) ) ;
#279 = PERSON_AND_ORGANIZATION ( #202, #294 ) ;
#280 = VERTEX_POINT ( 'NONE', #246 ) ;
#281 = FACE_OUTER_BOUND ( 'NONE', #331, .T. ) ;
#282 = AXIS2_PLACEMENT_3D ( 'NONE', #237, #290, #61 ) ;
#283 = ORIENTED_EDGE ( 'NONE', *, *, #143, .F. ) ;
#284 = ADVANCED_FACE ( 'NONE', ( #273 ), #12, .F. ) ;
#285 =( NAMED_UNIT ( * ) PLANE_ANGLE_UNIT ( ) SI_UNIT ( $, .RADIAN. ) );
#286 = DIRECTION ( 'NONE',  ( 0.000000000000000000, 0.000000000000000000, 1.000000000000000000 ) ) ;
#287 = DIRECTION ( 'NONE',  ( -1.000000000000000000, 0.000000000000000000, 0.000000000000000000 ) ) ;
#288 = CIRCLE ( 'NONE', #4, 7.000000000000000000 ) ;
#289 = EDGE_CURVE ( 'NONE', #157, #3, #51, .T. ) ;
#290 = DIRECTION ( 'NONE',  ( 0.000000000000000000, 0.000000000000000000, 1.000000000000000000 ) ) ;
#291 = ORIENTED_EDGE ( 'NONE', *, *, #248, .F. ) ;
#292 = PERSON_AND_ORGANIZATION_ROLE ( 'classification_officer' ) ;
#293 = FACE_OUTER_BOUND ( 'NONE', #66, .T. ) ;
#294 = ORGANIZATION ( 'NEURÈENÝ', 'NEURÈENÝ', '' ) ;
#295 = LINE ( 'NONE', #378, #355 ) ;
#296 = LINE ( 'NONE', #98, #226 ) ;
#297 = ORIENTED_EDGE ( 'NONE', *, *, #143, .T. ) ;
#298 = DIRECTION ( 'NONE',  ( -0.000000000000000000, -0.000000000000000000, -1.000000000000000000 ) ) ;
#299 = ORIENTED_EDGE ( 'NONE', *, *, #123, .F. ) ;
#300 = CC_DESIGN_APPROVAL ( #62, ( #198 ) ) ;
#301 = APPROVAL ( #255, 'NEURÈENÝ' ) ;
#302 = ORIENTED_EDGE ( 'NONE', *, *, #289, .T. ) ;
#303 = AXIS2_PLACEMENT_3D ( 'NONE', #324, #218, #272 ) ;
#304 = VERTEX_POINT ( 'NONE', #249 ) ;
#305 = CARTESIAN_POINT ( 'NONE',  ( 4.500000000000000888, 0.000000000000000000, 5.499999999999949374 ) ) ;
#306 = CC_DESIGN_PERSON_AND_ORGANIZATION_ASSIGNMENT ( #336, #76, ( #100 ) ) ;
#307 = MECHANICAL_CONTEXT ( 'NONE', #133, 'mechanical' ) ;
#308 = TOROIDAL_SURFACE ( 'NONE', #282, 4.500000000000000888, 0.5000000000000000000 ) ;
#309 = AXIS2_PLACEMENT_3D ( 'NONE', #305, #46, #68 ) ;
#310 = DATE_AND_TIME ( #200, #53 ) ;
#311 = FACE_OUTER_BOUND ( 'NONE', #112, .T. ) ;
#312 = SECURITY_CLASSIFICATION_LEVEL ( 'unclassified' ) ;
#313 = DIRECTION ( 'NONE',  ( 1.000000000000000000, 0.000000000000000000, 0.000000000000000000 ) ) ;
#314 = EDGE_CURVE ( 'NONE', #304, #280, #371, .T. ) ;
#315 = DIRECTION ( 'NONE',  ( -0.000000000000000000, -0.000000000000000000, -1.000000000000000000 ) ) ;
#316 = CARTESIAN_POINT ( 'NONE',  ( 0.000000000000000000, 0.000000000000000000, 5.000000000000000000 ) ) ;
#317 = FACE_OUTER_BOUND ( 'NONE', #75, .T. ) ;
#318 = SECURITY_CLASSIFICATION ( '', '', #312 ) ;
#319 = ORIENTED_EDGE ( 'NONE', *, *, #17, .T. ) ;
#320 = ADVANCED_FACE ( 'NONE', ( #156 ), #44, .T. ) ;
#321 = DIRECTION ( 'NONE',  ( -0.000000000000000000, -0.000000000000000000, -1.000000000000000000 ) ) ;
#322 = AXIS2_PLACEMENT_3D ( 'NONE', #225, #49, #197 ) ;
#323 = LINE ( 'NONE', #74, #368 ) ;
#324 = CARTESIAN_POINT ( 'NONE',  ( 0.000000000000000000, 0.000000000000000000, 805.0000000000000000 ) ) ;
#325 = ORIENTED_EDGE ( 'NONE', *, *, #45, .T. ) ;
#326 = EDGE_CURVE ( 'NONE', #370, #15, #205, .T. ) ;
#327 = DIRECTION ( 'NONE',  ( -0.000000000000000000, -0.000000000000000000, -1.000000000000000000 ) ) ;
#328 = ORIENTED_EDGE ( 'NONE', *, *, #289, .F. ) ;
#329 = AXIS2_PLACEMENT_3D ( 'NONE', #361, #106, #36 ) ;
#330 = CIRCLE ( 'NONE', #309, 0.5000000000000004441 ) ;
#331 = EDGE_LOOP ( 'NONE', ( #107, #360, #82, #184 ) ) ;
#332 = FACE_OUTER_BOUND ( 'NONE', #69, .T. ) ;
#333 = ADVANCED_FACE ( 'NONE', ( #332 ), #10, .T. ) ;
#334 = EDGE_LOOP ( 'NONE', ( #233, #302, #177, #37 ) ) ;
#335 = VERTEX_POINT ( 'NONE', #359 ) ;
#336 = PERSON_AND_ORGANIZATION ( #202, #294 ) ;
#337 = CIRCLE ( 'NONE', #228, 2.000000000000000000 ) ;
#338 = PERSON_AND_ORGANIZATION_ROLE ( 'design_supplier' ) ;
#339 = CARTESIAN_POINT ( 'NONE',  ( 2.000000000000000000, 2.449293598294706414E-16, 805.0000000000000000 ) ) ;
#340 = COORDINATED_UNIVERSAL_TIME_OFFSET ( 1, 0, .AHEAD. ) ;
#341 = ORIENTED_EDGE ( 'NONE', *, *, #220, .F. ) ;
#342 = CARTESIAN_POINT ( 'NONE',  ( 0.000000000000000000, 0.000000000000000000, 5.000000000000000000 ) ) ;
#343 = AXIS2_PLACEMENT_3D ( 'NONE', #278, #286, #80 ) ;
#344 = CALENDAR_DATE ( 2022, 8, 7 ) ;
#345 = CC_DESIGN_PERSON_AND_ORGANIZATION_ASSIGNMENT ( #230, #338, ( #198 ) ) ;
#346 = PLANE ( 'NONE',  #78 ) ;
#347 = CARTESIAN_POINT ( 'NONE',  ( 2.000000000000000000, 2.449293598294706414E-16, 0.000000000000000000 ) ) ;
#348 = DIRECTION ( 'NONE',  ( 0.000000000000000000, 0.000000000000000000, 1.000000000000000000 ) ) ;
#349 = LOCAL_TIME ( 17, 29, 19.00000000000000000, #207 ) ;
#350 = DIRECTION ( 'NONE',  ( 1.000000000000000000, 0.000000000000000000, 0.000000000000000000 ) ) ;
#351 = VERTEX_POINT ( 'NONE', #104 ) ;
#352 = DIRECTION ( 'NONE',  ( 1.000000000000000000, 0.000000000000000000, -0.000000000000000000 ) ) ;
#353 = DIRECTION ( 'NONE',  ( -1.000000000000000000, 1.224646799147351482E-16, 0.000000000000000000 ) ) ;
#354 = CIRCLE ( 'NONE', #234, 2.000000000000000000 ) ;
#355 = VECTOR ( 'NONE', #212, 1000.000000000000000 ) ;
#356 = DIRECTION ( 'NONE',  ( -0.000000000000000000, -0.000000000000000000, -1.000000000000000000 ) ) ;
#357 = EDGE_CURVE ( 'NONE', #103, #219, #330, .T. ) ;
#358 = ORIENTED_EDGE ( 'NONE', *, *, #239, .T. ) ;
#359 = CARTESIAN_POINT ( 'NONE',  ( 7.000000000000000000, 8.572527594031473190E-16, 5.000000000000000000 ) ) ;
#360 = ORIENTED_EDGE ( 'NONE', *, *, #151, .T. ) ;
#361 = CARTESIAN_POINT ( 'NONE',  ( 0.000000000000000000, 0.000000000000000000, 805.0000000000000000 ) ) ;
#362 = ORIENTED_EDGE ( 'NONE', *, *, #260, .F. ) ;
#363 = CARTESIAN_POINT ( 'NONE',  ( 0.000000000000000000, 0.000000000000000000, 805.0000000000000000 ) ) ;
#364 = EDGE_LOOP ( 'NONE', ( #247, #42 ) ) ;
#365 = VERTEX_POINT ( 'NONE', #188 ) ;
#366 = DATE_TIME_ROLE ( 'creation_date' ) ;
#367 = DIRECTION ( 'NONE',  ( 1.000000000000000000, 0.000000000000000000, 0.000000000000000000 ) ) ;
#368 = VECTOR ( 'NONE', #356, 1000.000000000000000 ) ;
#369 = PERSON_AND_ORGANIZATION_ROLE ( 'creator' ) ;
#370 = VERTEX_POINT ( 'NONE', #41 ) ;
#371 = CIRCLE ( 'NONE', #7, 4.000000000000000000 ) ;
#372 = ADVANCED_FACE ( 'NONE', ( #281 ), #50, .F. ) ;
#373 = DIRECTION ( 'NONE',  ( 0.000000000000000000, 0.000000000000000000, 1.000000000000000000 ) ) ;
#374 = CYLINDRICAL_SURFACE ( 'NONE', #199, 7.000000000000000000 ) ;
#375 = AXIS2_PLACEMENT_3D ( 'NONE', #231, #201, #367 ) ;
#376 = CARTESIAN_POINT ( 'NONE',  ( 4.000000000000000000, 4.898587196589412829E-16, 5.499999999999949374 ) ) ;
#377 = CARTESIAN_POINT ( 'NONE',  ( -2.000000000000000000, 0.000000000000000000, 0.000000000000000000 ) ) ;
#378 = CARTESIAN_POINT ( 'NONE',  ( -4.000000000000000000, 0.000000000000000000, 805.0000000000000000 ) ) ;
#379 = AXIS2_PLACEMENT_3D ( 'NONE', #102, #161, #243 ) ;
#380 = ADVANCED_FACE ( 'NONE', ( #52, #258 ), #79, .T. ) ;
#381 = DIRECTION ( 'NONE',  ( 0.000000000000000000, 0.000000000000000000, 1.000000000000000000 ) ) ;
ENDSEC;
END-ISO-10303-21;
