ISO-10303-21;
HEADER;
FILE_DESCRIPTION (( 'STEP AP203' ),
    '1' );
FILE_NAME ('f63a.STEP',
    '2022-07-08T14:25:53',
    ( '' ),
    ( '' ),
    'SwSTEP 2.0',
    'SolidWorks 2019',
    '' );
FILE_SCHEMA (( 'CONFIG_CONTROL_DESIGN' ));
ENDSEC;

DATA;
#1 = ORIENTED_EDGE ( 'NONE', *, *, #154, .F. ) ;
#2 = ORIENTED_EDGE ( 'NONE', *, *, #376, .T. ) ;
#3 = ADVANCED_FACE ( 'NONE', ( #302, #117 ), #365, .T. ) ;
#4 = DIRECTION ( 'NONE',  ( -1.000000000000000000, 0.000000000000000000, 0.000000000000000000 ) ) ;
#5 = CIRCLE ( 'NONE', #331, 6.000000000000000888 ) ;
#6 = VERTEX_POINT ( 'NONE', #243 ) ;
#7 = AXIS2_PLACEMENT_3D ( 'NONE', #54, #165, #280 ) ;
#8 =( LENGTH_UNIT ( ) NAMED_UNIT ( * ) SI_UNIT ( .MILLI., .METRE. ) );
#9 = ORIENTED_EDGE ( 'NONE', *, *, #160, .T. ) ;
#10 = EDGE_LOOP ( 'NONE', ( #39, #119 ) ) ;
#11 = EDGE_CURVE ( 'NONE', #68, #94, #126, .T. ) ;
#12 = APPROVAL_ROLE ( '' ) ;
#13 = DIRECTION ( 'NONE',  ( 1.000000000000000000, 0.000000000000000000, -0.000000000000000000 ) ) ;
#14 = CIRCLE ( 'NONE', #287, 0.7000000000000000666 ) ;
#15 = PERSON_AND_ORGANIZATION_ROLE ( 'creator' ) ;
#16 = CARTESIAN_POINT ( 'NONE',  ( -6.700000000000001066, 8.205133554287267548E-16, 7.700000000000040146 ) ) ;
#17 = EDGE_CURVE ( 'NONE', #94, #267, #345, .T. ) ;
#18 = PERSON_AND_ORGANIZATION ( #158, #259 ) ;
#19 = CIRCLE ( 'NONE', #162, 6.700000000000001066 ) ;
#20 = PERSON_AND_ORGANIZATION ( #158, #259 ) ;
#21 = CARTESIAN_POINT ( 'NONE',  ( 0.000000000000000000, 0.000000000000000000, 7.000000000000000000 ) ) ;
#22 = LINE ( 'NONE', #80, #125 ) ;
#23 = ADVANCED_FACE ( 'NONE', ( #45, #374 ), #315, .F. ) ;
#24 = PRODUCT ( 'f63a', 'f63a', '', ( #101 ) ) ;
#25 = AXIS2_PLACEMENT_3D ( 'NONE', #166, #169, #13 ) ;
#26 = CC_DESIGN_APPROVAL ( #210, ( #85 ) ) ;
#27 = CYLINDRICAL_SURFACE ( 'NONE', #281, 10.00000000000000000 ) ;
#28 = CARTESIAN_POINT ( 'NONE',  ( 0.000000000000000000, 0.000000000000000000, 0.000000000000000000 ) ) ;
#29 = EDGE_CURVE ( 'NONE', #157, #81, #105, .T. ) ;
#30 = DIRECTION ( 'NONE',  ( -1.000000000000000000, 0.000000000000000000, 0.000000000000000000 ) ) ;
#31 = AXIS2_PLACEMENT_3D ( 'NONE', #202, #291, #30 ) ;
#32 = EDGE_LOOP ( 'NONE', ( #183, #238, #89, #360 ) ) ;
#33 = ORIENTED_EDGE ( 'NONE', *, *, #330, .F. ) ;
#34 = CARTESIAN_POINT ( 'NONE',  ( 0.000000000000000000, 0.000000000000000000, 7.000000000000000000 ) ) ;
#35 = EDGE_LOOP ( 'NONE', ( #340, #121 ) ) ;
#36 = CARTESIAN_POINT ( 'NONE',  ( 6.000000000000000888, 7.347880794884120722E-16, 557.0000000000000000 ) ) ;
#37 = AXIS2_PLACEMENT_3D ( 'NONE', #188, #311, #102 ) ;
#38 = EDGE_LOOP ( 'NONE', ( #307, #123, #244, #93 ) ) ;
#39 = ORIENTED_EDGE ( 'NONE', *, *, #262, .T. ) ;
#40 = DIRECTION ( 'NONE',  ( 0.000000000000000000, 0.000000000000000000, -1.000000000000000000 ) ) ;
#41 = FACE_OUTER_BOUND ( 'NONE', #38, .T. ) ;
#42 = DIRECTION ( 'NONE',  ( 0.000000000000000000, 0.000000000000000000, 1.000000000000000000 ) ) ;
#43 = ADVANCED_FACE ( 'NONE', ( #41 ), #344, .F. ) ;
#44 = CARTESIAN_POINT ( 'NONE',  ( 0.000000000000000000, 0.000000000000000000, 7.700000000000040146 ) ) ;
#45 = FACE_BOUND ( 'NONE', #151, .T. ) ;
#46 = AXIS2_PLACEMENT_3D ( 'NONE', #322, #144, #137 ) ;
#47 = UNCERTAINTY_MEASURE_WITH_UNIT (LENGTH_MEASURE( 1.000000000000000082E-05 ), #8, 'distance_accuracy_value', 'NONE');
#48 = CC_DESIGN_PERSON_AND_ORGANIZATION_ASSIGNMENT ( #342, #316, ( #85 ) ) ;
#49 = DIRECTION ( 'NONE',  ( 0.000000000000000000, 0.000000000000000000, 1.000000000000000000 ) ) ;
#50 = CARTESIAN_POINT ( 'NONE',  ( -6.000000000000000888, 0.000000000000000000, 7.700000000000040146 ) ) ;
#51 = CIRCLE ( 'NONE', #216, 4.500000000000000000 ) ;
#52 = DIRECTION ( 'NONE',  ( -0.000000000000000000, -0.000000000000000000, -1.000000000000000000 ) ) ;
#53 = FACE_OUTER_BOUND ( 'NONE', #97, .T. ) ;
#54 = CARTESIAN_POINT ( 'NONE',  ( 0.000000000000000000, 0.000000000000000000, 0.000000000000000000 ) ) ;
#55 = DESIGN_CONTEXT ( 'detailed design', #235, 'design' ) ;
#56 = AXIS2_PLACEMENT_3D ( 'NONE', #229, #343, #256 ) ;
#57 = DIRECTION ( 'NONE',  ( -0.000000000000000000, -0.000000000000000000, -1.000000000000000000 ) ) ;
#58 = EDGE_LOOP ( 'NONE', ( #247, #141 ) ) ;
#59 = MANIFOLD_SOLID_BREP ( 'Odebrat vysunutím3', #337 ) ;
#60 = CYLINDRICAL_SURFACE ( 'NONE', #377, 6.000000000000000888 ) ;
#61 = ORIENTED_EDGE ( 'NONE', *, *, #17, .F. ) ;
#62 =( NAMED_UNIT ( * ) PLANE_ANGLE_UNIT ( ) SI_UNIT ( $, .RADIAN. ) );
#63 = ORIENTED_EDGE ( 'NONE', *, *, #67, .F. ) ;
#64 = DIRECTION ( 'NONE',  ( 0.000000000000000000, 0.000000000000000000, 1.000000000000000000 ) ) ;
#65 = VECTOR ( 'NONE', #286, 1000.000000000000000 ) ;
#66 = VERTEX_POINT ( 'NONE', #254 ) ;
#67 = EDGE_CURVE ( 'NONE', #122, #293, #190, .T. ) ;
#68 = VERTEX_POINT ( 'NONE', #222 ) ;
#69 = APPROVAL_STATUS ( 'not_yet_approved' ) ;
#70 = FACE_OUTER_BOUND ( 'NONE', #300, .T. ) ;
#71 = ADVANCED_FACE ( 'NONE', ( #253 ), #276, .F. ) ;
#72 = AXIS2_PLACEMENT_3D ( 'NONE', #349, #42, #228 ) ;
#73 = LOCAL_TIME ( 16, 25, 53.00000000000000000, #308 ) ;
#74 = DATE_AND_TIME ( #346, #251 ) ;
#75 = CARTESIAN_POINT ( 'NONE',  ( -6.000000000000000888, 0.000000000000000000, 557.0000000000000000 ) ) ;
#76 = DIRECTION ( 'NONE',  ( 0.000000000000000000, 0.000000000000000000, 1.000000000000000000 ) ) ;
#77 = EDGE_CURVE ( 'NONE', #122, #6, #14, .T. ) ;
#78 = COORDINATED_UNIVERSAL_TIME_OFFSET ( 1, 0, .AHEAD. ) ;
#79 = DIRECTION ( 'NONE',  ( -0.000000000000000000, -0.000000000000000000, -1.000000000000000000 ) ) ;
#80 = CARTESIAN_POINT ( 'NONE',  ( -6.000000000000000888, 0.000000000000000000, 557.0000000000000000 ) ) ;
#81 = VERTEX_POINT ( 'NONE', #196 ) ;
#82 = DIRECTION ( 'NONE',  ( -1.000000000000000000, 0.000000000000000000, 0.000000000000000000 ) ) ;
#83 = PRODUCT_DEFINITION ( 'NEZNÁMÝ', '', #85, #55 ) ;
#84 = AXIS2_PLACEMENT_3D ( 'NONE', #236, #142, #82 ) ;
#85 = PRODUCT_DEFINITION_FORMATION_WITH_SPECIFIED_SOURCE ( 'LIBOVOLNÝ', '', #24, .NOT_KNOWN. ) ;
#86 = DIRECTION ( 'NONE',  ( 0.000000000000000000, 0.000000000000000000, 1.000000000000000000 ) ) ;
#87 = FACE_OUTER_BOUND ( 'NONE', #250, .T. ) ;
#88 = EDGE_CURVE ( 'NONE', #209, #68, #240, .T. ) ;
#89 = ORIENTED_EDGE ( 'NONE', *, *, #11, .T. ) ;
#90 = APPROVAL_PERSON_ORGANIZATION ( #261, #255, #12 ) ;
#91 = ORIENTED_EDGE ( 'NONE', *, *, #67, .T. ) ;
#92 =( NAMED_UNIT ( * ) SI_UNIT ( $, .STERADIAN. ) SOLID_ANGLE_UNIT ( ) );
#93 = ORIENTED_EDGE ( 'NONE', *, *, #11, .F. ) ;
#94 = VERTEX_POINT ( 'NONE', #260 ) ;
#95 = APPROVAL_STATUS ( 'not_yet_approved' ) ;
#96 = AXIS2_PLACEMENT_3D ( 'NONE', #194, #132, #197 ) ;
#97 = EDGE_LOOP ( 'NONE', ( #303, #2, #91, #333 ) ) ;
#98 = CARTESIAN_POINT ( 'NONE',  ( 6.700000000000001066, 0.000000000000000000, 7.700000000000040146 ) ) ;
#99 = APPROVAL_ROLE ( '' ) ;
#100 = CARTESIAN_POINT ( 'NONE',  ( 6.000000000000000888, 7.347880794884120722E-16, 7.700000000000040146 ) ) ;
#101 = MECHANICAL_CONTEXT ( 'NONE', #128, 'mechanical' ) ;
#102 = DIRECTION ( 'NONE',  ( 1.000000000000000000, 0.000000000000000000, 0.000000000000000000 ) ) ;
#103 = CIRCLE ( 'NONE', #133, 10.00000000000000000 ) ;
#104 = PERSON_AND_ORGANIZATION_ROLE ( 'design_supplier' ) ;
#105 = LINE ( 'NONE', #282, #120 ) ;
#106 = DIRECTION ( 'NONE',  ( 1.000000000000000000, 0.000000000000000000, 0.000000000000000000 ) ) ;
#107 = AXIS2_PLACEMENT_3D ( 'NONE', #239, #357, #375 ) ;
#108 = DIRECTION ( 'NONE',  ( 0.000000000000000000, 0.000000000000000000, 1.000000000000000000 ) ) ;
#109 = ADVANCED_FACE ( 'NONE', ( #373 ), #204, .F. ) ;
#110 = ORIENTED_EDGE ( 'NONE', *, *, #262, .F. ) ;
#111 = CARTESIAN_POINT ( 'NONE',  ( 0.000000000000000000, 0.000000000000000000, 0.000000000000000000 ) ) ;
#112 = CIRCLE ( 'NONE', #170, 10.00000000000000000 ) ;
#113 = LOCAL_TIME ( 16, 25, 53.00000000000000000, #130 ) ;
#114 = LINE ( 'NONE', #152, #224 ) ;
#115 = CC_DESIGN_DATE_AND_TIME_ASSIGNMENT ( #252, #339, ( #83 ) ) ;
#116 = CARTESIAN_POINT ( 'NONE',  ( 0.000000000000000000, 0.000000000000000000, 557.0000000000000000 ) ) ;
#117 = FACE_OUTER_BOUND ( 'NONE', #214, .T. ) ;
#118 = DIRECTION ( 'NONE',  ( -0.000000000000000000, -0.000000000000000000, -1.000000000000000000 ) ) ;
#119 = ORIENTED_EDGE ( 'NONE', *, *, #348, .T. ) ;
#120 = VECTOR ( 'NONE', #79, 1000.000000000000000 ) ;
#121 = ORIENTED_EDGE ( 'NONE', *, *, #160, .F. ) ;
#122 = VERTEX_POINT ( 'NONE', #100 ) ;
#123 = ORIENTED_EDGE ( 'NONE', *, *, #139, .T. ) ;
#124 = PERSON_AND_ORGANIZATION ( #158, #259 ) ;
#125 = VECTOR ( 'NONE', #380, 1000.000000000000000 ) ;
#126 = LINE ( 'NONE', #129, #65 ) ;
#127 = ADVANCED_FACE ( 'NONE', ( #371, #70 ), #347, .T. ) ;
#128 = APPLICATION_CONTEXT ( 'configuration controlled 3d designs of mechanical parts and assemblies' ) ;
#129 = CARTESIAN_POINT ( 'NONE',  ( -4.500000000000000000, 0.000000000000000000, 557.0000000000000000 ) ) ;
#130 = COORDINATED_UNIVERSAL_TIME_OFFSET ( 1, 0, .AHEAD. ) ;
#131 = DIRECTION ( 'NONE',  ( 1.224646799147353207E-16, 1.000000000000000000, -0.000000000000000000 ) ) ;
#132 = DIRECTION ( 'NONE',  ( 0.000000000000000000, 0.000000000000000000, -1.000000000000000000 ) ) ;
#133 = AXIS2_PLACEMENT_3D ( 'NONE', #301, #274, #335 ) ;
#134 = CIRCLE ( 'NONE', #328, 6.000000000000000888 ) ;
#135 = DIRECTION ( 'NONE',  ( 0.000000000000000000, 0.000000000000000000, 1.000000000000000000 ) ) ;
#136 = FACE_OUTER_BOUND ( 'NONE', #363, .T. ) ;
#137 = DIRECTION ( 'NONE',  ( -1.000000000000000000, 0.000000000000000000, 0.000000000000000000 ) ) ;
#138 = AXIS2_PLACEMENT_3D ( 'NONE', #368, #163, #225 ) ;
#139 = EDGE_CURVE ( 'NONE', #209, #267, #192, .T. ) ;
#140 = DIRECTION ( 'NONE',  ( 0.000000000000000000, 0.000000000000000000, 1.000000000000000000 ) ) ;
#141 = ORIENTED_EDGE ( 'NONE', *, *, #88, .F. ) ;
#142 = DIRECTION ( 'NONE',  ( -0.000000000000000000, -0.000000000000000000, -1.000000000000000000 ) ) ;
#143 = PRODUCT_DEFINITION_SHAPE ( 'NONE', 'NONE',  #83 ) ;
#144 = DIRECTION ( 'NONE',  ( -0.000000000000000000, -0.000000000000000000, -1.000000000000000000 ) ) ;
#145 = EDGE_CURVE ( 'NONE', #293, #66, #294, .T. ) ;
#146 = VERTEX_POINT ( 'NONE', #75 ) ;
#147 = AXIS2_PLACEMENT_3D ( 'NONE', #323, #49, #327 ) ;
#148 = DIRECTION ( 'NONE',  ( -0.000000000000000000, -0.000000000000000000, -1.000000000000000000 ) ) ;
#149 = VERTEX_POINT ( 'NONE', #317 ) ;
#150 = DIRECTION ( 'NONE',  ( 1.000000000000000000, 0.000000000000000000, 0.000000000000000000 ) ) ;
#151 = EDGE_LOOP ( 'NONE', ( #61, #213 ) ) ;
#152 = CARTESIAN_POINT ( 'NONE',  ( 10.00000000000000000, 1.224646799147353256E-15, 7.000000000000000000 ) ) ;
#153 = ORIENTED_EDGE ( 'NONE', *, *, #326, .T. ) ;
#154 = EDGE_CURVE ( 'NONE', #218, #157, #112, .T. ) ;
#155 = VECTOR ( 'NONE', #148, 1000.000000000000000 ) ;
#156 = ORIENTED_EDGE ( 'NONE', *, *, #29, .F. ) ;
#157 = VERTEX_POINT ( 'NONE', #324 ) ;
#158 = PERSON ( 'NEURÈENÝ', 'NEURÈENÝ', 'NEURÈENÝ', ('NEURÈENÝ'), ('NEURÈENÝ'), ('NEURÈENÝ') ) ;
#159 = DIRECTION ( 'NONE',  ( 1.000000000000000000, 0.000000000000000000, 0.000000000000000000 ) ) ;
#160 = EDGE_CURVE ( 'NONE', #149, #81, #379, .T. ) ;
#161 = PERSON_AND_ORGANIZATION_ROLE ( 'classification_officer' ) ;
#162 = AXIS2_PLACEMENT_3D ( 'NONE', #34, #359, #361 ) ;
#163 = DIRECTION ( 'NONE',  ( 0.000000000000000000, 0.000000000000000000, 1.000000000000000000 ) ) ;
#164 = CARTESIAN_POINT ( 'NONE',  ( 0.000000000000000000, 0.000000000000000000, 7.700000000000040146 ) ) ;
#165 = DIRECTION ( 'NONE',  ( 0.000000000000000000, 0.000000000000000000, 1.000000000000000000 ) ) ;
#166 = CARTESIAN_POINT ( 'NONE',  ( 0.000000000000000000, 0.000000000000000000, 0.000000000000000000 ) ) ;
#167 = ADVANCED_FACE ( 'NONE', ( #87 ), #172, .T. ) ;
#168 = PERSON_AND_ORGANIZATION ( #158, #259 ) ;
#169 = DIRECTION ( 'NONE',  ( 0.000000000000000000, 0.000000000000000000, 1.000000000000000000 ) ) ;
#170 = AXIS2_PLACEMENT_3D ( 'NONE', #21, #140, #266 ) ;
#171 = LOCAL_TIME ( 16, 25, 53.00000000000000000, #219 ) ;
#172 = CYLINDRICAL_SURFACE ( 'NONE', #46, 10.00000000000000000 ) ;
#173 = DIRECTION ( 'NONE',  ( 1.000000000000000000, 0.000000000000000000, 0.000000000000000000 ) ) ;
#174 = AXIS2_PLACEMENT_3D ( 'NONE', #111, #108, #268 ) ;
#175 = CARTESIAN_POINT ( 'NONE',  ( 0.000000000000000000, 0.000000000000000000, 7.000000000000000000 ) ) ;
#176 = DIRECTION ( 'NONE',  ( 1.000000000000000000, 0.000000000000000000, 0.000000000000000000 ) ) ;
#177 = AXIS2_PLACEMENT_3D ( 'NONE', #329, #264, #173 ) ;
#178 = ORIENTED_EDGE ( 'NONE', *, *, #77, .F. ) ;
#179 = ORIENTED_EDGE ( 'NONE', *, *, #154, .T. ) ;
#180 = CC_DESIGN_DATE_AND_TIME_ASSIGNMENT ( #187, #310, ( #381 ) ) ;
#181 = ORIENTED_EDGE ( 'NONE', *, *, #230, .F. ) ;
#182 = DIRECTION ( 'NONE',  ( 0.000000000000000000, 0.000000000000000000, 1.000000000000000000 ) ) ;
#183 = ORIENTED_EDGE ( 'NONE', *, *, #139, .F. ) ;
#184 = EDGE_CURVE ( 'NONE', #267, #94, #51, .T. ) ;
#185 = APPROVAL_STATUS ( 'not_yet_approved' ) ;
#186 = CARTESIAN_POINT ( 'NONE',  ( 0.000000000000000000, 0.000000000000000000, 7.000000000000000000 ) ) ;
#187 = DATE_AND_TIME ( #288, #73 ) ;
#188 = CARTESIAN_POINT ( 'NONE',  ( 0.000000000000000000, 0.000000000000000000, 0.000000000000000000 ) ) ;
#189 = PERSON_AND_ORGANIZATION ( #158, #259 ) ;
#190 = CIRCLE ( 'NONE', #138, 6.000000000000000888 ) ;
#191 = CC_DESIGN_APPROVAL ( #272, ( #381 ) ) ;
#192 = LINE ( 'NONE', #285, #320 ) ;
#193 = APPROVAL_DATE_TIME ( #314, #210 ) ;
#194 = CARTESIAN_POINT ( 'NONE',  ( 0.000000000000000000, 0.000000000000000000, 557.0000000000000000 ) ) ;
#195 = APPLICATION_PROTOCOL_DEFINITION ( 'international standard', 'config_control_design', 1994, #235 ) ;
#196 = CARTESIAN_POINT ( 'NONE',  ( -10.00000000000000000, 0.000000000000000000, 0.000000000000000000 ) ) ;
#197 = DIRECTION ( 'NONE',  ( -1.000000000000000000, 0.000000000000000000, 0.000000000000000000 ) ) ;
#198 = AXIS2_PLACEMENT_3D ( 'NONE', #164, #76, #319 ) ;
#199 = LOCAL_TIME ( 16, 25, 53.00000000000000000, #78 ) ;
#200 = PRODUCT_RELATED_PRODUCT_CATEGORY ( 'detail', '', ( #24 ) ) ;
#201 = DIRECTION ( 'NONE',  ( -0.000000000000000000, -0.000000000000000000, -1.000000000000000000 ) ) ;
#202 = CARTESIAN_POINT ( 'NONE',  ( 0.000000000000000000, 0.000000000000000000, 557.0000000000000000 ) ) ;
#203 = SHAPE_DEFINITION_REPRESENTATION ( #143, #277 ) ;
#204 = TOROIDAL_SURFACE ( 'NONE', #198, 6.700000000000001066, 0.6999999999999999556 ) ;
#205 = CC_DESIGN_APPROVAL ( #255, ( #83 ) ) ;
#206 = CALENDAR_DATE ( 2022, 8, 7 ) ;
#207 = DIRECTION ( 'NONE',  ( -1.000000000000000000, 0.000000000000000000, 0.000000000000000000 ) ) ;
#208 = CARTESIAN_POINT ( 'NONE',  ( 6.000000000000000888, 7.347880794884120722E-16, 557.0000000000000000 ) ) ;
#209 = VERTEX_POINT ( 'NONE', #231 ) ;
#210 = APPROVAL ( #69, 'NEURÈENÝ' ) ;
#211 = ORIENTED_EDGE ( 'NONE', *, *, #145, .F. ) ;
#212 = CARTESIAN_POINT ( 'NONE',  ( 0.000000000000000000, 0.000000000000000000, 557.0000000000000000 ) ) ;
#213 = ORIENTED_EDGE ( 'NONE', *, *, #184, .F. ) ;
#214 = EDGE_LOOP ( 'NONE', ( #242, #179 ) ) ;
#215 = EDGE_CURVE ( 'NONE', #81, #149, #299, .T. ) ;
#216 = AXIS2_PLACEMENT_3D ( 'NONE', #28, #201, #237 ) ;
#217 = APPROVAL_ROLE ( '' ) ;
#218 = VERTEX_POINT ( 'NONE', #354 ) ;
#219 = COORDINATED_UNIVERSAL_TIME_OFFSET ( 1, 0, .AHEAD. ) ;
#220 = DIRECTION ( 'NONE',  ( 0.000000000000000000, -1.000000000000000000, 0.000000000000000000 ) ) ;
#221 = CALENDAR_DATE ( 2022, 8, 7 ) ;
#222 = CARTESIAN_POINT ( 'NONE',  ( -4.500000000000000000, 0.000000000000000000, 557.0000000000000000 ) ) ;
#223 = PERSON_AND_ORGANIZATION_ROLE ( 'design_owner' ) ;
#224 = VECTOR ( 'NONE', #57, 1000.000000000000000 ) ;
#225 = DIRECTION ( 'NONE',  ( 1.000000000000000000, 0.000000000000000000, 0.000000000000000000 ) ) ;
#226 = ADVANCED_FACE ( 'NONE', ( #53 ), #378, .T. ) ;
#227 = SECURITY_CLASSIFICATION_LEVEL ( 'unclassified' ) ;
#228 = DIRECTION ( 'NONE',  ( 1.000000000000000000, 0.000000000000000000, -0.000000000000000000 ) ) ;
#229 = CARTESIAN_POINT ( 'NONE',  ( 0.000000000000000000, 0.000000000000000000, 557.0000000000000000 ) ) ;
#230 = EDGE_CURVE ( 'NONE', #293, #122, #306, .T. ) ;
#231 = CARTESIAN_POINT ( 'NONE',  ( 4.500000000000000000, 5.510910596163088569E-16, 557.0000000000000000 ) ) ;
#232 = CIRCLE ( 'NONE', #107, 6.700000000000001066 ) ;
#233 = CC_DESIGN_SECURITY_CLASSIFICATION ( #381, ( #85 ) ) ;
#234 = ORIENTED_EDGE ( 'NONE', *, *, #341, .T. ) ;
#235 = APPLICATION_CONTEXT ( 'configuration controlled 3d designs of mechanical parts and assemblies' ) ;
#236 = CARTESIAN_POINT ( 'NONE',  ( 0.000000000000000000, 0.000000000000000000, 557.0000000000000000 ) ) ;
#237 = DIRECTION ( 'NONE',  ( 1.000000000000000000, 0.000000000000000000, 0.000000000000000000 ) ) ;
#238 = ORIENTED_EDGE ( 'NONE', *, *, #88, .T. ) ;
#239 = CARTESIAN_POINT ( 'NONE',  ( 0.000000000000000000, 0.000000000000000000, 7.000000000000000000 ) ) ;
#240 = CIRCLE ( 'NONE', #56, 4.500000000000000000 ) ;
#241 = CC_DESIGN_PERSON_AND_ORGANIZATION_ASSIGNMENT ( #168, #161, ( #381 ) ) ;
#242 = ORIENTED_EDGE ( 'NONE', *, *, #330, .T. ) ;
#243 = CARTESIAN_POINT ( 'NONE',  ( 6.700000000000001066, 0.000000000000000000, 7.000000000000020428 ) ) ;
#244 = ORIENTED_EDGE ( 'NONE', *, *, #184, .T. ) ;
#245 = AXIS2_PLACEMENT_3D ( 'NONE', #44, #135, #159 ) ;
#246 = CARTESIAN_POINT ( 'NONE',  ( 0.000000000000000000, 0.000000000000000000, 557.0000000000000000 ) ) ;
#247 = ORIENTED_EDGE ( 'NONE', *, *, #367, .F. ) ;
#248 = APPLICATION_PROTOCOL_DEFINITION ( 'international standard', 'config_control_design', 1994, #128 ) ;
#249 = ORIENTED_EDGE ( 'NONE', *, *, #312, .T. ) ;
#250 = EDGE_LOOP ( 'NONE', ( #265, #33, #275, #279 ) ) ;
#251 = LOCAL_TIME ( 16, 25, 53.00000000000000000, #257 ) ;
#252 = DATE_AND_TIME ( #369, #113 ) ;
#253 = FACE_OUTER_BOUND ( 'NONE', #278, .T. ) ;
#254 = CARTESIAN_POINT ( 'NONE',  ( -6.700000000000001066, 8.205133554287267548E-16, 7.000000000000020428 ) ) ;
#255 = APPROVAL ( #185, 'NEURÈENÝ' ) ;
#256 = DIRECTION ( 'NONE',  ( 1.000000000000000000, 0.000000000000000000, 0.000000000000000000 ) ) ;
#257 = COORDINATED_UNIVERSAL_TIME_OFFSET ( 1, 0, .AHEAD. ) ;
#258 = AXIS2_PLACEMENT_3D ( 'NONE', #16, #131, #290 ) ;
#259 = ORGANIZATION ( 'NEURÈENÝ', 'NEURÈENÝ', '' ) ;
#260 = CARTESIAN_POINT ( 'NONE',  ( -4.500000000000000000, 0.000000000000000000, 0.000000000000000000 ) ) ;
#261 = PERSON_AND_ORGANIZATION ( #158, #259 ) ;
#262 = EDGE_CURVE ( 'NONE', #6, #66, #232, .T. ) ;
#263 = ORIENTED_EDGE ( 'NONE', *, *, #77, .T. ) ;
#264 = DIRECTION ( 'NONE',  ( 0.000000000000000000, 0.000000000000000000, 1.000000000000000000 ) ) ;
#265 = ORIENTED_EDGE ( 'NONE', *, *, #326, .F. ) ;
#266 = DIRECTION ( 'NONE',  ( 1.000000000000000000, 0.000000000000000000, 0.000000000000000000 ) ) ;
#267 = VERTEX_POINT ( 'NONE', #352 ) ;
#268 = DIRECTION ( 'NONE',  ( 1.000000000000000000, 0.000000000000000000, 0.000000000000000000 ) ) ;
#269 = CYLINDRICAL_SURFACE ( 'NONE', #31, 4.500000000000000000 ) ;
#270 = LINE ( 'NONE', #208, #155 ) ;
#271 = DIRECTION ( 'NONE',  ( 1.000000000000000000, 0.000000000000000000, -0.000000000000000000 ) ) ;
#272 = APPROVAL ( #95, 'NEURÈENÝ' ) ;
#273 = ORIENTED_EDGE ( 'NONE', *, *, #341, .F. ) ;
#274 = DIRECTION ( 'NONE',  ( 0.000000000000000000, 0.000000000000000000, 1.000000000000000000 ) ) ;
#275 = ORIENTED_EDGE ( 'NONE', *, *, #29, .T. ) ;
#276 = TOROIDAL_SURFACE ( 'NONE', #245, 6.700000000000001066, 0.6999999999999999556 ) ;
#277 = ADVANCED_BREP_SHAPE_REPRESENTATION ( 'f63a', ( #59, #7 ), #372 ) ;
#278 = EDGE_LOOP ( 'NONE', ( #211, #63, #263, #351 ) ) ;
#279 = ORIENTED_EDGE ( 'NONE', *, *, #215, .T. ) ;
#280 = DIRECTION ( 'NONE',  ( 1.000000000000000000, 0.000000000000000000, 0.000000000000000000 ) ) ;
#281 = AXIS2_PLACEMENT_3D ( 'NONE', #175, #52, #207 ) ;
#282 = CARTESIAN_POINT ( 'NONE',  ( -10.00000000000000000, 0.000000000000000000, 7.000000000000000000 ) ) ;
#283 = CC_DESIGN_PERSON_AND_ORGANIZATION_ASSIGNMENT ( #124, #15, ( #83 ) ) ;
#284 = APPROVAL_DATE_TIME ( #74, #255 ) ;
#285 = CARTESIAN_POINT ( 'NONE',  ( 4.500000000000000000, 5.510910596163088569E-16, 557.0000000000000000 ) ) ;
#286 = DIRECTION ( 'NONE',  ( 0.000000000000000000, 0.000000000000000000, -1.000000000000000000 ) ) ;
#287 = AXIS2_PLACEMENT_3D ( 'NONE', #98, #220, #370 ) ;
#288 = CALENDAR_DATE ( 2022, 8, 7 ) ;
#289 = EDGE_CURVE ( 'NONE', #355, #146, #5, .T. ) ;
#290 = DIRECTION ( 'NONE',  ( -1.000000000000000000, 1.224646799147353454E-16, 0.000000000000000000 ) ) ;
#291 = DIRECTION ( 'NONE',  ( 0.000000000000000000, 0.000000000000000000, -1.000000000000000000 ) ) ;
#292 = CARTESIAN_POINT ( 'NONE',  ( 0.000000000000000000, 0.000000000000000000, 557.0000000000000000 ) ) ;
#293 = VERTEX_POINT ( 'NONE', #50 ) ;
#294 = CIRCLE ( 'NONE', #258, 0.7000000000000000666 ) ;
#295 = ADVANCED_FACE ( 'NONE', ( #136 ), #27, .T. ) ;
#296 = FACE_OUTER_BOUND ( 'NONE', #32, .T. ) ;
#297 = EDGE_LOOP ( 'NONE', ( #181, #364, #110, #178 ) ) ;
#298 = ADVANCED_FACE ( 'NONE', ( #296 ), #269, .F. ) ;
#299 = CIRCLE ( 'NONE', #174, 10.00000000000000000 ) ;
#300 = EDGE_LOOP ( 'NONE', ( #234, #325 ) ) ;
#301 = CARTESIAN_POINT ( 'NONE',  ( 0.000000000000000000, 0.000000000000000000, 7.000000000000000000 ) ) ;
#302 = FACE_BOUND ( 'NONE', #10, .T. ) ;
#303 = ORIENTED_EDGE ( 'NONE', *, *, #289, .F. ) ;
#304 = FACE_OUTER_BOUND ( 'NONE', #336, .T. ) ;
#305 = ORIENTED_EDGE ( 'NONE', *, *, #230, .T. ) ;
#306 = CIRCLE ( 'NONE', #147, 6.000000000000000888 ) ;
#307 = ORIENTED_EDGE ( 'NONE', *, *, #367, .T. ) ;
#308 = COORDINATED_UNIVERSAL_TIME_OFFSET ( 1, 0, .AHEAD. ) ;
#309 = DIRECTION ( 'NONE',  ( 0.000000000000000000, 0.000000000000000000, 1.000000000000000000 ) ) ;
#310 = DATE_TIME_ROLE ( 'classification_date' ) ;
#311 = DIRECTION ( 'NONE',  ( -0.000000000000000000, -0.000000000000000000, -1.000000000000000000 ) ) ;
#312 = EDGE_CURVE ( 'NONE', #146, #293, #22, .T. ) ;
#313 = AXIS2_PLACEMENT_3D ( 'NONE', #186, #309, #271 ) ;
#314 = DATE_AND_TIME ( #221, #171 ) ;
#315 = PLANE ( 'NONE',  #25 ) ;
#316 = PERSON_AND_ORGANIZATION_ROLE ( 'creator' ) ;
#317 = CARTESIAN_POINT ( 'NONE',  ( 10.00000000000000000, 1.224646799147353256E-15, 0.000000000000000000 ) ) ;
#318 = PERSON_AND_ORGANIZATION ( #158, #259 ) ;
#319 = DIRECTION ( 'NONE',  ( 1.000000000000000000, 0.000000000000000000, 0.000000000000000000 ) ) ;
#320 = VECTOR ( 'NONE', #40, 1000.000000000000000 ) ;
#321 = DATE_AND_TIME ( #206, #199 ) ;
#322 = CARTESIAN_POINT ( 'NONE',  ( 0.000000000000000000, 0.000000000000000000, 7.000000000000000000 ) ) ;
#323 = CARTESIAN_POINT ( 'NONE',  ( 0.000000000000000000, 0.000000000000000000, 7.700000000000040146 ) ) ;
#324 = CARTESIAN_POINT ( 'NONE',  ( -10.00000000000000000, 0.000000000000000000, 7.000000000000000000 ) ) ;
#325 = ORIENTED_EDGE ( 'NONE', *, *, #289, .T. ) ;
#326 = EDGE_CURVE ( 'NONE', #218, #149, #114, .T. ) ;
#327 = DIRECTION ( 'NONE',  ( 1.000000000000000000, 0.000000000000000000, 0.000000000000000000 ) ) ;
#328 = AXIS2_PLACEMENT_3D ( 'NONE', #246, #64, #150 ) ;
#329 = CARTESIAN_POINT ( 'NONE',  ( 0.000000000000000000, 0.000000000000000000, 0.000000000000000000 ) ) ;
#330 = EDGE_CURVE ( 'NONE', #157, #218, #103, .T. ) ;
#331 = AXIS2_PLACEMENT_3D ( 'NONE', #292, #86, #106 ) ;
#332 = ORIENTED_EDGE ( 'NONE', *, *, #376, .F. ) ;
#333 = ORIENTED_EDGE ( 'NONE', *, *, #312, .F. ) ;
#334 = CC_DESIGN_PERSON_AND_ORGANIZATION_ASSIGNMENT ( #18, #104, ( #85 ) ) ;
#335 = DIRECTION ( 'NONE',  ( 1.000000000000000000, 0.000000000000000000, 0.000000000000000000 ) ) ;
#336 = EDGE_LOOP ( 'NONE', ( #332, #273, #249, #305 ) ) ;
#337 = CLOSED_SHELL ( 'NONE', ( #43, #109, #226, #295, #167, #3, #23, #358, #127, #71, #298 ) ) ;
#338 = APPROVAL_PERSON_ORGANIZATION ( #318, #210, #99 ) ;
#339 = DATE_TIME_ROLE ( 'creation_date' ) ;
#340 = ORIENTED_EDGE ( 'NONE', *, *, #215, .F. ) ;
#341 = EDGE_CURVE ( 'NONE', #146, #355, #134, .T. ) ;
#342 = PERSON_AND_ORGANIZATION ( #158, #259 ) ;
#343 = DIRECTION ( 'NONE',  ( 0.000000000000000000, 0.000000000000000000, 1.000000000000000000 ) ) ;
#344 = CYLINDRICAL_SURFACE ( 'NONE', #96, 4.500000000000000000 ) ;
#345 = CIRCLE ( 'NONE', #37, 4.500000000000000000 ) ;
#346 = CALENDAR_DATE ( 2022, 8, 7 ) ;
#347 = PLANE ( 'NONE',  #72 ) ;
#348 = EDGE_CURVE ( 'NONE', #66, #6, #19, .T. ) ;
#349 = CARTESIAN_POINT ( 'NONE',  ( 0.000000000000000000, 0.000000000000000000, 557.0000000000000000 ) ) ;
#350 = APPROVAL_PERSON_ORGANIZATION ( #20, #272, #217 ) ;
#351 = ORIENTED_EDGE ( 'NONE', *, *, #348, .F. ) ;
#352 = CARTESIAN_POINT ( 'NONE',  ( 4.500000000000000000, 5.510910596163088569E-16, 0.000000000000000000 ) ) ;
#353 = APPROVAL_DATE_TIME ( #321, #272 ) ;
#354 = CARTESIAN_POINT ( 'NONE',  ( 10.00000000000000000, 1.224646799147353256E-15, 7.000000000000000000 ) ) ;
#355 = VERTEX_POINT ( 'NONE', #36 ) ;
#356 = AXIS2_PLACEMENT_3D ( 'NONE', #116, #182, #176 ) ;
#357 = DIRECTION ( 'NONE',  ( -0.000000000000000000, -0.000000000000000000, -1.000000000000000000 ) ) ;
#358 = ADVANCED_FACE ( 'NONE', ( #304 ), #60, .T. ) ;
#359 = DIRECTION ( 'NONE',  ( -0.000000000000000000, -0.000000000000000000, -1.000000000000000000 ) ) ;
#360 = ORIENTED_EDGE ( 'NONE', *, *, #17, .T. ) ;
#361 = DIRECTION ( 'NONE',  ( 1.000000000000000000, 0.000000000000000000, 0.000000000000000000 ) ) ;
#362 = CC_DESIGN_PERSON_AND_ORGANIZATION_ASSIGNMENT ( #189, #223, ( #24 ) ) ;
#363 = EDGE_LOOP ( 'NONE', ( #1, #153, #9, #156 ) ) ;
#364 = ORIENTED_EDGE ( 'NONE', *, *, #145, .T. ) ;
#365 = PLANE ( 'NONE',  #313 ) ;
#366 = CIRCLE ( 'NONE', #356, 4.500000000000000000 ) ;
#367 = EDGE_CURVE ( 'NONE', #68, #209, #366, .T. ) ;
#368 = CARTESIAN_POINT ( 'NONE',  ( 0.000000000000000000, 0.000000000000000000, 7.700000000000040146 ) ) ;
#369 = CALENDAR_DATE ( 2022, 8, 7 ) ;
#370 = DIRECTION ( 'NONE',  ( 0.000000000000000000, 0.000000000000000000, -1.000000000000000000 ) ) ;
#371 = FACE_BOUND ( 'NONE', #58, .T. ) ;
#372 =( GEOMETRIC_REPRESENTATION_CONTEXT ( 3 ) GLOBAL_UNCERTAINTY_ASSIGNED_CONTEXT ( ( #47 ) ) GLOBAL_UNIT_ASSIGNED_CONTEXT ( ( #8, #62, #92 ) ) REPRESENTATION_CONTEXT ( 'NONE', 'WORKASPACE' ) );
#373 = FACE_OUTER_BOUND ( 'NONE', #297, .T. ) ;
#374 = FACE_OUTER_BOUND ( 'NONE', #35, .T. ) ;
#375 = DIRECTION ( 'NONE',  ( 1.000000000000000000, 0.000000000000000000, 0.000000000000000000 ) ) ;
#376 = EDGE_CURVE ( 'NONE', #355, #122, #270, .T. ) ;
#377 = AXIS2_PLACEMENT_3D ( 'NONE', #212, #118, #4 ) ;
#378 = CYLINDRICAL_SURFACE ( 'NONE', #84, 6.000000000000000888 ) ;
#379 = CIRCLE ( 'NONE', #177, 10.00000000000000000 ) ;
#380 = DIRECTION ( 'NONE',  ( -0.000000000000000000, -0.000000000000000000, -1.000000000000000000 ) ) ;
#381 = SECURITY_CLASSIFICATION ( '', '', #227 ) ;
ENDSEC;
END-ISO-10303-21;
