ISO-10303-21;
HEADER;
FILE_DESCRIPTION (( 'STEP AP203' ),
    '1' );
FILE_NAME ('4151.STEP',
    '2022-07-08T14:46:28',
    ( '' ),
    ( '' ),
    'SwSTEP 2.0',
    'SolidWorks 2019',
    '' );
FILE_SCHEMA (( 'CONFIG_CONTROL_DESIGN' ));
ENDSEC;

DATA;
#1 = PERSON_AND_ORGANIZATION_ROLE ( 'design_owner' ) ;
#2 = APPROVAL_PERSON_ORGANIZATION ( #220, #81, #326 ) ;
#3 = DIRECTION ( 'NONE',  ( 1.000000000000000000, 0.000000000000000000, -0.000000000000000000 ) ) ;
#4 = LINE ( 'NONE', #183, #100 ) ;
#5 = EDGE_CURVE ( 'NONE', #203, #366, #221, .T. ) ;
#6 = CIRCLE ( 'NONE', #40, 5.500000000000000000 ) ;
#7 = PRODUCT_RELATED_PRODUCT_CATEGORY ( 'detail', '', ( #285 ) ) ;
#8 = COORDINATED_UNIVERSAL_TIME_OFFSET ( 1, 0, .AHEAD. ) ;
#9 = DIRECTION ( 'NONE',  ( -0.000000000000000000, -0.000000000000000000, -1.000000000000000000 ) ) ;
#10 = CIRCLE ( 'NONE', #15, 5.000000000000000000 ) ;
#11 = DIRECTION ( 'NONE',  ( 1.000000000000000000, 0.000000000000000000, 0.000000000000000000 ) ) ;
#12 = ORIENTED_EDGE ( 'NONE', *, *, #148, .T. ) ;
#13 = DIRECTION ( 'NONE',  ( -0.000000000000000000, -0.000000000000000000, -1.000000000000000000 ) ) ;
#14 = ORIENTED_EDGE ( 'NONE', *, *, #337, .F. ) ;
#15 = AXIS2_PLACEMENT_3D ( 'NONE', #29, #228, #288 ) ;
#16 = ORIENTED_EDGE ( 'NONE', *, *, #377, .F. ) ;
#17 = ORIENTED_EDGE ( 'NONE', *, *, #123, .T. ) ;
#18 = EDGE_CURVE ( 'NONE', #203, #302, #208, .T. ) ;
#19 = EDGE_LOOP ( 'NONE', ( #135, #76, #193, #340 ) ) ;
#20 = CARTESIAN_POINT ( 'NONE',  ( 8.000000000000000000, 9.797174393178825657E-16, 0.000000000000000000 ) ) ;
#21 = AXIS2_PLACEMENT_3D ( 'NONE', #232, #347, #312 ) ;
#22 = CARTESIAN_POINT ( 'NONE',  ( 0.000000000000000000, 0.000000000000000000, 5.000000000000000000 ) ) ;
#23 = DIRECTION ( 'NONE',  ( 0.000000000000000000, 0.000000000000000000, -1.000000000000000000 ) ) ;
#24 = COORDINATED_UNIVERSAL_TIME_OFFSET ( 1, 0, .AHEAD. ) ;
#25 = CIRCLE ( 'NONE', #79, 5.500000000000000000 ) ;
#26 = CARTESIAN_POINT ( 'NONE',  ( 0.000000000000000000, 0.000000000000000000, 5.000000000000000000 ) ) ;
#27 = ORIENTED_EDGE ( 'NONE', *, *, #343, .T. ) ;
#28 = AXIS2_PLACEMENT_3D ( 'NONE', #338, #248, #133 ) ;
#29 = CARTESIAN_POINT ( 'NONE',  ( 0.000000000000000000, 0.000000000000000000, 205.0000000000000284 ) ) ;
#30 = MECHANICAL_CONTEXT ( 'NONE', #289, 'mechanical' ) ;
#31 = ADVANCED_FACE ( 'NONE', ( #143 ), #155, .F. ) ;
#32 = CARTESIAN_POINT ( 'NONE',  ( -3.250000000000000444, 0.000000000000000000, 205.0000000000000284 ) ) ;
#33 = DIRECTION ( 'NONE',  ( 1.000000000000000000, 0.000000000000000000, 0.000000000000000000 ) ) ;
#34 = PERSON_AND_ORGANIZATION_ROLE ( 'classification_officer' ) ;
#35 = CLOSED_SHELL ( 'NONE', ( #196, #258, #110, #290, #316, #138, #348, #307, #80, #31, #68 ) ) ;
#36 = ORGANIZATION ( 'NEURÈENÝ', 'NEURÈENÝ', '' ) ;
#37 = CARTESIAN_POINT ( 'NONE',  ( 0.000000000000000000, 0.000000000000000000, 5.000000000000000000 ) ) ;
#38 = CC_DESIGN_DATE_AND_TIME_ASSIGNMENT ( #246, #41, ( #156 ) ) ;
#39 = FACE_OUTER_BOUND ( 'NONE', #368, .T. ) ;
#40 = AXIS2_PLACEMENT_3D ( 'NONE', #359, #42, #216 ) ;
#41 = DATE_TIME_ROLE ( 'classification_date' ) ;
#42 = DIRECTION ( 'NONE',  ( -0.000000000000000000, -0.000000000000000000, -1.000000000000000000 ) ) ;
#43 = CIRCLE ( 'NONE', #21, 8.000000000000000000 ) ;
#44 =( NAMED_UNIT ( * ) PLANE_ANGLE_UNIT ( ) SI_UNIT ( $, .RADIAN. ) );
#45 = LOCAL_TIME ( 16, 46, 28.00000000000000000, #284 ) ;
#46 = ORIENTED_EDGE ( 'NONE', *, *, #295, .F. ) ;
#47 = EDGE_LOOP ( 'NONE', ( #334, #167, #187, #114 ) ) ;
#48 =( LENGTH_UNIT ( ) NAMED_UNIT ( * ) SI_UNIT ( .MILLI., .METRE. ) );
#49 = CIRCLE ( 'NONE', #192, 8.000000000000000000 ) ;
#50 = VERTEX_POINT ( 'NONE', #147 ) ;
#51 = EDGE_CURVE ( 'NONE', #281, #168, #341, .T. ) ;
#52 = ORIENTED_EDGE ( 'NONE', *, *, #266, .T. ) ;
#53 = DIRECTION ( 'NONE',  ( 0.000000000000000000, 0.000000000000000000, 1.000000000000000000 ) ) ;
#54 = CYLINDRICAL_SURFACE ( 'NONE', #219, 5.000000000000000000 ) ;
#55 = AXIS2_PLACEMENT_3D ( 'NONE', #236, #239, #355 ) ;
#56 = VERTEX_POINT ( 'NONE', #380 ) ;
#57 = AXIS2_PLACEMENT_3D ( 'NONE', #306, #361, #136 ) ;
#58 = LINE ( 'NONE', #311, #372 ) ;
#59 = CARTESIAN_POINT ( 'NONE',  ( 0.000000000000000000, 0.000000000000000000, 5.500000000000005329 ) ) ;
#60 = ORIENTED_EDGE ( 'NONE', *, *, #210, .T. ) ;
#61 = PERSON_AND_ORGANIZATION ( #374, #36 ) ;
#62 = VERTEX_POINT ( 'NONE', #124 ) ;
#63 = VECTOR ( 'NONE', #197, 1000.000000000000000 ) ;
#64 = DIRECTION ( 'NONE',  ( 0.000000000000000000, 0.000000000000000000, 1.000000000000000000 ) ) ;
#65 = APPLICATION_PROTOCOL_DEFINITION ( 'international standard', 'config_control_design', 1994, #280 ) ;
#66 = CARTESIAN_POINT ( 'NONE',  ( 0.000000000000000000, 0.000000000000000000, 205.0000000000000284 ) ) ;
#67 = APPROVAL_ROLE ( '' ) ;
#68 = ADVANCED_FACE ( 'NONE', ( #283 ), #234, .F. ) ;
#69 = DIRECTION ( 'NONE',  ( -0.000000000000000000, -0.000000000000000000, -1.000000000000000000 ) ) ;
#70 = CARTESIAN_POINT ( 'NONE',  ( 0.000000000000000000, 0.000000000000000000, 0.000000000000000000 ) ) ;
#71 = DIRECTION ( 'NONE',  ( 0.000000000000000000, 0.000000000000000000, 1.000000000000000000 ) ) ;
#72 = ORIENTED_EDGE ( 'NONE', *, *, #181, .T. ) ;
#73 = EDGE_CURVE ( 'NONE', #62, #265, #10, .T. ) ;
#74 = CIRCLE ( 'NONE', #369, 5.000000000000000000 ) ;
#75 = CIRCLE ( 'NONE', #282, 3.250000000000000444 ) ;
#76 = ORIENTED_EDGE ( 'NONE', *, *, #5, .T. ) ;
#77 = DIRECTION ( 'NONE',  ( 0.000000000000000000, 0.000000000000000000, 1.000000000000000000 ) ) ;
#78 = ORIENTED_EDGE ( 'NONE', *, *, #123, .F. ) ;
#79 = AXIS2_PLACEMENT_3D ( 'NONE', #273, #9, #357 ) ;
#80 = ADVANCED_FACE ( 'NONE', ( #310, #92 ), #120, .T. ) ;
#81 = APPROVAL ( #188, 'NEURÈENÝ' ) ;
#82 = VERTEX_POINT ( 'NONE', #20 ) ;
#83 = VERTEX_POINT ( 'NONE', #151 ) ;
#84 = CARTESIAN_POINT ( 'NONE',  ( 8.000000000000000000, 9.797174393178825657E-16, 5.000000000000000000 ) ) ;
#85 = APPLICATION_PROTOCOL_DEFINITION ( 'international standard', 'config_control_design', 1994, #289 ) ;
#86 = DIRECTION ( 'NONE',  ( 0.000000000000000000, 0.000000000000000000, 1.000000000000000000 ) ) ;
#87 = DIRECTION ( 'NONE',  ( 0.000000000000000000, 0.000000000000000000, 1.000000000000000000 ) ) ;
#88 = DIRECTION ( 'NONE',  ( 1.224646799147353207E-16, 1.000000000000000000, -0.000000000000000000 ) ) ;
#89 = DIRECTION ( 'NONE',  ( 0.000000000000000000, 0.000000000000000000, 1.000000000000000000 ) ) ;
#90 = TOROIDAL_SURFACE ( 'NONE', #113, 5.500000000000000000, 0.5000000000000000000 ) ;
#91 = EDGE_CURVE ( 'NONE', #281, #82, #174, .T. ) ;
#92 = FACE_OUTER_BOUND ( 'NONE', #176, .T. ) ;
#93 = APPROVAL_STATUS ( 'not_yet_approved' ) ;
#94 = CC_DESIGN_SECURITY_CLASSIFICATION ( #156, ( #96 ) ) ;
#95 = DATE_TIME_ROLE ( 'creation_date' ) ;
#96 = PRODUCT_DEFINITION_FORMATION_WITH_SPECIFIED_SOURCE ( 'LIBOVOLNÝ', '', #285, .NOT_KNOWN. ) ;
#97 = CARTESIAN_POINT ( 'NONE',  ( 8.000000000000000000, 9.797174393178825657E-16, 5.000000000000000000 ) ) ;
#98 = APPROVAL_DATE_TIME ( #356, #279 ) ;
#99 = CARTESIAN_POINT ( 'NONE',  ( 3.250000000000000444, 3.980102097228898231E-16, 0.000000000000000000 ) ) ;
#100 = VECTOR ( 'NONE', #293, 1000.000000000000000 ) ;
#101 = DIRECTION ( 'NONE',  ( 0.000000000000000000, 0.000000000000000000, -1.000000000000000000 ) ) ;
#102 = AXIS2_PLACEMENT_3D ( 'NONE', #332, #87, #11 ) ;
#103 = DIRECTION ( 'NONE',  ( -1.000000000000000000, 0.000000000000000000, 0.000000000000000000 ) ) ;
#104 = CARTESIAN_POINT ( 'NONE',  ( 0.000000000000000000, 0.000000000000000000, 205.0000000000000284 ) ) ;
#105 = CALENDAR_DATE ( 2022, 8, 7 ) ;
#106 = ORIENTED_EDGE ( 'NONE', *, *, #117, .F. ) ;
#107 = DIRECTION ( 'NONE',  ( 1.000000000000000000, 0.000000000000000000, -0.000000000000000000 ) ) ;
#108 =( GEOMETRIC_REPRESENTATION_CONTEXT ( 3 ) GLOBAL_UNCERTAINTY_ASSIGNED_CONTEXT ( ( #119 ) ) GLOBAL_UNIT_ASSIGNED_CONTEXT ( ( #48, #44, #344 ) ) REPRESENTATION_CONTEXT ( 'NONE', 'WORKASPACE' ) );
#109 = ORIENTED_EDGE ( 'NONE', *, *, #328, .F. ) ;
#110 = ADVANCED_FACE ( 'NONE', ( #373 ), #116, .T. ) ;
#111 = ORIENTED_EDGE ( 'NONE', *, *, #247, .T. ) ;
#112 = ORIENTED_EDGE ( 'NONE', *, *, #126, .T. ) ;
#113 = AXIS2_PLACEMENT_3D ( 'NONE', #125, #71, #182 ) ;
#114 = ORIENTED_EDGE ( 'NONE', *, *, #126, .F. ) ;
#115 = VECTOR ( 'NONE', #101, 1000.000000000000000 ) ;
#116 = CYLINDRICAL_SURFACE ( 'NONE', #256, 5.000000000000000000 ) ;
#117 = EDGE_CURVE ( 'NONE', #82, #83, #43, .T. ) ;
#118 = FACE_OUTER_BOUND ( 'NONE', #141, .T. ) ;
#119 = UNCERTAINTY_MEASURE_WITH_UNIT (LENGTH_MEASURE( 1.000000000000000082E-05 ), #48, 'distance_accuracy_value', 'NONE');
#120 = PLANE ( 'NONE',  #365 ) ;
#121 = CALENDAR_DATE ( 2022, 8, 7 ) ;
#122 = ORIENTED_EDGE ( 'NONE', *, *, #73, .T. ) ;
#123 = EDGE_CURVE ( 'NONE', #302, #203, #74, .T. ) ;
#124 = CARTESIAN_POINT ( 'NONE',  ( -5.000000000000000000, 0.000000000000000000, 205.0000000000000284 ) ) ;
#125 = CARTESIAN_POINT ( 'NONE',  ( 0.000000000000000000, 0.000000000000000000, 5.500000000000005329 ) ) ;
#126 = EDGE_CURVE ( 'NONE', #168, #83, #129, .T. ) ;
#127 = PERSON_AND_ORGANIZATION ( #374, #36 ) ;
#128 = DIRECTION ( 'NONE',  ( -0.000000000000000000, -0.000000000000000000, -1.000000000000000000 ) ) ;
#129 = LINE ( 'NONE', #154, #235 ) ;
#130 = CARTESIAN_POINT ( 'NONE',  ( 5.500000000000000000, 0.000000000000000000, 5.000000000000002665 ) ) ;
#131 = AXIS2_PLACEMENT_3D ( 'NONE', #59, #53, #199 ) ;
#132 = APPROVAL ( #322, 'NEURÈENÝ' ) ;
#133 = DIRECTION ( 'NONE',  ( 0.000000000000000000, 0.000000000000000000, -1.000000000000000000 ) ) ;
#134 = PERSON_AND_ORGANIZATION_ROLE ( 'creator' ) ;
#135 = ORIENTED_EDGE ( 'NONE', *, *, #18, .F. ) ;
#136 = DIRECTION ( 'NONE',  ( 1.000000000000000000, 0.000000000000000000, 0.000000000000000000 ) ) ;
#137 = ORIENTED_EDGE ( 'NONE', *, *, #173, .T. ) ;
#138 = ADVANCED_FACE ( 'NONE', ( #207, #275 ), #268, .T. ) ;
#139 = VERTEX_POINT ( 'NONE', #321 ) ;
#140 = ORIENTED_EDGE ( 'NONE', *, *, #364, .F. ) ;
#141 = EDGE_LOOP ( 'NONE', ( #109, #106 ) ) ;
#142 = CC_DESIGN_PERSON_AND_ORGANIZATION_ASSIGNMENT ( #61, #1, ( #285 ) ) ;
#143 = FACE_OUTER_BOUND ( 'NONE', #169, .T. ) ;
#144 = CC_DESIGN_APPROVAL ( #279, ( #96 ) ) ;
#145 = CARTESIAN_POINT ( 'NONE',  ( 5.000000000000000000, 6.123233995736766282E-16, 5.500000000000005329 ) ) ;
#146 = DIRECTION ( 'NONE',  ( -1.000000000000000000, 1.224646799147351482E-16, 0.000000000000000000 ) ) ;
#147 = CARTESIAN_POINT ( 'NONE',  ( -3.250000000000000444, 0.000000000000000000, 205.0000000000000284 ) ) ;
#148 = EDGE_CURVE ( 'NONE', #233, #56, #205, .T. ) ;
#149 = ORIENTED_EDGE ( 'NONE', *, *, #337, .T. ) ;
#150 = CC_DESIGN_APPROVAL ( #132, ( #381 ) ) ;
#151 = CARTESIAN_POINT ( 'NONE',  ( -8.000000000000000000, 0.000000000000000000, 0.000000000000000000 ) ) ;
#152 = CALENDAR_DATE ( 2022, 8, 7 ) ;
#153 = APPROVAL_ROLE ( '' ) ;
#154 = CARTESIAN_POINT ( 'NONE',  ( -8.000000000000000000, 0.000000000000000000, 5.000000000000000000 ) ) ;
#155 = TOROIDAL_SURFACE ( 'NONE', #131, 5.500000000000000000, 0.5000000000000000000 ) ;
#156 = SECURITY_CLASSIFICATION ( '', '', #296 ) ;
#157 = DIRECTION ( 'NONE',  ( -0.000000000000000000, -0.000000000000000000, -1.000000000000000000 ) ) ;
#158 = CALENDAR_DATE ( 2022, 8, 7 ) ;
#159 = CARTESIAN_POINT ( 'NONE',  ( -5.000000000000000000, 0.000000000000000000, 5.500000000000005329 ) ) ;
#160 = PERSON_AND_ORGANIZATION ( #374, #36 ) ;
#161 = CARTESIAN_POINT ( 'NONE',  ( 5.000000000000000000, 6.123233995736766282E-16, 205.0000000000000284 ) ) ;
#162 = DIRECTION ( 'NONE',  ( -1.000000000000000000, 0.000000000000000000, 0.000000000000000000 ) ) ;
#163 = CARTESIAN_POINT ( 'NONE',  ( 0.000000000000000000, 0.000000000000000000, 205.0000000000000284 ) ) ;
#164 = VERTEX_POINT ( 'NONE', #130 ) ;
#165 = AXIS2_PLACEMENT_3D ( 'NONE', #180, #269, #3 ) ;
#166 = DIRECTION ( 'NONE',  ( -0.000000000000000000, -0.000000000000000000, -1.000000000000000000 ) ) ;
#167 = ORIENTED_EDGE ( 'NONE', *, *, #91, .T. ) ;
#168 = VERTEX_POINT ( 'NONE', #185 ) ;
#169 = EDGE_LOOP ( 'NONE', ( #345, #78, #27, #225 ) ) ;
#170 = ORIENTED_EDGE ( 'NONE', *, *, #276, .T. ) ;
#171 = CARTESIAN_POINT ( 'NONE',  ( 0.000000000000000000, 0.000000000000000000, 205.0000000000000284 ) ) ;
#172 = LOCAL_TIME ( 16, 46, 28.00000000000000000, #329 ) ;
#173 = EDGE_CURVE ( 'NONE', #265, #302, #4, .T. ) ;
#174 = LINE ( 'NONE', #84, #63 ) ;
#175 = AXIS2_PLACEMENT_3D ( 'NONE', #66, #300, #103 ) ;
#176 = EDGE_LOOP ( 'NONE', ( #122, #195 ) ) ;
#177 = APPROVAL_DATE_TIME ( #263, #132 ) ;
#178 = PRODUCT_DEFINITION_SHAPE ( 'NONE', 'NONE',  #381 ) ;
#179 = DIRECTION ( 'NONE',  ( 1.000000000000000000, 0.000000000000000000, 0.000000000000000000 ) ) ;
#180 = CARTESIAN_POINT ( 'NONE',  ( 0.000000000000000000, 0.000000000000000000, 5.000000000000000000 ) ) ;
#181 = EDGE_CURVE ( 'NONE', #168, #281, #49, .T. ) ;
#182 = DIRECTION ( 'NONE',  ( 1.000000000000000000, 0.000000000000000000, 0.000000000000000000 ) ) ;
#183 = CARTESIAN_POINT ( 'NONE',  ( 5.000000000000000000, 6.123233995736766282E-16, 205.0000000000000284 ) ) ;
#184 = PERSON_AND_ORGANIZATION ( #374, #36 ) ;
#185 = CARTESIAN_POINT ( 'NONE',  ( -8.000000000000000000, 0.000000000000000000, 5.000000000000000000 ) ) ;
#186 = DIRECTION ( 'NONE',  ( -0.000000000000000000, -0.000000000000000000, -1.000000000000000000 ) ) ;
#187 = ORIENTED_EDGE ( 'NONE', *, *, #117, .T. ) ;
#188 = APPROVAL_STATUS ( 'not_yet_approved' ) ;
#189 = CC_DESIGN_PERSON_AND_ORGANIZATION_ASSIGNMENT ( #287, #134, ( #96 ) ) ;
#190 = EDGE_LOOP ( 'NONE', ( #140, #137, #17, #14 ) ) ;
#191 = ORIENTED_EDGE ( 'NONE', *, *, #377, .T. ) ;
#192 = AXIS2_PLACEMENT_3D ( 'NONE', #360, #244, #241 ) ;
#193 = ORIENTED_EDGE ( 'NONE', *, *, #210, .F. ) ;
#194 = CIRCLE ( 'NONE', #57, 8.000000000000000000 ) ;
#195 = ORIENTED_EDGE ( 'NONE', *, *, #364, .T. ) ;
#196 = ADVANCED_FACE ( 'NONE', ( #39 ), #352, .F. ) ;
#197 = DIRECTION ( 'NONE',  ( -0.000000000000000000, -0.000000000000000000, -1.000000000000000000 ) ) ;
#198 = CARTESIAN_POINT ( 'NONE',  ( -5.500000000000000000, 6.735557395310442023E-16, 5.000000000000002665 ) ) ;
#199 = DIRECTION ( 'NONE',  ( 1.000000000000000000, 0.000000000000000000, 0.000000000000000000 ) ) ;
#200 = FACE_OUTER_BOUND ( 'NONE', #309, .T. ) ;
#201 = ORIENTED_EDGE ( 'NONE', *, *, #18, .T. ) ;
#202 = CC_DESIGN_APPROVAL ( #81, ( #156 ) ) ;
#203 = VERTEX_POINT ( 'NONE', #159 ) ;
#204 = PERSON_AND_ORGANIZATION ( #374, #36 ) ;
#205 = CIRCLE ( 'NONE', #262, 3.250000000000000444 ) ;
#206 = DIRECTION ( 'NONE',  ( 0.000000000000000000, 0.000000000000000000, 1.000000000000000000 ) ) ;
#207 = FACE_BOUND ( 'NONE', #305, .T. ) ;
#208 = CIRCLE ( 'NONE', #320, 5.000000000000000000 ) ;
#209 = CIRCLE ( 'NONE', #28, 0.5000000000000004441 ) ;
#210 = EDGE_CURVE ( 'NONE', #164, #366, #25, .T. ) ;
#211 = DIRECTION ( 'NONE',  ( 1.000000000000000000, 0.000000000000000000, 0.000000000000000000 ) ) ;
#212 = FACE_OUTER_BOUND ( 'NONE', #47, .T. ) ;
#213 = LINE ( 'NONE', #32, #253 ) ;
#214 = CC_DESIGN_PERSON_AND_ORGANIZATION_ASSIGNMENT ( #160, #298, ( #96 ) ) ;
#215 = LINE ( 'NONE', #243, #115 ) ;
#216 = DIRECTION ( 'NONE',  ( 1.000000000000000000, 0.000000000000000000, 0.000000000000000000 ) ) ;
#217 = DIRECTION ( 'NONE',  ( 1.000000000000000000, 0.000000000000000000, 0.000000000000000000 ) ) ;
#218 = ORIENTED_EDGE ( 'NONE', *, *, #328, .T. ) ;
#219 = AXIS2_PLACEMENT_3D ( 'NONE', #163, #13, #260 ) ;
#220 = PERSON_AND_ORGANIZATION ( #374, #36 ) ;
#221 = CIRCLE ( 'NONE', #335, 0.5000000000000004441 ) ;
#222 = AXIS2_PLACEMENT_3D ( 'NONE', #22, #375, #162 ) ;
#223 = ORIENTED_EDGE ( 'NONE', *, *, #173, .F. ) ;
#224 = CARTESIAN_POINT ( 'NONE',  ( 0.000000000000000000, 0.000000000000000000, 0.000000000000000000 ) ) ;
#225 = ORIENTED_EDGE ( 'NONE', *, *, #226, .F. ) ;
#226 = EDGE_CURVE ( 'NONE', #366, #164, #6, .T. ) ;
#227 = ORIENTED_EDGE ( 'NONE', *, *, #181, .F. ) ;
#228 = DIRECTION ( 'NONE',  ( 0.000000000000000000, 0.000000000000000000, 1.000000000000000000 ) ) ;
#229 = DIRECTION ( 'NONE',  ( -0.000000000000000000, -0.000000000000000000, -1.000000000000000000 ) ) ;
#230 = CC_DESIGN_DATE_AND_TIME_ASSIGNMENT ( #351, #95, ( #381 ) ) ;
#231 = PLANE ( 'NONE',  #353 ) ;
#232 = CARTESIAN_POINT ( 'NONE',  ( 0.000000000000000000, 0.000000000000000000, 0.000000000000000000 ) ) ;
#233 = VERTEX_POINT ( 'NONE', #99 ) ;
#234 = CYLINDRICAL_SURFACE ( 'NONE', #249, 3.250000000000000444 ) ;
#235 = VECTOR ( 'NONE', #186, 1000.000000000000000 ) ;
#236 = CARTESIAN_POINT ( 'NONE',  ( 0.000000000000000000, 0.000000000000000000, 205.0000000000000284 ) ) ;
#237 = CALENDAR_DATE ( 2022, 8, 7 ) ;
#238 = AXIS2_PLACEMENT_3D ( 'NONE', #37, #157, #272 ) ;
#239 = DIRECTION ( 'NONE',  ( 0.000000000000000000, 0.000000000000000000, 1.000000000000000000 ) ) ;
#240 = COORDINATED_UNIVERSAL_TIME_OFFSET ( 1, 0, .AHEAD. ) ;
#241 = DIRECTION ( 'NONE',  ( 1.000000000000000000, 0.000000000000000000, 0.000000000000000000 ) ) ;
#242 = CC_DESIGN_PERSON_AND_ORGANIZATION_ASSIGNMENT ( #204, #294, ( #381 ) ) ;
#243 = CARTESIAN_POINT ( 'NONE',  ( 3.250000000000000444, 3.980102097228898231E-16, 205.0000000000000284 ) ) ;
#244 = DIRECTION ( 'NONE',  ( 0.000000000000000000, 0.000000000000000000, 1.000000000000000000 ) ) ;
#245 = DIRECTION ( 'NONE',  ( 0.000000000000000000, 0.000000000000000000, 1.000000000000000000 ) ) ;
#246 = DATE_AND_TIME ( #105, #172 ) ;
#247 = EDGE_CURVE ( 'NONE', #50, #56, #213, .T. ) ;
#248 = DIRECTION ( 'NONE',  ( 0.000000000000000000, -1.000000000000000000, 0.000000000000000000 ) ) ;
#249 = AXIS2_PLACEMENT_3D ( 'NONE', #261, #23, #350 ) ;
#250 = ORIENTED_EDGE ( 'NONE', *, *, #247, .F. ) ;
#251 = MANIFOLD_SOLID_BREP ( 'Odebrat vysunutím3', #35 ) ;
#252 = ORIENTED_EDGE ( 'NONE', *, *, #148, .F. ) ;
#253 = VECTOR ( 'NONE', #325, 1000.000000000000000 ) ;
#254 = EDGE_LOOP ( 'NONE', ( #16, #339 ) ) ;
#255 = APPROVAL_PERSON_ORGANIZATION ( #127, #132, #67 ) ;
#256 = AXIS2_PLACEMENT_3D ( 'NONE', #171, #229, #376 ) ;
#257 = LOCAL_TIME ( 16, 46, 28.00000000000000000, #24 ) ;
#258 = ADVANCED_FACE ( 'NONE', ( #327 ), #90, .F. ) ;
#259 = CARTESIAN_POINT ( 'NONE',  ( 0.000000000000000000, 0.000000000000000000, 205.0000000000000284 ) ) ;
#260 = DIRECTION ( 'NONE',  ( -1.000000000000000000, 0.000000000000000000, 0.000000000000000000 ) ) ;
#261 = CARTESIAN_POINT ( 'NONE',  ( 0.000000000000000000, 0.000000000000000000, 205.0000000000000284 ) ) ;
#262 = AXIS2_PLACEMENT_3D ( 'NONE', #70, #128, #299 ) ;
#263 = DATE_AND_TIME ( #152, #45 ) ;
#264 = ORIENTED_EDGE ( 'NONE', *, *, #226, .T. ) ;
#265 = VERTEX_POINT ( 'NONE', #161 ) ;
#266 = EDGE_CURVE ( 'NONE', #56, #233, #371, .T. ) ;
#267 = CARTESIAN_POINT ( 'NONE',  ( -5.500000000000000000, 6.735557395310442023E-16, 5.500000000000005329 ) ) ;
#268 = PLANE ( 'NONE',  #165 ) ;
#269 = DIRECTION ( 'NONE',  ( 0.000000000000000000, 0.000000000000000000, 1.000000000000000000 ) ) ;
#270 = CC_DESIGN_PERSON_AND_ORGANIZATION_ASSIGNMENT ( #184, #34, ( #156 ) ) ;
#271 = CIRCLE ( 'NONE', #102, 5.000000000000000000 ) ;
#272 = DIRECTION ( 'NONE',  ( -1.000000000000000000, 0.000000000000000000, 0.000000000000000000 ) ) ;
#273 = CARTESIAN_POINT ( 'NONE',  ( 0.000000000000000000, 0.000000000000000000, 5.000000000000000000 ) ) ;
#274 = DESIGN_CONTEXT ( 'detailed design', #280, 'design' ) ;
#275 = FACE_OUTER_BOUND ( 'NONE', #286, .T. ) ;
#276 = EDGE_CURVE ( 'NONE', #139, #50, #301, .T. ) ;
#277 = ORIENTED_EDGE ( 'NONE', *, *, #73, .F. ) ;
#278 = ORIENTED_EDGE ( 'NONE', *, *, #266, .F. ) ;
#279 = APPROVAL ( #93, 'NEURÈENÝ' ) ;
#280 = APPLICATION_CONTEXT ( 'configuration controlled 3d designs of mechanical parts and assemblies' ) ;
#281 = VERTEX_POINT ( 'NONE', #97 ) ;
#282 = AXIS2_PLACEMENT_3D ( 'NONE', #104, #77, #217 ) ;
#283 = FACE_OUTER_BOUND ( 'NONE', #319, .T. ) ;
#284 = COORDINATED_UNIVERSAL_TIME_OFFSET ( 1, 0, .AHEAD. ) ;
#285 = PRODUCT ( '4151', '4151', '', ( #30 ) ) ;
#286 = EDGE_LOOP ( 'NONE', ( #72, #315 ) ) ;
#287 = PERSON_AND_ORGANIZATION ( #374, #36 ) ;
#288 = DIRECTION ( 'NONE',  ( 1.000000000000000000, 0.000000000000000000, 0.000000000000000000 ) ) ;
#289 = APPLICATION_CONTEXT ( 'configuration controlled 3d designs of mechanical parts and assemblies' ) ;
#290 = ADVANCED_FACE ( 'NONE', ( #212 ), #323, .T. ) ;
#291 = DIRECTION ( 'NONE',  ( 1.000000000000000000, 0.000000000000000000, -0.000000000000000000 ) ) ;
#292 = DIRECTION ( 'NONE',  ( 0.000000000000000000, 0.000000000000000000, 1.000000000000000000 ) ) ;
#293 = DIRECTION ( 'NONE',  ( -0.000000000000000000, -0.000000000000000000, -1.000000000000000000 ) ) ;
#294 = PERSON_AND_ORGANIZATION_ROLE ( 'creator' ) ;
#295 = EDGE_CURVE ( 'NONE', #139, #233, #215, .T. ) ;
#296 = SECURITY_CLASSIFICATION_LEVEL ( 'unclassified' ) ;
#297 = DIRECTION ( 'NONE',  ( 1.000000000000000000, 0.000000000000000000, 0.000000000000000000 ) ) ;
#298 = PERSON_AND_ORGANIZATION_ROLE ( 'design_supplier' ) ;
#299 = DIRECTION ( 'NONE',  ( 1.000000000000000000, 0.000000000000000000, 0.000000000000000000 ) ) ;
#300 = DIRECTION ( 'NONE',  ( 0.000000000000000000, 0.000000000000000000, -1.000000000000000000 ) ) ;
#301 = CIRCLE ( 'NONE', #55, 3.250000000000000444 ) ;
#302 = VERTEX_POINT ( 'NONE', #145 ) ;
#303 = LOCAL_TIME ( 16, 46, 28.00000000000000000, #240 ) ;
#304 = ADVANCED_BREP_SHAPE_REPRESENTATION ( '4151', ( #251, #314 ), #108 ) ;
#305 = EDGE_LOOP ( 'NONE', ( #60, #264 ) ) ;
#306 = CARTESIAN_POINT ( 'NONE',  ( 0.000000000000000000, 0.000000000000000000, 0.000000000000000000 ) ) ;
#307 = ADVANCED_FACE ( 'NONE', ( #200 ), #54, .T. ) ;
#308 = ORIENTED_EDGE ( 'NONE', *, *, #91, .F. ) ;
#309 = EDGE_LOOP ( 'NONE', ( #223, #277, #149, #201 ) ) ;
#310 = FACE_BOUND ( 'NONE', #254, .T. ) ;
#311 = CARTESIAN_POINT ( 'NONE',  ( -5.000000000000000000, 0.000000000000000000, 205.0000000000000284 ) ) ;
#312 = DIRECTION ( 'NONE',  ( 1.000000000000000000, 0.000000000000000000, 0.000000000000000000 ) ) ;
#313 = CYLINDRICAL_SURFACE ( 'NONE', #222, 8.000000000000000000 ) ;
#314 = AXIS2_PLACEMENT_3D ( 'NONE', #318, #292, #211 ) ;
#315 = ORIENTED_EDGE ( 'NONE', *, *, #51, .T. ) ;
#316 = ADVANCED_FACE ( 'NONE', ( #330 ), #313, .T. ) ;
#317 = EDGE_LOOP ( 'NONE', ( #308, #227, #112, #218 ) ) ;
#318 = CARTESIAN_POINT ( 'NONE',  ( 0.000000000000000000, 0.000000000000000000, 0.000000000000000000 ) ) ;
#319 = EDGE_LOOP ( 'NONE', ( #46, #170, #111, #52 ) ) ;
#320 = AXIS2_PLACEMENT_3D ( 'NONE', #342, #86, #349 ) ;
#321 = CARTESIAN_POINT ( 'NONE',  ( 3.250000000000000444, 3.980102097228898231E-16, 205.0000000000000284 ) ) ;
#322 = APPROVAL_STATUS ( 'not_yet_approved' ) ;
#323 = CYLINDRICAL_SURFACE ( 'NONE', #238, 8.000000000000000000 ) ;
#324 = CARTESIAN_POINT ( 'NONE',  ( 0.000000000000000000, 0.000000000000000000, 0.000000000000000000 ) ) ;
#325 = DIRECTION ( 'NONE',  ( 0.000000000000000000, 0.000000000000000000, -1.000000000000000000 ) ) ;
#326 = APPROVAL_ROLE ( '' ) ;
#327 = FACE_OUTER_BOUND ( 'NONE', #19, .T. ) ;
#328 = EDGE_CURVE ( 'NONE', #83, #82, #194, .T. ) ;
#329 = COORDINATED_UNIVERSAL_TIME_OFFSET ( 1, 0, .AHEAD. ) ;
#330 = FACE_OUTER_BOUND ( 'NONE', #317, .T. ) ;
#331 = SHAPE_DEFINITION_REPRESENTATION ( #178, #304 ) ;
#332 = CARTESIAN_POINT ( 'NONE',  ( 0.000000000000000000, 0.000000000000000000, 205.0000000000000284 ) ) ;
#333 = AXIS2_PLACEMENT_3D ( 'NONE', #324, #69, #297 ) ;
#334 = ORIENTED_EDGE ( 'NONE', *, *, #51, .F. ) ;
#335 = AXIS2_PLACEMENT_3D ( 'NONE', #267, #88, #146 ) ;
#336 = APPROVAL_PERSON_ORGANIZATION ( #378, #279, #153 ) ;
#337 = EDGE_CURVE ( 'NONE', #62, #203, #58, .T. ) ;
#338 = CARTESIAN_POINT ( 'NONE',  ( 5.500000000000000000, 0.000000000000000000, 5.500000000000005329 ) ) ;
#339 = ORIENTED_EDGE ( 'NONE', *, *, #276, .F. ) ;
#340 = ORIENTED_EDGE ( 'NONE', *, *, #343, .F. ) ;
#341 = CIRCLE ( 'NONE', #354, 8.000000000000000000 ) ;
#342 = CARTESIAN_POINT ( 'NONE',  ( 0.000000000000000000, 0.000000000000000000, 5.500000000000005329 ) ) ;
#343 = EDGE_CURVE ( 'NONE', #302, #164, #209, .T. ) ;
#344 =( NAMED_UNIT ( * ) SI_UNIT ( $, .STERADIAN. ) SOLID_ANGLE_UNIT ( ) );
#345 = ORIENTED_EDGE ( 'NONE', *, *, #5, .F. ) ;
#346 = FACE_BOUND ( 'NONE', #363, .T. ) ;
#347 = DIRECTION ( 'NONE',  ( 0.000000000000000000, 0.000000000000000000, 1.000000000000000000 ) ) ;
#348 = ADVANCED_FACE ( 'NONE', ( #346, #118 ), #231, .F. ) ;
#349 = DIRECTION ( 'NONE',  ( 1.000000000000000000, 0.000000000000000000, 0.000000000000000000 ) ) ;
#350 = DIRECTION ( 'NONE',  ( -1.000000000000000000, 0.000000000000000000, 0.000000000000000000 ) ) ;
#351 = DATE_AND_TIME ( #237, #257 ) ;
#352 = CYLINDRICAL_SURFACE ( 'NONE', #175, 3.250000000000000444 ) ;
#353 = AXIS2_PLACEMENT_3D ( 'NONE', #224, #245, #107 ) ;
#354 = AXIS2_PLACEMENT_3D ( 'NONE', #26, #89, #179 ) ;
#355 = DIRECTION ( 'NONE',  ( 1.000000000000000000, 0.000000000000000000, 0.000000000000000000 ) ) ;
#356 = DATE_AND_TIME ( #121, #303 ) ;
#357 = DIRECTION ( 'NONE',  ( 1.000000000000000000, 0.000000000000000000, 0.000000000000000000 ) ) ;
#358 = DATE_AND_TIME ( #158, #367 ) ;
#359 = CARTESIAN_POINT ( 'NONE',  ( 0.000000000000000000, 0.000000000000000000, 5.000000000000000000 ) ) ;
#360 = CARTESIAN_POINT ( 'NONE',  ( 0.000000000000000000, 0.000000000000000000, 5.000000000000000000 ) ) ;
#361 = DIRECTION ( 'NONE',  ( 0.000000000000000000, 0.000000000000000000, 1.000000000000000000 ) ) ;
#362 = APPROVAL_DATE_TIME ( #358, #81 ) ;
#363 = EDGE_LOOP ( 'NONE', ( #278, #252 ) ) ;
#364 = EDGE_CURVE ( 'NONE', #265, #62, #271, .T. ) ;
#365 = AXIS2_PLACEMENT_3D ( 'NONE', #259, #206, #291 ) ;
#366 = VERTEX_POINT ( 'NONE', #198 ) ;
#367 = LOCAL_TIME ( 16, 46, 28.00000000000000000, #8 ) ;
#368 = EDGE_LOOP ( 'NONE', ( #191, #370, #12, #250 ) ) ;
#369 = AXIS2_PLACEMENT_3D ( 'NONE', #379, #64, #33 ) ;
#370 = ORIENTED_EDGE ( 'NONE', *, *, #295, .T. ) ;
#371 = CIRCLE ( 'NONE', #333, 3.250000000000000444 ) ;
#372 = VECTOR ( 'NONE', #166, 1000.000000000000000 ) ;
#373 = FACE_OUTER_BOUND ( 'NONE', #190, .T. ) ;
#374 = PERSON ( 'NEURÈENÝ', 'NEURÈENÝ', 'NEURÈENÝ', ('NEURÈENÝ'), ('NEURÈENÝ'), ('NEURÈENÝ') ) ;
#375 = DIRECTION ( 'NONE',  ( -0.000000000000000000, -0.000000000000000000, -1.000000000000000000 ) ) ;
#376 = DIRECTION ( 'NONE',  ( -1.000000000000000000, 0.000000000000000000, 0.000000000000000000 ) ) ;
#377 = EDGE_CURVE ( 'NONE', #50, #139, #75, .T. ) ;
#378 = PERSON_AND_ORGANIZATION ( #374, #36 ) ;
#379 = CARTESIAN_POINT ( 'NONE',  ( 0.000000000000000000, 0.000000000000000000, 5.500000000000005329 ) ) ;
#380 = CARTESIAN_POINT ( 'NONE',  ( -3.250000000000000444, 0.000000000000000000, 0.000000000000000000 ) ) ;
#381 = PRODUCT_DEFINITION ( 'NEZNÁMÝ', '', #96, #274 ) ;
ENDSEC;
END-ISO-10303-21;
