ISO-10303-21;
HEADER;
FILE_DESCRIPTION (( 'STEP AP203' ),
    '1' );
FILE_NAME ('bcac.STEP',
    '2022-07-08T15:12:20',
    ( '' ),
    ( '' ),
    'SwSTEP 2.0',
    'SolidWorks 2019',
    '' );
FILE_SCHEMA (( 'CONFIG_CONTROL_DESIGN' ));
ENDSEC;

DATA;
#1 = PERSON_AND_ORGANIZATION_ROLE ( 'creator' ) ;
#2 = ORIENTED_EDGE ( 'NONE', *, *, #346, .F. ) ;
#3 = APPROVAL_STATUS ( 'not_yet_approved' ) ;
#4 = AXIS2_PLACEMENT_3D ( 'NONE', #304, #213, #275 ) ;
#5 = ORIENTED_EDGE ( 'NONE', *, *, #379, .F. ) ;
#6 = ORIENTED_EDGE ( 'NONE', *, *, #194, .T. ) ;
#7 = EDGE_CURVE ( 'NONE', #207, #225, #174, .T. ) ;
#8 = CIRCLE ( 'NONE', #374, 10.00000000000000000 ) ;
#9 = SHAPE_DEFINITION_REPRESENTATION ( #73, #312 ) ;
#10 = ORIENTED_EDGE ( 'NONE', *, *, #218, .T. ) ;
#11 = AXIS2_PLACEMENT_3D ( 'NONE', #60, #244, #363 ) ;
#12 = LINE ( 'NONE', #212, #112 ) ;
#13 = DIRECTION ( 'NONE',  ( -0.000000000000000000, -0.000000000000000000, -1.000000000000000000 ) ) ;
#14 = CARTESIAN_POINT ( 'NONE',  ( -2.500000000000000000, 0.000000000000000000, 282.0000000000000000 ) ) ;
#15 = PLANE ( 'NONE',  #334 ) ;
#16 = CARTESIAN_POINT ( 'NONE',  ( 0.000000000000000000, 0.000000000000000000, 282.0000000000000000 ) ) ;
#17 = LOCAL_TIME ( 17, 12, 20.00000000000000000, #303 ) ;
#18 = CARTESIAN_POINT ( 'NONE',  ( -6.000000000000000888, 0.000000000000000000, 282.0000000000000000 ) ) ;
#19 = ORIENTED_EDGE ( 'NONE', *, *, #62, .T. ) ;
#20 = DIRECTION ( 'NONE',  ( -0.000000000000000000, -0.000000000000000000, -1.000000000000000000 ) ) ;
#21 = APPROVAL ( #128, 'NEURÈENÝ' ) ;
#22 = AXIS2_PLACEMENT_3D ( 'NONE', #136, #273, #364 ) ;
#23 = ADVANCED_FACE ( 'NONE', ( #132 ), #246, .F. ) ;
#24 = DIRECTION ( 'NONE',  ( 0.000000000000000000, 0.000000000000000000, 1.000000000000000000 ) ) ;
#25 = DIRECTION ( 'NONE',  ( 0.000000000000000000, 0.000000000000000000, 1.000000000000000000 ) ) ;
#26 = CARTESIAN_POINT ( 'NONE',  ( 0.000000000000000000, 0.000000000000000000, 0.000000000000000000 ) ) ;
#27 = CC_DESIGN_PERSON_AND_ORGANIZATION_ASSIGNMENT ( #61, #175, ( #89 ) ) ;
#28 =( LENGTH_UNIT ( ) NAMED_UNIT ( * ) SI_UNIT ( .MILLI., .METRE. ) );
#29 = VERTEX_POINT ( 'NONE', #245 ) ;
#30 = DIRECTION ( 'NONE',  ( -0.000000000000000000, -0.000000000000000000, -1.000000000000000000 ) ) ;
#31 = CIRCLE ( 'NONE', #184, 6.500000000000000888 ) ;
#32 = VERTEX_POINT ( 'NONE', #78 ) ;
#33 =( NAMED_UNIT ( * ) PLANE_ANGLE_UNIT ( ) SI_UNIT ( $, .RADIAN. ) );
#34 = EDGE_LOOP ( 'NONE', ( #94, #153 ) ) ;
#35 = ORIENTED_EDGE ( 'NONE', *, *, #379, .T. ) ;
#36 = DATE_AND_TIME ( #296, #64 ) ;
#37 = ORIENTED_EDGE ( 'NONE', *, *, #339, .T. ) ;
#38 = ORGANIZATION ( 'NEURÈENÝ', 'NEURÈENÝ', '' ) ;
#39 = CC_DESIGN_DATE_AND_TIME_ASSIGNMENT ( #210, #274, ( #133 ) ) ;
#40 = ADVANCED_FACE ( 'NONE', ( #101 ), #163, .T. ) ;
#41 = FACE_OUTER_BOUND ( 'NONE', #237, .T. ) ;
#42 = LINE ( 'NONE', #44, #187 ) ;
#43 = PRODUCT ( 'bcac', 'bcac', '', ( #156 ) ) ;
#44 = CARTESIAN_POINT ( 'NONE',  ( -2.500000000000000000, 0.000000000000000000, 282.0000000000000000 ) ) ;
#45 = AXIS2_PLACEMENT_3D ( 'NONE', #55, #56, #167 ) ;
#46 = FACE_OUTER_BOUND ( 'NONE', #202, .T. ) ;
#47 = EDGE_CURVE ( 'NONE', #290, #207, #12, .T. ) ;
#48 = CALENDAR_DATE ( 2022, 8, 7 ) ;
#49 = DIRECTION ( 'NONE',  ( 1.000000000000000000, 0.000000000000000000, -0.000000000000000000 ) ) ;
#50 = APPLICATION_CONTEXT ( 'configuration controlled 3d designs of mechanical parts and assemblies' ) ;
#51 = FACE_OUTER_BOUND ( 'NONE', #173, .T. ) ;
#52 = AXIS2_PLACEMENT_3D ( 'NONE', #87, #309, #219 ) ;
#53 = CARTESIAN_POINT ( 'NONE',  ( 0.000000000000000000, 0.000000000000000000, 7.000000000000000000 ) ) ;
#54 = ADVANCED_FACE ( 'NONE', ( #41 ), #333, .F. ) ;
#55 = CARTESIAN_POINT ( 'NONE',  ( 0.000000000000000000, 0.000000000000000000, 7.500000000000007105 ) ) ;
#56 = DIRECTION ( 'NONE',  ( 0.000000000000000000, 0.000000000000000000, 1.000000000000000000 ) ) ;
#57 = AXIS2_PLACEMENT_3D ( 'NONE', #69, #30, #126 ) ;
#58 = CARTESIAN_POINT ( 'NONE',  ( 0.000000000000000000, 0.000000000000000000, 7.000000000000000000 ) ) ;
#59 = COORDINATED_UNIVERSAL_TIME_OFFSET ( 1, 0, .AHEAD. ) ;
#60 = CARTESIAN_POINT ( 'NONE',  ( 0.000000000000000000, 0.000000000000000000, 7.500000000000007105 ) ) ;
#61 = PERSON_AND_ORGANIZATION ( #351, #38 ) ;
#62 = EDGE_CURVE ( 'NONE', #183, #170, #302, .T. ) ;
#63 = ORIENTED_EDGE ( 'NONE', *, *, #194, .F. ) ;
#64 = LOCAL_TIME ( 17, 12, 20.00000000000000000, #59 ) ;
#65 = APPROVAL_STATUS ( 'not_yet_approved' ) ;
#66 = CIRCLE ( 'NONE', #115, 6.000000000000000888 ) ;
#67 = ORIENTED_EDGE ( 'NONE', *, *, #214, .T. ) ;
#68 = EDGE_CURVE ( 'NONE', #124, #326, #42, .T. ) ;
#69 = CARTESIAN_POINT ( 'NONE',  ( 0.000000000000000000, 0.000000000000000000, 282.0000000000000000 ) ) ;
#70 = EDGE_LOOP ( 'NONE', ( #319, #347, #293, #240 ) ) ;
#71 = PERSON_AND_ORGANIZATION ( #351, #38 ) ;
#72 = EDGE_LOOP ( 'NONE', ( #113, #129, #96, #179 ) ) ;
#73 = PRODUCT_DEFINITION_SHAPE ( 'NONE', 'NONE',  #300 ) ;
#74 = EDGE_CURVE ( 'NONE', #207, #159, #197, .T. ) ;
#75 = APPLICATION_CONTEXT ( 'configuration controlled 3d designs of mechanical parts and assemblies' ) ;
#76 = CIRCLE ( 'NONE', #362, 10.00000000000000000 ) ;
#77 = DIRECTION ( 'NONE',  ( -1.000000000000000000, 0.000000000000000000, 0.000000000000000000 ) ) ;
#78 = CARTESIAN_POINT ( 'NONE',  ( 10.00000000000000000, 1.224646799147353256E-15, 0.000000000000000000 ) ) ;
#79 = APPROVAL_ROLE ( '' ) ;
#80 = DIRECTION ( 'NONE',  ( -0.000000000000000000, -0.000000000000000000, -1.000000000000000000 ) ) ;
#81 = AXIS2_PLACEMENT_3D ( 'NONE', #249, #371, #86 ) ;
#82 = CARTESIAN_POINT ( 'NONE',  ( -6.000000000000000888, 0.000000000000000000, 282.0000000000000000 ) ) ;
#83 = DIRECTION ( 'NONE',  ( 1.000000000000000000, 0.000000000000000000, 0.000000000000000000 ) ) ;
#84 = DIRECTION ( 'NONE',  ( 1.000000000000000000, 0.000000000000000000, 0.000000000000000000 ) ) ;
#85 = AXIS2_PLACEMENT_3D ( 'NONE', #53, #117, #284 ) ;
#86 = DIRECTION ( 'NONE',  ( 1.000000000000000000, 0.000000000000000000, 0.000000000000000000 ) ) ;
#87 = CARTESIAN_POINT ( 'NONE',  ( 0.000000000000000000, 0.000000000000000000, 282.0000000000000000 ) ) ;
#88 = DIRECTION ( 'NONE',  ( 0.000000000000000000, 0.000000000000000000, 1.000000000000000000 ) ) ;
#89 = PRODUCT_DEFINITION_FORMATION_WITH_SPECIFIED_SOURCE ( 'LIBOVOLNÝ', '', #43, .NOT_KNOWN. ) ;
#90 =( NAMED_UNIT ( * ) SI_UNIT ( $, .STERADIAN. ) SOLID_ANGLE_UNIT ( ) );
#91 = EDGE_LOOP ( 'NONE', ( #5, #2, #119, #37 ) ) ;
#92 = CC_DESIGN_PERSON_AND_ORGANIZATION_ASSIGNMENT ( #234, #354, ( #89 ) ) ;
#93 = SECURITY_CLASSIFICATION_LEVEL ( 'unclassified' ) ;
#94 = ORIENTED_EDGE ( 'NONE', *, *, #218, .F. ) ;
#95 = CIRCLE ( 'NONE', #125, 0.5000000000000004441 ) ;
#96 = ORIENTED_EDGE ( 'NONE', *, *, #256, .T. ) ;
#97 = FACE_OUTER_BOUND ( 'NONE', #72, .T. ) ;
#98 = ORIENTED_EDGE ( 'NONE', *, *, #68, .F. ) ;
#99 = CALENDAR_DATE ( 2022, 8, 7 ) ;
#100 = ORIENTED_EDGE ( 'NONE', *, *, #346, .T. ) ;
#101 = FACE_OUTER_BOUND ( 'NONE', #353, .T. ) ;
#102 = AXIS2_PLACEMENT_3D ( 'NONE', #192, #110, #83 ) ;
#103 = APPROVAL ( #3, 'NEURÈENÝ' ) ;
#104 = DIRECTION ( 'NONE',  ( -0.000000000000000000, -0.000000000000000000, -1.000000000000000000 ) ) ;
#105 = PRODUCT_RELATED_PRODUCT_CATEGORY ( 'detail', '', ( #43 ) ) ;
#106 = EDGE_CURVE ( 'NONE', #170, #318, #361, .T. ) ;
#107 = DIRECTION ( 'NONE',  ( 0.000000000000000000, 0.000000000000000000, 1.000000000000000000 ) ) ;
#108 = CARTESIAN_POINT ( 'NONE',  ( 2.500000000000000000, 3.061616997868383141E-16, 282.0000000000000000 ) ) ;
#109 = AXIS2_PLACEMENT_3D ( 'NONE', #131, #242, #370 ) ;
#110 = DIRECTION ( 'NONE',  ( -0.000000000000000000, -0.000000000000000000, -1.000000000000000000 ) ) ;
#111 = DIRECTION ( 'NONE',  ( 0.000000000000000000, 0.000000000000000000, 1.000000000000000000 ) ) ;
#112 = VECTOR ( 'NONE', #80, 1000.000000000000000 ) ;
#113 = ORIENTED_EDGE ( 'NONE', *, *, #47, .F. ) ;
#114 = DIRECTION ( 'NONE',  ( 1.000000000000000000, 0.000000000000000000, 0.000000000000000000 ) ) ;
#115 = AXIS2_PLACEMENT_3D ( 'NONE', #224, #376, #226 ) ;
#116 = DIRECTION ( 'NONE',  ( 1.000000000000000000, 0.000000000000000000, 0.000000000000000000 ) ) ;
#117 = DIRECTION ( 'NONE',  ( -0.000000000000000000, -0.000000000000000000, -1.000000000000000000 ) ) ;
#118 = DATE_TIME_ROLE ( 'creation_date' ) ;
#119 = ORIENTED_EDGE ( 'NONE', *, *, #106, .T. ) ;
#120 = TOROIDAL_SURFACE ( 'NONE', #45, 6.500000000000000888, 0.5000000000000000000 ) ;
#121 = EDGE_LOOP ( 'NONE', ( #233, #204 ) ) ;
#122 = DATE_AND_TIME ( #201, #222 ) ;
#123 = ORIENTED_EDGE ( 'NONE', *, *, #280, .T. ) ;
#124 = VERTEX_POINT ( 'NONE', #14 ) ;
#125 = AXIS2_PLACEMENT_3D ( 'NONE', #196, #166, #314 ) ;
#126 = DIRECTION ( 'NONE',  ( -1.000000000000000000, 0.000000000000000000, 0.000000000000000000 ) ) ;
#127 = VERTEX_POINT ( 'NONE', #188 ) ;
#128 = APPROVAL_STATUS ( 'not_yet_approved' ) ;
#129 = ORIENTED_EDGE ( 'NONE', *, *, #147, .F. ) ;
#130 = DESIGN_CONTEXT ( 'detailed design', #75, 'design' ) ;
#131 = CARTESIAN_POINT ( 'NONE',  ( 0.000000000000000000, 0.000000000000000000, 282.0000000000000000 ) ) ;
#132 = FACE_OUTER_BOUND ( 'NONE', #324, .T. ) ;
#133 = SECURITY_CLASSIFICATION ( '', '', #93 ) ;
#134 = ADVANCED_FACE ( 'NONE', ( #185, #190 ), #15, .T. ) ;
#135 = PERSON_AND_ORGANIZATION ( #351, #38 ) ;
#136 = CARTESIAN_POINT ( 'NONE',  ( 6.500000000000000888, 0.000000000000000000, 7.500000000000007105 ) ) ;
#137 = CARTESIAN_POINT ( 'NONE',  ( 10.00000000000000000, 1.224646799147353256E-15, 7.000000000000000000 ) ) ;
#138 = DIRECTION ( 'NONE',  ( 0.000000000000000000, 0.000000000000000000, 1.000000000000000000 ) ) ;
#139 = LOCAL_TIME ( 17, 12, 20.00000000000000000, #307 ) ;
#140 = ADVANCED_FACE ( 'NONE', ( #46 ), #299, .T. ) ;
#141 = DIRECTION ( 'NONE',  ( -0.000000000000000000, -0.000000000000000000, -1.000000000000000000 ) ) ;
#142 = PLANE ( 'NONE',  #231 ) ;
#143 = CARTESIAN_POINT ( 'NONE',  ( 0.000000000000000000, 0.000000000000000000, 0.000000000000000000 ) ) ;
#144 = AXIS2_PLACEMENT_3D ( 'NONE', #26, #20, #146 ) ;
#145 = CARTESIAN_POINT ( 'NONE',  ( -10.00000000000000000, 0.000000000000000000, 0.000000000000000000 ) ) ;
#146 = DIRECTION ( 'NONE',  ( 1.000000000000000000, 0.000000000000000000, 0.000000000000000000 ) ) ;
#147 = EDGE_CURVE ( 'NONE', #200, #290, #168, .T. ) ;
#148 = APPLICATION_PROTOCOL_DEFINITION ( 'international standard', 'config_control_design', 1994, #75 ) ;
#149 = ORIENTED_EDGE ( 'NONE', *, *, #150, .T. ) ;
#150 = EDGE_CURVE ( 'NONE', #29, #326, #260, .T. ) ;
#151 = CC_DESIGN_SECURITY_CLASSIFICATION ( #133, ( #89 ) ) ;
#152 = PERSON_AND_ORGANIZATION ( #351, #38 ) ;
#153 = ORIENTED_EDGE ( 'NONE', *, *, #150, .F. ) ;
#154 = DIRECTION ( 'NONE',  ( -0.000000000000000000, -0.000000000000000000, -1.000000000000000000 ) ) ;
#155 = ORIENTED_EDGE ( 'NONE', *, *, #264, .F. ) ;
#156 = MECHANICAL_CONTEXT ( 'NONE', #50, 'mechanical' ) ;
#157 = CIRCLE ( 'NONE', #144, 2.500000000000000000 ) ;
#158 = COORDINATED_UNIVERSAL_TIME_OFFSET ( 1, 0, .AHEAD. ) ;
#159 = VERTEX_POINT ( 'NONE', #306 ) ;
#160 = DIRECTION ( 'NONE',  ( 1.000000000000000000, 0.000000000000000000, 0.000000000000000000 ) ) ;
#161 = DIRECTION ( 'NONE',  ( 0.000000000000000000, 0.000000000000000000, -1.000000000000000000 ) ) ;
#162 = DIRECTION ( 'NONE',  ( 0.000000000000000000, 0.000000000000000000, -1.000000000000000000 ) ) ;
#163 = CYLINDRICAL_SURFACE ( 'NONE', #365, 10.00000000000000000 ) ;
#164 = DIRECTION ( 'NONE',  ( 0.000000000000000000, 0.000000000000000000, 1.000000000000000000 ) ) ;
#165 = CC_DESIGN_APPROVAL ( #103, ( #300 ) ) ;
#166 = DIRECTION ( 'NONE',  ( 1.224646799147353207E-16, 1.000000000000000000, -0.000000000000000000 ) ) ;
#167 = DIRECTION ( 'NONE',  ( 1.000000000000000000, 0.000000000000000000, 0.000000000000000000 ) ) ;
#168 = CIRCLE ( 'NONE', #109, 6.000000000000000888 ) ;
#169 = CARTESIAN_POINT ( 'NONE',  ( -2.500000000000000000, 0.000000000000000000, 0.000000000000000000 ) ) ;
#170 = VERTEX_POINT ( 'NONE', #337 ) ;
#171 = AXIS2_PLACEMENT_3D ( 'NONE', #281, #25, #342 ) ;
#172 = DIRECTION ( 'NONE',  ( 1.000000000000000000, 0.000000000000000000, 0.000000000000000000 ) ) ;
#173 = EDGE_LOOP ( 'NONE', ( #100, #19 ) ) ;
#174 = CIRCLE ( 'NONE', #11, 6.000000000000000888 ) ;
#175 = PERSON_AND_ORGANIZATION_ROLE ( 'creator' ) ;
#176 = EDGE_LOOP ( 'NONE', ( #227, #288 ) ) ;
#177 = CC_DESIGN_APPROVAL ( #241, ( #89 ) ) ;
#178 = PERSON_AND_ORGANIZATION_ROLE ( 'design_owner' ) ;
#179 = ORIENTED_EDGE ( 'NONE', *, *, #264, .T. ) ;
#180 = DIRECTION ( 'NONE',  ( 1.000000000000000000, 0.000000000000000000, 0.000000000000000000 ) ) ;
#181 = ORIENTED_EDGE ( 'NONE', *, *, #310, .T. ) ;
#182 = APPROVAL_ROLE ( '' ) ;
#183 = VERTEX_POINT ( 'NONE', #137 ) ;
#184 = AXIS2_PLACEMENT_3D ( 'NONE', #252, #373, #114 ) ;
#185 = FACE_BOUND ( 'NONE', #265, .T. ) ;
#186 = CARTESIAN_POINT ( 'NONE',  ( 0.000000000000000000, 0.000000000000000000, 7.000000000000000000 ) ) ;
#187 = VECTOR ( 'NONE', #161, 1000.000000000000000 ) ;
#188 = CARTESIAN_POINT ( 'NONE',  ( 2.500000000000000000, 3.061616997868383141E-16, 282.0000000000000000 ) ) ;
#189 = CIRCLE ( 'NONE', #102, 6.500000000000000888 ) ;
#190 = FACE_OUTER_BOUND ( 'NONE', #176, .T. ) ;
#191 = CARTESIAN_POINT ( 'NONE',  ( 0.000000000000000000, 0.000000000000000000, 282.0000000000000000 ) ) ;
#192 = CARTESIAN_POINT ( 'NONE',  ( 0.000000000000000000, 0.000000000000000000, 7.000000000000000000 ) ) ;
#193 = FACE_OUTER_BOUND ( 'NONE', #121, .T. ) ;
#194 = EDGE_CURVE ( 'NONE', #127, #29, #368, .T. ) ;
#195 = ADVANCED_FACE ( 'NONE', ( #216 ), #278, .F. ) ;
#196 = CARTESIAN_POINT ( 'NONE',  ( -6.500000000000000888, 7.960204194457796463E-16, 7.500000000000007105 ) ) ;
#197 = CIRCLE ( 'NONE', #22, 0.5000000000000004441 ) ;
#198 = CARTESIAN_POINT ( 'NONE',  ( 0.000000000000000000, 0.000000000000000000, 7.000000000000000000 ) ) ;
#199 = CARTESIAN_POINT ( 'NONE',  ( 10.00000000000000000, 1.224646799147353256E-15, 7.000000000000000000 ) ) ;
#200 = VERTEX_POINT ( 'NONE', #82 ) ;
#201 = CALENDAR_DATE ( 2022, 8, 7 ) ;
#202 = EDGE_LOOP ( 'NONE', ( #359, #322, #381, #327 ) ) ;
#203 = PERSON_AND_ORGANIZATION ( #351, #38 ) ;
#204 = ORIENTED_EDGE ( 'NONE', *, *, #330, .F. ) ;
#205 = DIRECTION ( 'NONE',  ( 0.000000000000000000, 0.000000000000000000, 1.000000000000000000 ) ) ;
#206 = ORIENTED_EDGE ( 'NONE', *, *, #228, .F. ) ;
#207 = VERTEX_POINT ( 'NONE', #345 ) ;
#208 = DIRECTION ( 'NONE',  ( -0.000000000000000000, -0.000000000000000000, -1.000000000000000000 ) ) ;
#209 = CC_DESIGN_APPROVAL ( #21, ( #133 ) ) ;
#210 = DATE_AND_TIME ( #99, #139 ) ;
#211 = DIRECTION ( 'NONE',  ( -1.000000000000000000, 0.000000000000000000, 0.000000000000000000 ) ) ;
#212 = CARTESIAN_POINT ( 'NONE',  ( 6.000000000000000888, 7.347880794884120722E-16, 282.0000000000000000 ) ) ;
#213 = DIRECTION ( 'NONE',  ( -0.000000000000000000, -0.000000000000000000, -1.000000000000000000 ) ) ;
#214 = EDGE_CURVE ( 'NONE', #124, #127, #243, .T. ) ;
#215 = AXIS2_PLACEMENT_3D ( 'NONE', #313, #24, #116 ) ;
#216 = FACE_OUTER_BOUND ( 'NONE', #70, .T. ) ;
#217 = CC_DESIGN_PERSON_AND_ORGANIZATION_ASSIGNMENT ( #152, #1, ( #300 ) ) ;
#218 = EDGE_CURVE ( 'NONE', #326, #29, #157, .T. ) ;
#219 = DIRECTION ( 'NONE',  ( 1.000000000000000000, 0.000000000000000000, 0.000000000000000000 ) ) ;
#220 = FACE_BOUND ( 'NONE', #239, .T. ) ;
#221 = CARTESIAN_POINT ( 'NONE',  ( -6.000000000000000888, 0.000000000000000000, 7.500000000000007105 ) ) ;
#222 = LOCAL_TIME ( 17, 12, 20.00000000000000000, #378 ) ;
#223 =( GEOMETRIC_REPRESENTATION_CONTEXT ( 3 ) GLOBAL_UNCERTAINTY_ASSIGNED_CONTEXT ( ( #269 ) ) GLOBAL_UNIT_ASSIGNED_CONTEXT ( ( #28, #33, #90 ) ) REPRESENTATION_CONTEXT ( 'NONE', 'WORKASPACE' ) );
#224 = CARTESIAN_POINT ( 'NONE',  ( 0.000000000000000000, 0.000000000000000000, 282.0000000000000000 ) ) ;
#225 = VERTEX_POINT ( 'NONE', #221 ) ;
#226 = DIRECTION ( 'NONE',  ( 1.000000000000000000, 0.000000000000000000, 0.000000000000000000 ) ) ;
#227 = ORIENTED_EDGE ( 'NONE', *, *, #147, .T. ) ;
#228 = EDGE_CURVE ( 'NONE', #159, #349, #189, .T. ) ;
#229 = ADVANCED_FACE ( 'NONE', ( #220, #51 ), #257, .T. ) ;
#230 = CARTESIAN_POINT ( 'NONE',  ( -6.500000000000000888, 7.960204194457796463E-16, 7.000000000000002665 ) ) ;
#231 = AXIS2_PLACEMENT_3D ( 'NONE', #143, #111, #340 ) ;
#232 = CARTESIAN_POINT ( 'NONE',  ( 0.000000000000000000, 0.000000000000000000, 0.000000000000000000 ) ) ;
#233 = ORIENTED_EDGE ( 'NONE', *, *, #339, .F. ) ;
#234 = PERSON_AND_ORGANIZATION ( #351, #38 ) ;
#235 = ORIENTED_EDGE ( 'NONE', *, *, #250, .T. ) ;
#236 = VECTOR ( 'NONE', #13, 1000.000000000000000 ) ;
#237 = EDGE_LOOP ( 'NONE', ( #67, #6, #149, #98 ) ) ;
#238 = APPLICATION_PROTOCOL_DEFINITION ( 'international standard', 'config_control_design', 1994, #50 ) ;
#239 = EDGE_LOOP ( 'NONE', ( #259, #181 ) ) ;
#240 = ORIENTED_EDGE ( 'NONE', *, *, #310, .F. ) ;
#241 = APPROVAL ( #65, 'NEURÈENÝ' ) ;
#242 = DIRECTION ( 'NONE',  ( 0.000000000000000000, 0.000000000000000000, 1.000000000000000000 ) ) ;
#243 = CIRCLE ( 'NONE', #52, 2.500000000000000000 ) ;
#244 = DIRECTION ( 'NONE',  ( 0.000000000000000000, 0.000000000000000000, 1.000000000000000000 ) ) ;
#245 = CARTESIAN_POINT ( 'NONE',  ( 2.500000000000000000, 3.061616997868383141E-16, 0.000000000000000000 ) ) ;
#246 = CYLINDRICAL_SURFACE ( 'NONE', #272, 2.500000000000000000 ) ;
#247 = APPROVAL_PERSON_ORGANIZATION ( #289, #103, #182 ) ;
#248 = CARTESIAN_POINT ( 'NONE',  ( -10.00000000000000000, 0.000000000000000000, 7.000000000000000000 ) ) ;
#249 = CARTESIAN_POINT ( 'NONE',  ( 0.000000000000000000, 0.000000000000000000, 7.500000000000007105 ) ) ;
#250 = EDGE_CURVE ( 'NONE', #225, #349, #95, .T. ) ;
#251 = AXIS2_PLACEMENT_3D ( 'NONE', #16, #276, #77 ) ;
#252 = CARTESIAN_POINT ( 'NONE',  ( 0.000000000000000000, 0.000000000000000000, 7.000000000000000000 ) ) ;
#253 = DIRECTION ( 'NONE',  ( 1.000000000000000000, 0.000000000000000000, -0.000000000000000000 ) ) ;
#254 = AXIS2_PLACEMENT_3D ( 'NONE', #335, #208, #271 ) ;
#255 = FACE_BOUND ( 'NONE', #34, .T. ) ;
#256 = EDGE_CURVE ( 'NONE', #200, #225, #279, .T. ) ;
#257 = PLANE ( 'NONE',  #336 ) ;
#258 = CALENDAR_DATE ( 2022, 8, 7 ) ;
#259 = ORIENTED_EDGE ( 'NONE', *, *, #228, .T. ) ;
#260 = CIRCLE ( 'NONE', #254, 2.500000000000000000 ) ;
#261 = DATE_AND_TIME ( #258, #291 ) ;
#262 = ORIENTED_EDGE ( 'NONE', *, *, #214, .F. ) ;
#263 = ADVANCED_FACE ( 'NONE', ( #255, #193 ), #142, .F. ) ;
#264 = EDGE_CURVE ( 'NONE', #225, #207, #305, .T. ) ;
#265 = EDGE_LOOP ( 'NONE', ( #262, #356 ) ) ;
#266 = DIRECTION ( 'NONE',  ( 1.000000000000000000, 0.000000000000000000, 0.000000000000000000 ) ) ;
#267 = EDGE_LOOP ( 'NONE', ( #155, #235, #206, #360 ) ) ;
#268 = ORIENTED_EDGE ( 'NONE', *, *, #330, .T. ) ;
#269 = UNCERTAINTY_MEASURE_WITH_UNIT (LENGTH_MEASURE( 1.000000000000000082E-05 ), #28, 'distance_accuracy_value', 'NONE');
#270 = CC_DESIGN_PERSON_AND_ORGANIZATION_ASSIGNMENT ( #203, #292, ( #133 ) ) ;
#271 = DIRECTION ( 'NONE',  ( 1.000000000000000000, 0.000000000000000000, 0.000000000000000000 ) ) ;
#272 = AXIS2_PLACEMENT_3D ( 'NONE', #277, #162, #332 ) ;
#273 = DIRECTION ( 'NONE',  ( 0.000000000000000000, -1.000000000000000000, 0.000000000000000000 ) ) ;
#274 = DATE_TIME_ROLE ( 'classification_date' ) ;
#275 = DIRECTION ( 'NONE',  ( -1.000000000000000000, 0.000000000000000000, 0.000000000000000000 ) ) ;
#276 = DIRECTION ( 'NONE',  ( 0.000000000000000000, 0.000000000000000000, -1.000000000000000000 ) ) ;
#277 = CARTESIAN_POINT ( 'NONE',  ( 0.000000000000000000, 0.000000000000000000, 282.0000000000000000 ) ) ;
#278 = TOROIDAL_SURFACE ( 'NONE', #358, 6.500000000000000888, 0.5000000000000000000 ) ;
#279 = LINE ( 'NONE', #18, #329 ) ;
#280 = EDGE_CURVE ( 'NONE', #127, #124, #369, .T. ) ;
#281 = CARTESIAN_POINT ( 'NONE',  ( 0.000000000000000000, 0.000000000000000000, 282.0000000000000000 ) ) ;
#282 = CYLINDRICAL_SURFACE ( 'NONE', #85, 10.00000000000000000 ) ;
#283 = ADVANCED_FACE ( 'NONE', ( #311 ), #282, .T. ) ;
#284 = DIRECTION ( 'NONE',  ( -1.000000000000000000, 0.000000000000000000, 0.000000000000000000 ) ) ;
#285 = VECTOR ( 'NONE', #154, 1000.000000000000000 ) ;
#286 = DIRECTION ( 'NONE',  ( 0.000000000000000000, 0.000000000000000000, 1.000000000000000000 ) ) ;
#287 = APPROVAL_DATE_TIME ( #36, #103 ) ;
#288 = ORIENTED_EDGE ( 'NONE', *, *, #338, .T. ) ;
#289 = PERSON_AND_ORGANIZATION ( #351, #38 ) ;
#290 = VERTEX_POINT ( 'NONE', #344 ) ;
#291 = LOCAL_TIME ( 17, 12, 20.00000000000000000, #158 ) ;
#292 = PERSON_AND_ORGANIZATION_ROLE ( 'classification_officer' ) ;
#293 = ORIENTED_EDGE ( 'NONE', *, *, #74, .T. ) ;
#294 = CYLINDRICAL_SURFACE ( 'NONE', #57, 6.000000000000000888 ) ;
#295 = ORIENTED_EDGE ( 'NONE', *, *, #106, .F. ) ;
#296 = CALENDAR_DATE ( 2022, 8, 7 ) ;
#297 = ORIENTED_EDGE ( 'NONE', *, *, #62, .F. ) ;
#298 = APPROVAL_PERSON_ORGANIZATION ( #380, #241, #352 ) ;
#299 = CYLINDRICAL_SURFACE ( 'NONE', #4, 6.000000000000000888 ) ;
#300 = PRODUCT_DEFINITION ( 'NEZNÁMÝ', '', #89, #130 ) ;
#301 = CARTESIAN_POINT ( 'NONE',  ( 0.000000000000000000, 0.000000000000000000, 7.000000000000000000 ) ) ;
#302 = CIRCLE ( 'NONE', #355, 10.00000000000000000 ) ;
#303 = COORDINATED_UNIVERSAL_TIME_OFFSET ( 1, 0, .AHEAD. ) ;
#304 = CARTESIAN_POINT ( 'NONE',  ( 0.000000000000000000, 0.000000000000000000, 282.0000000000000000 ) ) ;
#305 = CIRCLE ( 'NONE', #81, 6.000000000000000888 ) ;
#306 = CARTESIAN_POINT ( 'NONE',  ( 6.500000000000000888, 0.000000000000000000, 7.000000000000002665 ) ) ;
#307 = COORDINATED_UNIVERSAL_TIME_OFFSET ( 1, 0, .AHEAD. ) ;
#308 = CARTESIAN_POINT ( 'NONE',  ( 0.000000000000000000, 0.000000000000000000, 7.500000000000007105 ) ) ;
#309 = DIRECTION ( 'NONE',  ( 0.000000000000000000, 0.000000000000000000, 1.000000000000000000 ) ) ;
#310 = EDGE_CURVE ( 'NONE', #349, #159, #31, .T. ) ;
#311 = FACE_OUTER_BOUND ( 'NONE', #91, .T. ) ;
#312 = ADVANCED_BREP_SHAPE_REPRESENTATION ( 'bcac', ( #341, #317 ), #223 ) ;
#313 = CARTESIAN_POINT ( 'NONE',  ( 0.000000000000000000, 0.000000000000000000, 0.000000000000000000 ) ) ;
#314 = DIRECTION ( 'NONE',  ( -1.000000000000000000, 1.224646799147351482E-16, 0.000000000000000000 ) ) ;
#315 = ADVANCED_FACE ( 'NONE', ( #375 ), #120, .F. ) ;
#316 = DIRECTION ( 'NONE',  ( 0.000000000000000000, 0.000000000000000000, 1.000000000000000000 ) ) ;
#317 = AXIS2_PLACEMENT_3D ( 'NONE', #232, #205, #266 ) ;
#318 = VERTEX_POINT ( 'NONE', #145 ) ;
#319 = ORIENTED_EDGE ( 'NONE', *, *, #250, .F. ) ;
#320 = CC_DESIGN_DATE_AND_TIME_ASSIGNMENT ( #261, #118, ( #300 ) ) ;
#321 = APPROVAL_DATE_TIME ( #122, #241 ) ;
#322 = ORIENTED_EDGE ( 'NONE', *, *, #47, .T. ) ;
#323 = LINE ( 'NONE', #199, #285 ) ;
#324 = EDGE_LOOP ( 'NONE', ( #63, #123, #357, #10 ) ) ;
#325 = VECTOR ( 'NONE', #328, 1000.000000000000000 ) ;
#326 = VERTEX_POINT ( 'NONE', #169 ) ;
#327 = ORIENTED_EDGE ( 'NONE', *, *, #256, .F. ) ;
#328 = DIRECTION ( 'NONE',  ( 0.000000000000000000, 0.000000000000000000, -1.000000000000000000 ) ) ;
#329 = VECTOR ( 'NONE', #141, 1000.000000000000000 ) ;
#330 = EDGE_CURVE ( 'NONE', #32, #318, #343, .T. ) ;
#331 = DATE_AND_TIME ( #48, #17 ) ;
#332 = DIRECTION ( 'NONE',  ( -1.000000000000000000, 0.000000000000000000, 0.000000000000000000 ) ) ;
#333 = CYLINDRICAL_SURFACE ( 'NONE', #251, 2.500000000000000000 ) ;
#334 = AXIS2_PLACEMENT_3D ( 'NONE', #191, #107, #49 ) ;
#335 = CARTESIAN_POINT ( 'NONE',  ( 0.000000000000000000, 0.000000000000000000, 0.000000000000000000 ) ) ;
#336 = AXIS2_PLACEMENT_3D ( 'NONE', #198, #316, #253 ) ;
#337 = CARTESIAN_POINT ( 'NONE',  ( -10.00000000000000000, 0.000000000000000000, 7.000000000000000000 ) ) ;
#338 = EDGE_CURVE ( 'NONE', #290, #200, #66, .T. ) ;
#339 = EDGE_CURVE ( 'NONE', #318, #32, #8, .T. ) ;
#340 = DIRECTION ( 'NONE',  ( 1.000000000000000000, 0.000000000000000000, -0.000000000000000000 ) ) ;
#341 = MANIFOLD_SOLID_BREP ( 'Odebrat vysunutím3', #377 ) ;
#342 = DIRECTION ( 'NONE',  ( 1.000000000000000000, 0.000000000000000000, 0.000000000000000000 ) ) ;
#343 = CIRCLE ( 'NONE', #215, 10.00000000000000000 ) ;
#344 = CARTESIAN_POINT ( 'NONE',  ( 6.000000000000000888, 7.347880794884120722E-16, 282.0000000000000000 ) ) ;
#345 = CARTESIAN_POINT ( 'NONE',  ( 6.000000000000000888, 7.347880794884120722E-16, 7.500000000000007105 ) ) ;
#346 = EDGE_CURVE ( 'NONE', #170, #183, #76, .T. ) ;
#347 = ORIENTED_EDGE ( 'NONE', *, *, #7, .F. ) ;
#348 = CARTESIAN_POINT ( 'NONE',  ( 0.000000000000000000, 0.000000000000000000, 0.000000000000000000 ) ) ;
#349 = VERTEX_POINT ( 'NONE', #230 ) ;
#350 = APPROVAL_PERSON_ORGANIZATION ( #135, #21, #79 ) ;
#351 = PERSON ( 'NEURÈENÝ', 'NEURÈENÝ', 'NEURÈENÝ', ('NEURÈENÝ'), ('NEURÈENÝ'), ('NEURÈENÝ') ) ;
#352 = APPROVAL_ROLE ( '' ) ;
#353 = EDGE_LOOP ( 'NONE', ( #297, #35, #268, #295 ) ) ;
#354 = PERSON_AND_ORGANIZATION_ROLE ( 'design_supplier' ) ;
#355 = AXIS2_PLACEMENT_3D ( 'NONE', #301, #138, #160 ) ;
#356 = ORIENTED_EDGE ( 'NONE', *, *, #280, .F. ) ;
#357 = ORIENTED_EDGE ( 'NONE', *, *, #68, .T. ) ;
#358 = AXIS2_PLACEMENT_3D ( 'NONE', #308, #164, #84 ) ;
#359 = ORIENTED_EDGE ( 'NONE', *, *, #338, .F. ) ;
#360 = ORIENTED_EDGE ( 'NONE', *, *, #74, .F. ) ;
#361 = LINE ( 'NONE', #248, #236 ) ;
#362 = AXIS2_PLACEMENT_3D ( 'NONE', #58, #286, #180 ) ;
#363 = DIRECTION ( 'NONE',  ( 1.000000000000000000, 0.000000000000000000, 0.000000000000000000 ) ) ;
#364 = DIRECTION ( 'NONE',  ( 0.000000000000000000, 0.000000000000000000, -1.000000000000000000 ) ) ;
#365 = AXIS2_PLACEMENT_3D ( 'NONE', #186, #104, #211 ) ;
#366 = APPROVAL_DATE_TIME ( #331, #21 ) ;
#367 = ADVANCED_FACE ( 'NONE', ( #97 ), #294, .T. ) ;
#368 = LINE ( 'NONE', #108, #325 ) ;
#369 = CIRCLE ( 'NONE', #171, 2.500000000000000000 ) ;
#370 = DIRECTION ( 'NONE',  ( 1.000000000000000000, 0.000000000000000000, 0.000000000000000000 ) ) ;
#371 = DIRECTION ( 'NONE',  ( 0.000000000000000000, 0.000000000000000000, 1.000000000000000000 ) ) ;
#372 = CC_DESIGN_PERSON_AND_ORGANIZATION_ASSIGNMENT ( #71, #178, ( #43 ) ) ;
#373 = DIRECTION ( 'NONE',  ( -0.000000000000000000, -0.000000000000000000, -1.000000000000000000 ) ) ;
#374 = AXIS2_PLACEMENT_3D ( 'NONE', #348, #88, #172 ) ;
#375 = FACE_OUTER_BOUND ( 'NONE', #267, .T. ) ;
#376 = DIRECTION ( 'NONE',  ( 0.000000000000000000, 0.000000000000000000, 1.000000000000000000 ) ) ;
#377 = CLOSED_SHELL ( 'NONE', ( #54, #315, #140, #40, #283, #229, #263, #367, #134, #195, #23 ) ) ;
#378 = COORDINATED_UNIVERSAL_TIME_OFFSET ( 1, 0, .AHEAD. ) ;
#379 = EDGE_CURVE ( 'NONE', #183, #32, #323, .T. ) ;
#380 = PERSON_AND_ORGANIZATION ( #351, #38 ) ;
#381 = ORIENTED_EDGE ( 'NONE', *, *, #7, .T. ) ;
ENDSEC;
END-ISO-10303-21;
