ISO-10303-21;
HEADER;
FILE_DESCRIPTION (( 'STEP AP203' ),
    '1' );
FILE_NAME ('d9d9.STEP',
    '2022-07-08T14:43:34',
    ( '' ),
    ( '' ),
    'SwSTEP 2.0',
    'SolidWorks 2019',
    '' );
FILE_SCHEMA (( 'CONFIG_CONTROL_DESIGN' ));
ENDSEC;

DATA;
#1 = ORIENTED_EDGE ( 'NONE', *, *, #12, .F. ) ;
#2 = AXIS2_PLACEMENT_3D ( 'NONE', #72, #129, #101 ) ;
#3 = FACE_OUTER_BOUND ( 'NONE', #196, .T. ) ;
#4 = CARTESIAN_POINT ( 'NONE',  ( 0.000000000000000000, 0.000000000000000000, 82.00000000000000000 ) ) ;
#5 = CARTESIAN_POINT ( 'NONE',  ( 0.000000000000000000, 0.000000000000000000, 7.000000000000000000 ) ) ;
#6 = AXIS2_PLACEMENT_3D ( 'NONE', #23, #312, #277 ) ;
#7 = FACE_OUTER_BOUND ( 'NONE', #130, .T. ) ;
#8 = EDGE_CURVE ( 'NONE', #15, #375, #370, .T. ) ;
#9 = DIRECTION ( 'NONE',  ( 1.000000000000000000, 0.000000000000000000, 0.000000000000000000 ) ) ;
#10 = CARTESIAN_POINT ( 'NONE',  ( 3.250000000000000444, 3.980102097228898231E-16, 82.00000000000000000 ) ) ;
#11 = DIRECTION ( 'NONE',  ( -0.000000000000000000, -0.000000000000000000, -1.000000000000000000 ) ) ;
#12 = EDGE_CURVE ( 'NONE', #24, #379, #239, .T. ) ;
#13 = CYLINDRICAL_SURFACE ( 'NONE', #353, 3.250000000000000444 ) ;
#14 = EDGE_CURVE ( 'NONE', #254, #246, #244, .T. ) ;
#15 = VERTEX_POINT ( 'NONE', #96 ) ;
#16 = APPROVAL_PERSON_ORGANIZATION ( #296, #362, #355 ) ;
#17 = ORIENTED_EDGE ( 'NONE', *, *, #346, .T. ) ;
#18 = APPROVAL_STATUS ( 'not_yet_approved' ) ;
#19 = ORIENTED_EDGE ( 'NONE', *, *, #346, .F. ) ;
#20 = UNCERTAINTY_MEASURE_WITH_UNIT (LENGTH_MEASURE( 1.000000000000000082E-05 ), #245, 'distance_accuracy_value', 'NONE');
#21 = DIRECTION ( 'NONE',  ( -1.000000000000000000, 1.224646799147351482E-16, 0.000000000000000000 ) ) ;
#22 = EDGE_LOOP ( 'NONE', ( #351, #234, #25, #343 ) ) ;
#23 = CARTESIAN_POINT ( 'NONE',  ( 0.000000000000000000, 0.000000000000000000, 0.000000000000000000 ) ) ;
#24 = VERTEX_POINT ( 'NONE', #263 ) ;
#25 = ORIENTED_EDGE ( 'NONE', *, *, #209, .T. ) ;
#26 = LINE ( 'NONE', #260, #151 ) ;
#27 = ADVANCED_FACE ( 'NONE', ( #3 ), #61, .T. ) ;
#28 = DIRECTION ( 'NONE',  ( 0.000000000000000000, 0.000000000000000000, 1.000000000000000000 ) ) ;
#29 = EDGE_CURVE ( 'NONE', #177, #197, #298, .T. ) ;
#30 = SECURITY_CLASSIFICATION ( '', '', #66 ) ;
#31 = ADVANCED_BREP_SHAPE_REPRESENTATION ( 'd9d9', ( #65, #102 ), #80 ) ;
#32 = CALENDAR_DATE ( 2022, 8, 7 ) ;
#33 = LINE ( 'NONE', #264, #358 ) ;
#34 = PERSON_AND_ORGANIZATION_ROLE ( 'classification_officer' ) ;
#35 = CARTESIAN_POINT ( 'NONE',  ( 0.000000000000000000, 0.000000000000000000, 7.000000000000000000 ) ) ;
#36 = DIRECTION ( 'NONE',  ( -0.000000000000000000, -0.000000000000000000, -1.000000000000000000 ) ) ;
#37 = AXIS2_PLACEMENT_3D ( 'NONE', #269, #365, #184 ) ;
#38 = CARTESIAN_POINT ( 'NONE',  ( 0.000000000000000000, 0.000000000000000000, 82.00000000000000000 ) ) ;
#39 = DIRECTION ( 'NONE',  ( -0.000000000000000000, -0.000000000000000000, -1.000000000000000000 ) ) ;
#40 = DIRECTION ( 'NONE',  ( 0.000000000000000000, -1.000000000000000000, 0.000000000000000000 ) ) ;
#41 = PRODUCT_DEFINITION_FORMATION_WITH_SPECIFIED_SOURCE ( 'LIBOVOLNÝ', '', #135, .NOT_KNOWN. ) ;
#42 = DIRECTION ( 'NONE',  ( 0.000000000000000000, 0.000000000000000000, -1.000000000000000000 ) ) ;
#43 = CC_DESIGN_DATE_AND_TIME_ASSIGNMENT ( #178, #55, ( #92 ) ) ;
#44 = ORIENTED_EDGE ( 'NONE', *, *, #8, .T. ) ;
#45 =( NAMED_UNIT ( * ) SI_UNIT ( $, .STERADIAN. ) SOLID_ANGLE_UNIT ( ) );
#46 = CIRCLE ( 'NONE', #100, 3.250000000000000444 ) ;
#47 = ORIENTED_EDGE ( 'NONE', *, *, #12, .T. ) ;
#48 = CIRCLE ( 'NONE', #157, 0.5000000000000004441 ) ;
#49 = PERSON_AND_ORGANIZATION ( #270, #90 ) ;
#50 = ORIENTED_EDGE ( 'NONE', *, *, #14, .F. ) ;
#51 = EDGE_CURVE ( 'NONE', #177, #24, #33, .T. ) ;
#52 = CARTESIAN_POINT ( 'NONE',  ( 0.000000000000000000, 0.000000000000000000, 7.499999999999992895 ) ) ;
#53 = ORIENTED_EDGE ( 'NONE', *, *, #283, .F. ) ;
#54 = CARTESIAN_POINT ( 'NONE',  ( 3.250000000000000444, 3.980102097228898231E-16, 82.00000000000000000 ) ) ;
#55 = DATE_TIME_ROLE ( 'creation_date' ) ;
#56 = CARTESIAN_POINT ( 'NONE',  ( 6.500000000000000888, 0.000000000000000000, 6.999999999999995559 ) ) ;
#57 = EDGE_CURVE ( 'NONE', #375, #15, #320, .T. ) ;
#58 = ORIENTED_EDGE ( 'NONE', *, *, #29, .T. ) ;
#59 = EDGE_CURVE ( 'NONE', #246, #254, #220, .T. ) ;
#60 = SHAPE_DEFINITION_REPRESENTATION ( #131, #31 ) ;
#61 = CYLINDRICAL_SURFACE ( 'NONE', #381, 6.000000000000000888 ) ;
#62 = APPROVAL_STATUS ( 'not_yet_approved' ) ;
#63 = ORIENTED_EDGE ( 'NONE', *, *, #209, .F. ) ;
#64 = AXIS2_PLACEMENT_3D ( 'NONE', #155, #70, #126 ) ;
#65 = MANIFOLD_SOLID_BREP ( 'Odebrat vysunutím3', #99 ) ;
#66 = SECURITY_CLASSIFICATION_LEVEL ( 'unclassified' ) ;
#67 = DIRECTION ( 'NONE',  ( 0.000000000000000000, 0.000000000000000000, 1.000000000000000000 ) ) ;
#68 = CARTESIAN_POINT ( 'NONE',  ( -6.000000000000000888, 0.000000000000000000, 7.499999999999992895 ) ) ;
#69 = AXIS2_PLACEMENT_3D ( 'NONE', #5, #121, #356 ) ;
#70 = DIRECTION ( 'NONE',  ( 0.000000000000000000, 0.000000000000000000, 1.000000000000000000 ) ) ;
#71 = CIRCLE ( 'NONE', #118, 6.500000000000000888 ) ;
#72 = CARTESIAN_POINT ( 'NONE',  ( 0.000000000000000000, 0.000000000000000000, 7.000000000000000000 ) ) ;
#73 = CARTESIAN_POINT ( 'NONE',  ( 6.500000000000000888, 0.000000000000000000, 7.499999999999992895 ) ) ;
#74 = DIRECTION ( 'NONE',  ( -0.000000000000000000, -0.000000000000000000, -1.000000000000000000 ) ) ;
#75 = DIRECTION ( 'NONE',  ( 1.000000000000000000, 0.000000000000000000, 0.000000000000000000 ) ) ;
#76 = DIRECTION ( 'NONE',  ( 0.000000000000000000, 0.000000000000000000, 1.000000000000000000 ) ) ;
#77 = ORIENTED_EDGE ( 'NONE', *, *, #51, .F. ) ;
#78 = APPROVAL_ROLE ( '' ) ;
#79 = EDGE_LOOP ( 'NONE', ( #1, #345 ) ) ;
#80 =( GEOMETRIC_REPRESENTATION_CONTEXT ( 3 ) GLOBAL_UNCERTAINTY_ASSIGNED_CONTEXT ( ( #20 ) ) GLOBAL_UNIT_ASSIGNED_CONTEXT ( ( #245, #221, #45 ) ) REPRESENTATION_CONTEXT ( 'NONE', 'WORKASPACE' ) );
#81 = CALENDAR_DATE ( 2022, 8, 7 ) ;
#82 = EDGE_CURVE ( 'NONE', #197, #177, #149, .T. ) ;
#83 = COORDINATED_UNIVERSAL_TIME_OFFSET ( 1, 0, .AHEAD. ) ;
#84 = ORIENTED_EDGE ( 'NONE', *, *, #128, .T. ) ;
#85 = ORIENTED_EDGE ( 'NONE', *, *, #59, .F. ) ;
#86 = EDGE_CURVE ( 'NONE', #331, #189, #46, .T. ) ;
#87 = ADVANCED_FACE ( 'NONE', ( #179 ), #94, .T. ) ;
#88 = PERSON_AND_ORGANIZATION ( #270, #90 ) ;
#89 = DIRECTION ( 'NONE',  ( 1.000000000000000000, 0.000000000000000000, 0.000000000000000000 ) ) ;
#90 = ORGANIZATION ( 'NEURÈENÝ', 'NEURÈENÝ', '' ) ;
#91 = VERTEX_POINT ( 'NONE', #56 ) ;
#92 = PRODUCT_DEFINITION ( 'NEZNÁMÝ', '', #41, #252 ) ;
#93 = COORDINATED_UNIVERSAL_TIME_OFFSET ( 1, 0, .AHEAD. ) ;
#94 = CYLINDRICAL_SURFACE ( 'NONE', #117, 10.00000000000000000 ) ;
#95 = EDGE_CURVE ( 'NONE', #189, #331, #367, .T. ) ;
#96 = CARTESIAN_POINT ( 'NONE',  ( -6.000000000000000888, 0.000000000000000000, 82.00000000000000000 ) ) ;
#97 = DIRECTION ( 'NONE',  ( 1.000000000000000000, 0.000000000000000000, 0.000000000000000000 ) ) ;
#98 = PLANE ( 'NONE',  #247 ) ;
#99 = CLOSED_SHELL ( 'NONE', ( #357, #305, #27, #87, #303, #154, #348, #258, #227, #374, #201 ) ) ;
#100 = AXIS2_PLACEMENT_3D ( 'NONE', #206, #116, #265 ) ;
#101 = DIRECTION ( 'NONE',  ( 1.000000000000000000, 0.000000000000000000, 0.000000000000000000 ) ) ;
#102 = AXIS2_PLACEMENT_3D ( 'NONE', #342, #76, #253 ) ;
#103 = FACE_OUTER_BOUND ( 'NONE', #172, .T. ) ;
#104 = CYLINDRICAL_SURFACE ( 'NONE', #281, 10.00000000000000000 ) ;
#105 = DIRECTION ( 'NONE',  ( 0.000000000000000000, 0.000000000000000000, 1.000000000000000000 ) ) ;
#106 = FACE_OUTER_BOUND ( 'NONE', #219, .T. ) ;
#107 = EDGE_LOOP ( 'NONE', ( #373, #222 ) ) ;
#108 = ORIENTED_EDGE ( 'NONE', *, *, #57, .T. ) ;
#109 = DIRECTION ( 'NONE',  ( 1.224646799147353207E-16, 1.000000000000000000, -0.000000000000000000 ) ) ;
#110 = ORIENTED_EDGE ( 'NONE', *, *, #152, .T. ) ;
#111 = VECTOR ( 'NONE', #371, 1000.000000000000000 ) ;
#112 = APPROVAL_DATE_TIME ( #193, #337 ) ;
#113 = ORIENTED_EDGE ( 'NONE', *, *, #143, .F. ) ;
#114 = EDGE_CURVE ( 'NONE', #189, #134, #142, .T. ) ;
#115 = ORIENTED_EDGE ( 'NONE', *, *, #302, .F. ) ;
#116 = DIRECTION ( 'NONE',  ( 0.000000000000000000, 0.000000000000000000, 1.000000000000000000 ) ) ;
#117 = AXIS2_PLACEMENT_3D ( 'NONE', #35, #148, #123 ) ;
#118 = AXIS2_PLACEMENT_3D ( 'NONE', #208, #36, #267 ) ;
#119 = EDGE_LOOP ( 'NONE', ( #113, #316, #282, #376 ) ) ;
#120 = LOCAL_TIME ( 16, 43, 34.00000000000000000, #141 ) ;
#121 = DIRECTION ( 'NONE',  ( 0.000000000000000000, 0.000000000000000000, 1.000000000000000000 ) ) ;
#122 = DIRECTION ( 'NONE',  ( 1.000000000000000000, 0.000000000000000000, 0.000000000000000000 ) ) ;
#123 = DIRECTION ( 'NONE',  ( -1.000000000000000000, 0.000000000000000000, 0.000000000000000000 ) ) ;
#124 = EDGE_CURVE ( 'NONE', #197, #379, #26, .T. ) ;
#125 = DIRECTION ( 'NONE',  ( -0.000000000000000000, -0.000000000000000000, -1.000000000000000000 ) ) ;
#126 = DIRECTION ( 'NONE',  ( 1.000000000000000000, 0.000000000000000000, 0.000000000000000000 ) ) ;
#127 = DIRECTION ( 'NONE',  ( 1.000000000000000000, 0.000000000000000000, 0.000000000000000000 ) ) ;
#128 = EDGE_CURVE ( 'NONE', #134, #347, #334, .T. ) ;
#129 = DIRECTION ( 'NONE',  ( -0.000000000000000000, -0.000000000000000000, -1.000000000000000000 ) ) ;
#130 = EDGE_LOOP ( 'NONE', ( #50, #17, #350, #53 ) ) ;
#131 = PRODUCT_DEFINITION_SHAPE ( 'NONE', 'NONE',  #92 ) ;
#132 = TOROIDAL_SURFACE ( 'NONE', #372, 6.500000000000000888, 0.5000000000000000000 ) ;
#133 = DIRECTION ( 'NONE',  ( -1.000000000000000000, 0.000000000000000000, 0.000000000000000000 ) ) ;
#134 = VERTEX_POINT ( 'NONE', #333 ) ;
#135 = PRODUCT ( 'd9d9', 'd9d9', '', ( #248 ) ) ;
#136 = AXIS2_PLACEMENT_3D ( 'NONE', #292, #28, #122 ) ;
#137 = VERTEX_POINT ( 'NONE', #243 ) ;
#138 = APPLICATION_CONTEXT ( 'configuration controlled 3d designs of mechanical parts and assemblies' ) ;
#139 = LOCAL_TIME ( 16, 43, 34.00000000000000000, #93 ) ;
#140 = FACE_OUTER_BOUND ( 'NONE', #22, .T. ) ;
#141 = COORDINATED_UNIVERSAL_TIME_OFFSET ( 1, 0, .AHEAD. ) ;
#142 = LINE ( 'NONE', #352, #322 ) ;
#143 = EDGE_CURVE ( 'NONE', #375, #246, #183, .T. ) ;
#144 = CARTESIAN_POINT ( 'NONE',  ( 0.000000000000000000, 0.000000000000000000, 82.00000000000000000 ) ) ;
#145 = DIRECTION ( 'NONE',  ( 0.000000000000000000, 0.000000000000000000, 1.000000000000000000 ) ) ;
#146 = EDGE_CURVE ( 'NONE', #91, #137, #235, .T. ) ;
#147 = DATE_AND_TIME ( #229, #120 ) ;
#148 = DIRECTION ( 'NONE',  ( -0.000000000000000000, -0.000000000000000000, -1.000000000000000000 ) ) ;
#149 = CIRCLE ( 'NONE', #69, 10.00000000000000000 ) ;
#150 = DIRECTION ( 'NONE',  ( -1.000000000000000000, 0.000000000000000000, 0.000000000000000000 ) ) ;
#151 = VECTOR ( 'NONE', #125, 1000.000000000000000 ) ;
#152 = EDGE_CURVE ( 'NONE', #379, #24, #361, .T. ) ;
#153 = FACE_OUTER_BOUND ( 'NONE', #311, .T. ) ;
#154 = ADVANCED_FACE ( 'NONE', ( #158, #301 ), #181, .T. ) ;
#155 = CARTESIAN_POINT ( 'NONE',  ( 0.000000000000000000, 0.000000000000000000, 0.000000000000000000 ) ) ;
#156 = FACE_OUTER_BOUND ( 'NONE', #275, .T. ) ;
#157 = AXIS2_PLACEMENT_3D ( 'NONE', #377, #109, #21 ) ;
#158 = FACE_BOUND ( 'NONE', #279, .T. ) ;
#159 = ORIENTED_EDGE ( 'NONE', *, *, #240, .F. ) ;
#160 = CARTESIAN_POINT ( 'NONE',  ( 6.000000000000000888, 7.347880794884120722E-16, 82.00000000000000000 ) ) ;
#161 = EDGE_LOOP ( 'NONE', ( #204, #164, #110, #77 ) ) ;
#162 = CC_DESIGN_SECURITY_CLASSIFICATION ( #30, ( #41 ) ) ;
#163 = APPLICATION_PROTOCOL_DEFINITION ( 'international standard', 'config_control_design', 1994, #335 ) ;
#164 = ORIENTED_EDGE ( 'NONE', *, *, #124, .T. ) ;
#165 = CYLINDRICAL_SURFACE ( 'NONE', #176, 3.250000000000000444 ) ;
#166 = DIRECTION ( 'NONE',  ( 0.000000000000000000, 0.000000000000000000, 1.000000000000000000 ) ) ;
#167 = ORIENTED_EDGE ( 'NONE', *, *, #114, .T. ) ;
#168 = AXIS2_PLACEMENT_3D ( 'NONE', #273, #39, #9 ) ;
#169 = PERSON_AND_ORGANIZATION ( #270, #90 ) ;
#170 = CARTESIAN_POINT ( 'NONE',  ( 0.000000000000000000, 0.000000000000000000, 82.00000000000000000 ) ) ;
#171 = APPROVAL_STATUS ( 'not_yet_approved' ) ;
#172 = EDGE_LOOP ( 'NONE', ( #257, #255, #167, #84 ) ) ;
#173 = DIRECTION ( 'NONE',  ( 1.000000000000000000, 0.000000000000000000, 0.000000000000000000 ) ) ;
#174 = AXIS2_PLACEMENT_3D ( 'NONE', #4, #232, #89 ) ;
#175 = COORDINATED_UNIVERSAL_TIME_OFFSET ( 1, 0, .AHEAD. ) ;
#176 = AXIS2_PLACEMENT_3D ( 'NONE', #315, #186, #133 ) ;
#177 = VERTEX_POINT ( 'NONE', #241 ) ;
#178 = DATE_AND_TIME ( #317, #314 ) ;
#179 = FACE_OUTER_BOUND ( 'NONE', #161, .T. ) ;
#180 = CARTESIAN_POINT ( 'NONE',  ( 0.000000000000000000, 0.000000000000000000, 0.000000000000000000 ) ) ;
#181 = PLANE ( 'NONE',  #37 ) ;
#182 = CARTESIAN_POINT ( 'NONE',  ( 0.000000000000000000, 0.000000000000000000, 82.00000000000000000 ) ) ;
#183 = LINE ( 'NONE', #271, #214 ) ;
#184 = DIRECTION ( 'NONE',  ( 1.000000000000000000, 0.000000000000000000, -0.000000000000000000 ) ) ;
#185 = APPROVAL_PERSON_ORGANIZATION ( #169, #364, #231 ) ;
#186 = DIRECTION ( 'NONE',  ( 0.000000000000000000, 0.000000000000000000, -1.000000000000000000 ) ) ;
#187 = CC_DESIGN_PERSON_AND_ORGANIZATION_ASSIGNMENT ( #259, #34, ( #30 ) ) ;
#188 = FACE_OUTER_BOUND ( 'NONE', #79, .T. ) ;
#189 = VERTEX_POINT ( 'NONE', #308 ) ;
#190 = AXIS2_PLACEMENT_3D ( 'NONE', #295, #360, #173 ) ;
#191 = COORDINATED_UNIVERSAL_TIME_OFFSET ( 1, 0, .AHEAD. ) ;
#192 = ORIENTED_EDGE ( 'NONE', *, *, #302, .T. ) ;
#193 = DATE_AND_TIME ( #81, #378 ) ;
#194 = ORIENTED_EDGE ( 'NONE', *, *, #82, .T. ) ;
#195 = DIRECTION ( 'NONE',  ( 1.000000000000000000, 0.000000000000000000, 0.000000000000000000 ) ) ;
#196 = EDGE_LOOP ( 'NONE', ( #225, #217, #354, #159 ) ) ;
#197 = VERTEX_POINT ( 'NONE', #336 ) ;
#198 = APPROVAL_PERSON_ORGANIZATION ( #49, #337, #78 ) ;
#199 = DIRECTION ( 'NONE',  ( 0.000000000000000000, 0.000000000000000000, -1.000000000000000000 ) ) ;
#200 = PERSON_AND_ORGANIZATION_ROLE ( 'creator' ) ;
#201 = ADVANCED_FACE ( 'NONE', ( #103 ), #13, .F. ) ;
#202 = DIRECTION ( 'NONE',  ( 1.000000000000000000, 0.000000000000000000, 0.000000000000000000 ) ) ;
#203 = APPROVAL_DATE_TIME ( #323, #364 ) ;
#204 = ORIENTED_EDGE ( 'NONE', *, *, #82, .F. ) ;
#205 = CC_DESIGN_APPROVAL ( #337, ( #92 ) ) ;
#206 = CARTESIAN_POINT ( 'NONE',  ( 0.000000000000000000, 0.000000000000000000, 82.00000000000000000 ) ) ;
#207 = DIRECTION ( 'NONE',  ( 0.000000000000000000, 0.000000000000000000, -1.000000000000000000 ) ) ;
#208 = CARTESIAN_POINT ( 'NONE',  ( 0.000000000000000000, 0.000000000000000000, 7.000000000000000000 ) ) ;
#209 = EDGE_CURVE ( 'NONE', #347, #134, #300, .T. ) ;
#210 = CARTESIAN_POINT ( 'NONE',  ( -6.000000000000000888, 0.000000000000000000, 82.00000000000000000 ) ) ;
#211 = AXIS2_PLACEMENT_3D ( 'NONE', #73, #40, #42 ) ;
#212 = FACE_OUTER_BOUND ( 'NONE', #119, .T. ) ;
#213 = CARTESIAN_POINT ( 'NONE',  ( 0.000000000000000000, 0.000000000000000000, 82.00000000000000000 ) ) ;
#214 = VECTOR ( 'NONE', #11, 1000.000000000000000 ) ;
#215 = EDGE_CURVE ( 'NONE', #331, #347, #299, .T. ) ;
#216 = CARTESIAN_POINT ( 'NONE',  ( 0.000000000000000000, 0.000000000000000000, 7.499999999999992895 ) ) ;
#217 = ORIENTED_EDGE ( 'NONE', *, *, #143, .T. ) ;
#218 = PERSON_AND_ORGANIZATION ( #270, #90 ) ;
#219 = EDGE_LOOP ( 'NONE', ( #19, #85, #319, #115 ) ) ;
#220 = CIRCLE ( 'NONE', #136, 6.000000000000000888 ) ;
#221 =( NAMED_UNIT ( * ) PLANE_ANGLE_UNIT ( ) SI_UNIT ( $, .RADIAN. ) );
#222 = ORIENTED_EDGE ( 'NONE', *, *, #86, .F. ) ;
#223 = PRODUCT_RELATED_PRODUCT_CATEGORY ( 'detail', '', ( #135 ) ) ;
#224 = PERSON_AND_ORGANIZATION ( #270, #90 ) ;
#225 = ORIENTED_EDGE ( 'NONE', *, *, #57, .F. ) ;
#226 = DIRECTION ( 'NONE',  ( 0.000000000000000000, 0.000000000000000000, 1.000000000000000000 ) ) ;
#227 = ADVANCED_FACE ( 'NONE', ( #369, #153 ), #98, .T. ) ;
#228 = CC_DESIGN_APPROVAL ( #362, ( #41 ) ) ;
#229 = CALENDAR_DATE ( 2022, 8, 7 ) ;
#230 = DIRECTION ( 'NONE',  ( 0.000000000000000000, 0.000000000000000000, 1.000000000000000000 ) ) ;
#231 = APPROVAL_ROLE ( '' ) ;
#232 = DIRECTION ( 'NONE',  ( 0.000000000000000000, 0.000000000000000000, 1.000000000000000000 ) ) ;
#233 = AXIS2_PLACEMENT_3D ( 'NONE', #329, #230, #297 ) ;
#234 = ORIENTED_EDGE ( 'NONE', *, *, #215, .T. ) ;
#235 = CIRCLE ( 'NONE', #2, 6.500000000000000888 ) ;
#236 = DIRECTION ( 'NONE',  ( -0.000000000000000000, -0.000000000000000000, -1.000000000000000000 ) ) ;
#237 = DIRECTION ( 'NONE',  ( -1.000000000000000000, 0.000000000000000000, 0.000000000000000000 ) ) ;
#238 = LINE ( 'NONE', #210, #309 ) ;
#239 = CIRCLE ( 'NONE', #233, 10.00000000000000000 ) ;
#240 = EDGE_CURVE ( 'NONE', #15, #254, #238, .T. ) ;
#241 = CARTESIAN_POINT ( 'NONE',  ( -10.00000000000000000, 0.000000000000000000, 7.000000000000000000 ) ) ;
#242 = DIRECTION ( 'NONE',  ( 0.000000000000000000, 0.000000000000000000, 1.000000000000000000 ) ) ;
#243 = CARTESIAN_POINT ( 'NONE',  ( -6.500000000000000888, 7.960204194457796463E-16, 6.999999999999995559 ) ) ;
#244 = CIRCLE ( 'NONE', #307, 6.000000000000000888 ) ;
#245 =( LENGTH_UNIT ( ) NAMED_UNIT ( * ) SI_UNIT ( .MILLI., .METRE. ) );
#246 = VERTEX_POINT ( 'NONE', #332 ) ;
#247 = AXIS2_PLACEMENT_3D ( 'NONE', #182, #242, #306 ) ;
#248 = MECHANICAL_CONTEXT ( 'NONE', #335, 'mechanical' ) ;
#249 = ORIENTED_EDGE ( 'NONE', *, *, #128, .F. ) ;
#250 = APPLICATION_PROTOCOL_DEFINITION ( 'international standard', 'config_control_design', 1994, #138 ) ;
#251 = EDGE_LOOP ( 'NONE', ( #58, #194 ) ) ;
#252 = DESIGN_CONTEXT ( 'detailed design', #138, 'design' ) ;
#253 = DIRECTION ( 'NONE',  ( 1.000000000000000000, 0.000000000000000000, 0.000000000000000000 ) ) ;
#254 = VERTEX_POINT ( 'NONE', #68 ) ;
#255 = ORIENTED_EDGE ( 'NONE', *, *, #86, .T. ) ;
#256 = CC_DESIGN_PERSON_AND_ORGANIZATION_ASSIGNMENT ( #328, #359, ( #41 ) ) ;
#257 = ORIENTED_EDGE ( 'NONE', *, *, #215, .F. ) ;
#258 = ADVANCED_FACE ( 'NONE', ( #212 ), #304, .T. ) ;
#259 = PERSON_AND_ORGANIZATION ( #270, #90 ) ;
#260 = CARTESIAN_POINT ( 'NONE',  ( 10.00000000000000000, 1.224646799147353256E-15, 7.000000000000000000 ) ) ;
#261 = TOROIDAL_SURFACE ( 'NONE', #330, 6.500000000000000888, 0.5000000000000000000 ) ;
#262 = APPROVAL_DATE_TIME ( #290, #362 ) ;
#263 = CARTESIAN_POINT ( 'NONE',  ( -10.00000000000000000, 0.000000000000000000, 0.000000000000000000 ) ) ;
#264 = CARTESIAN_POINT ( 'NONE',  ( -10.00000000000000000, 0.000000000000000000, 7.000000000000000000 ) ) ;
#265 = DIRECTION ( 'NONE',  ( 1.000000000000000000, 0.000000000000000000, 0.000000000000000000 ) ) ;
#266 = LOCAL_TIME ( 16, 43, 34.00000000000000000, #175 ) ;
#267 = DIRECTION ( 'NONE',  ( 1.000000000000000000, 0.000000000000000000, 0.000000000000000000 ) ) ;
#268 = DIRECTION ( 'NONE',  ( -0.000000000000000000, -0.000000000000000000, -1.000000000000000000 ) ) ;
#269 = CARTESIAN_POINT ( 'NONE',  ( 0.000000000000000000, 0.000000000000000000, 7.000000000000000000 ) ) ;
#270 = PERSON ( 'NEURÈENÝ', 'NEURÈENÝ', 'NEURÈENÝ', ('NEURÈENÝ'), ('NEURÈENÝ'), ('NEURÈENÝ') ) ;
#271 = CARTESIAN_POINT ( 'NONE',  ( 6.000000000000000888, 7.347880794884120722E-16, 82.00000000000000000 ) ) ;
#272 = AXIS2_PLACEMENT_3D ( 'NONE', #180, #366, #127 ) ;
#273 = CARTESIAN_POINT ( 'NONE',  ( 0.000000000000000000, 0.000000000000000000, 0.000000000000000000 ) ) ;
#274 = CARTESIAN_POINT ( 'NONE',  ( 3.250000000000000444, 3.980102097228898231E-16, 0.000000000000000000 ) ) ;
#275 = EDGE_LOOP ( 'NONE', ( #327, #363, #313, #47 ) ) ;
#276 = AXIS2_PLACEMENT_3D ( 'NONE', #144, #67, #97 ) ;
#277 = DIRECTION ( 'NONE',  ( 1.000000000000000000, 0.000000000000000000, -0.000000000000000000 ) ) ;
#278 = AXIS2_PLACEMENT_3D ( 'NONE', #170, #226, #289 ) ;
#279 = EDGE_LOOP ( 'NONE', ( #284, #192 ) ) ;
#280 = CC_DESIGN_APPROVAL ( #364, ( #30 ) ) ;
#281 = AXIS2_PLACEMENT_3D ( 'NONE', #339, #74, #150 ) ;
#282 = ORIENTED_EDGE ( 'NONE', *, *, #240, .T. ) ;
#283 = EDGE_CURVE ( 'NONE', #246, #91, #341, .T. ) ;
#284 = ORIENTED_EDGE ( 'NONE', *, *, #146, .T. ) ;
#285 = FACE_BOUND ( 'NONE', #286, .T. ) ;
#286 = EDGE_LOOP ( 'NONE', ( #249, #63 ) ) ;
#287 = CC_DESIGN_PERSON_AND_ORGANIZATION_ASSIGNMENT ( #88, #200, ( #41 ) ) ;
#288 = AXIS2_PLACEMENT_3D ( 'NONE', #213, #368, #338 ) ;
#289 = DIRECTION ( 'NONE',  ( 1.000000000000000000, 0.000000000000000000, 0.000000000000000000 ) ) ;
#290 = DATE_AND_TIME ( #326, #139 ) ;
#291 = CARTESIAN_POINT ( 'NONE',  ( 0.000000000000000000, 0.000000000000000000, 7.499999999999992895 ) ) ;
#292 = CARTESIAN_POINT ( 'NONE',  ( 0.000000000000000000, 0.000000000000000000, 7.499999999999992895 ) ) ;
#293 = DATE_TIME_ROLE ( 'classification_date' ) ;
#294 = CC_DESIGN_DATE_AND_TIME_ASSIGNMENT ( #147, #293, ( #30 ) ) ;
#295 = CARTESIAN_POINT ( 'NONE',  ( 0.000000000000000000, 0.000000000000000000, 7.000000000000000000 ) ) ;
#296 = PERSON_AND_ORGANIZATION ( #270, #90 ) ;
#297 = DIRECTION ( 'NONE',  ( 1.000000000000000000, 0.000000000000000000, 0.000000000000000000 ) ) ;
#298 = CIRCLE ( 'NONE', #190, 10.00000000000000000 ) ;
#299 = LINE ( 'NONE', #10, #111 ) ;
#300 = CIRCLE ( 'NONE', #272, 3.250000000000000444 ) ;
#301 = FACE_OUTER_BOUND ( 'NONE', #251, .T. ) ;
#302 = EDGE_CURVE ( 'NONE', #137, #91, #71, .T. ) ;
#303 = ADVANCED_FACE ( 'NONE', ( #156 ), #104, .T. ) ;
#304 = CYLINDRICAL_SURFACE ( 'NONE', #288, 6.000000000000000888 ) ;
#305 = ADVANCED_FACE ( 'NONE', ( #7 ), #132, .F. ) ;
#306 = DIRECTION ( 'NONE',  ( 1.000000000000000000, 0.000000000000000000, -0.000000000000000000 ) ) ;
#307 = AXIS2_PLACEMENT_3D ( 'NONE', #291, #145, #202 ) ;
#308 = CARTESIAN_POINT ( 'NONE',  ( -3.250000000000000444, 0.000000000000000000, 82.00000000000000000 ) ) ;
#309 = VECTOR ( 'NONE', #268, 1000.000000000000000 ) ;
#310 = CARTESIAN_POINT ( 'NONE',  ( 10.00000000000000000, 1.224646799147353256E-15, 0.000000000000000000 ) ) ;
#311 = EDGE_LOOP ( 'NONE', ( #44, #108 ) ) ;
#312 = DIRECTION ( 'NONE',  ( 0.000000000000000000, 0.000000000000000000, 1.000000000000000000 ) ) ;
#313 = ORIENTED_EDGE ( 'NONE', *, *, #51, .T. ) ;
#314 = LOCAL_TIME ( 16, 43, 34.00000000000000000, #83 ) ;
#315 = CARTESIAN_POINT ( 'NONE',  ( 0.000000000000000000, 0.000000000000000000, 82.00000000000000000 ) ) ;
#316 = ORIENTED_EDGE ( 'NONE', *, *, #8, .F. ) ;
#317 = CALENDAR_DATE ( 2022, 8, 7 ) ;
#318 = CC_DESIGN_PERSON_AND_ORGANIZATION_ASSIGNMENT ( #224, #349, ( #92 ) ) ;
#319 = ORIENTED_EDGE ( 'NONE', *, *, #283, .T. ) ;
#320 = CIRCLE ( 'NONE', #174, 6.000000000000000888 ) ;
#321 = CARTESIAN_POINT ( 'NONE',  ( 0.000000000000000000, 0.000000000000000000, 82.00000000000000000 ) ) ;
#322 = VECTOR ( 'NONE', #199, 1000.000000000000000 ) ;
#323 = DATE_AND_TIME ( #32, #266 ) ;
#324 = DIRECTION ( 'NONE',  ( -0.000000000000000000, -0.000000000000000000, -1.000000000000000000 ) ) ;
#325 = CC_DESIGN_PERSON_AND_ORGANIZATION_ASSIGNMENT ( #218, #344, ( #135 ) ) ;
#326 = CALENDAR_DATE ( 2022, 8, 7 ) ;
#327 = ORIENTED_EDGE ( 'NONE', *, *, #124, .F. ) ;
#328 = PERSON_AND_ORGANIZATION ( #270, #90 ) ;
#329 = CARTESIAN_POINT ( 'NONE',  ( 0.000000000000000000, 0.000000000000000000, 0.000000000000000000 ) ) ;
#330 = AXIS2_PLACEMENT_3D ( 'NONE', #216, #105, #75 ) ;
#331 = VERTEX_POINT ( 'NONE', #54 ) ;
#332 = CARTESIAN_POINT ( 'NONE',  ( 6.000000000000000888, 7.347880794884120722E-16, 7.499999999999992895 ) ) ;
#333 = CARTESIAN_POINT ( 'NONE',  ( -3.250000000000000444, 0.000000000000000000, 0.000000000000000000 ) ) ;
#334 = CIRCLE ( 'NONE', #168, 3.250000000000000444 ) ;
#335 = APPLICATION_CONTEXT ( 'configuration controlled 3d designs of mechanical parts and assemblies' ) ;
#336 = CARTESIAN_POINT ( 'NONE',  ( 10.00000000000000000, 1.224646799147353256E-15, 7.000000000000000000 ) ) ;
#337 = APPROVAL ( #18, 'NEURÈENÝ' ) ;
#338 = DIRECTION ( 'NONE',  ( -1.000000000000000000, 0.000000000000000000, 0.000000000000000000 ) ) ;
#339 = CARTESIAN_POINT ( 'NONE',  ( 0.000000000000000000, 0.000000000000000000, 7.000000000000000000 ) ) ;
#340 = PLANE ( 'NONE',  #6 ) ;
#341 = CIRCLE ( 'NONE', #211, 0.5000000000000004441 ) ;
#342 = CARTESIAN_POINT ( 'NONE',  ( 0.000000000000000000, 0.000000000000000000, 0.000000000000000000 ) ) ;
#343 = ORIENTED_EDGE ( 'NONE', *, *, #114, .F. ) ;
#344 = PERSON_AND_ORGANIZATION_ROLE ( 'design_owner' ) ;
#345 = ORIENTED_EDGE ( 'NONE', *, *, #152, .F. ) ;
#346 = EDGE_CURVE ( 'NONE', #254, #137, #48, .T. ) ;
#347 = VERTEX_POINT ( 'NONE', #274 ) ;
#348 = ADVANCED_FACE ( 'NONE', ( #285, #188 ), #340, .F. ) ;
#349 = PERSON_AND_ORGANIZATION_ROLE ( 'creator' ) ;
#350 = ORIENTED_EDGE ( 'NONE', *, *, #146, .F. ) ;
#351 = ORIENTED_EDGE ( 'NONE', *, *, #95, .T. ) ;
#352 = CARTESIAN_POINT ( 'NONE',  ( -3.250000000000000444, 0.000000000000000000, 82.00000000000000000 ) ) ;
#353 = AXIS2_PLACEMENT_3D ( 'NONE', #38, #207, #237 ) ;
#354 = ORIENTED_EDGE ( 'NONE', *, *, #59, .T. ) ;
#355 = APPROVAL_ROLE ( '' ) ;
#356 = DIRECTION ( 'NONE',  ( 1.000000000000000000, 0.000000000000000000, 0.000000000000000000 ) ) ;
#357 = ADVANCED_FACE ( 'NONE', ( #140 ), #165, .F. ) ;
#358 = VECTOR ( 'NONE', #236, 1000.000000000000000 ) ;
#359 = PERSON_AND_ORGANIZATION_ROLE ( 'design_supplier' ) ;
#360 = DIRECTION ( 'NONE',  ( 0.000000000000000000, 0.000000000000000000, 1.000000000000000000 ) ) ;
#361 = CIRCLE ( 'NONE', #64, 10.00000000000000000 ) ;
#362 = APPROVAL ( #171, 'NEURÈENÝ' ) ;
#363 = ORIENTED_EDGE ( 'NONE', *, *, #29, .F. ) ;
#364 = APPROVAL ( #62, 'NEURÈENÝ' ) ;
#365 = DIRECTION ( 'NONE',  ( 0.000000000000000000, 0.000000000000000000, 1.000000000000000000 ) ) ;
#366 = DIRECTION ( 'NONE',  ( -0.000000000000000000, -0.000000000000000000, -1.000000000000000000 ) ) ;
#367 = CIRCLE ( 'NONE', #278, 3.250000000000000444 ) ;
#368 = DIRECTION ( 'NONE',  ( -0.000000000000000000, -0.000000000000000000, -1.000000000000000000 ) ) ;
#369 = FACE_BOUND ( 'NONE', #107, .T. ) ;
#370 = CIRCLE ( 'NONE', #276, 6.000000000000000888 ) ;
#371 = DIRECTION ( 'NONE',  ( 0.000000000000000000, 0.000000000000000000, -1.000000000000000000 ) ) ;
#372 = AXIS2_PLACEMENT_3D ( 'NONE', #52, #166, #195 ) ;
#373 = ORIENTED_EDGE ( 'NONE', *, *, #95, .F. ) ;
#374 = ADVANCED_FACE ( 'NONE', ( #106 ), #261, .F. ) ;
#375 = VERTEX_POINT ( 'NONE', #160 ) ;
#376 = ORIENTED_EDGE ( 'NONE', *, *, #14, .T. ) ;
#377 = CARTESIAN_POINT ( 'NONE',  ( -6.500000000000000888, 7.960204194457796463E-16, 7.499999999999992895 ) ) ;
#378 = LOCAL_TIME ( 16, 43, 34.00000000000000000, #191 ) ;
#379 = VERTEX_POINT ( 'NONE', #310 ) ;
#380 = DIRECTION ( 'NONE',  ( -1.000000000000000000, 0.000000000000000000, 0.000000000000000000 ) ) ;
#381 = AXIS2_PLACEMENT_3D ( 'NONE', #321, #324, #380 ) ;
ENDSEC;
END-ISO-10303-21;
