ISO-10303-21;
HEADER;
FILE_DESCRIPTION (( 'STEP AP203' ),
    '1' );
FILE_NAME ('89b8.STEP',
    '2022-07-08T15:03:31',
    ( '' ),
    ( '' ),
    'SwSTEP 2.0',
    'SolidWorks 2019',
    '' );
FILE_SCHEMA (( 'CONFIG_CONTROL_DESIGN' ));
ENDSEC;

DATA;
#1 = DIRECTION ( 'NONE',  ( 0.000000000000000000, 0.000000000000000000, 1.000000000000000000 ) ) ;
#2 = APPROVAL_STATUS ( 'not_yet_approved' ) ;
#3 = CARTESIAN_POINT ( 'NONE',  ( -5.500000000000000000, 6.735557395310442023E-16, 4.999999999999975131 ) ) ;
#4 = APPROVAL_ROLE ( '' ) ;
#5 = LOCAL_TIME ( 17, 3, 31.00000000000000000, #211 ) ;
#6 = PERSON_AND_ORGANIZATION_ROLE ( 'design_owner' ) ;
#7 = APPROVAL_DATE_TIME ( #297, #142 ) ;
#8 = VERTEX_POINT ( 'NONE', #253 ) ;
#9 = SHAPE_DEFINITION_REPRESENTATION ( #179, #102 ) ;
#10 = EDGE_LOOP ( 'NONE', ( #216, #184, #128, #246 ) ) ;
#11 = ORIENTED_EDGE ( 'NONE', *, *, #265, .F. ) ;
#12 = ORIENTED_EDGE ( 'NONE', *, *, #177, .F. ) ;
#13 = ORIENTED_EDGE ( 'NONE', *, *, #365, .T. ) ;
#14 = CIRCLE ( 'NONE', #27, 2.750000000000000000 ) ;
#15 = AXIS2_PLACEMENT_3D ( 'NONE', #72, #378, #316 ) ;
#16 = ORIENTED_EDGE ( 'NONE', *, *, #119, .T. ) ;
#17 = AXIS2_PLACEMENT_3D ( 'NONE', #135, #315, #158 ) ;
#18 = FACE_BOUND ( 'NONE', #333, .T. ) ;
#19 = DIRECTION ( 'NONE',  ( -0.000000000000000000, -0.000000000000000000, -1.000000000000000000 ) ) ;
#20 = FACE_OUTER_BOUND ( 'NONE', #166, .T. ) ;
#21 = CARTESIAN_POINT ( 'NONE',  ( -2.750000000000000000, 0.000000000000000000, 0.000000000000000000 ) ) ;
#22 = AXIS2_PLACEMENT_3D ( 'NONE', #346, #313, #376 ) ;
#23 = CARTESIAN_POINT ( 'NONE',  ( 0.000000000000000000, 0.000000000000000000, 0.000000000000000000 ) ) ;
#24 = FACE_OUTER_BOUND ( 'NONE', #40, .T. ) ;
#25 = CARTESIAN_POINT ( 'NONE',  ( 0.000000000000000000, 0.000000000000000000, 5.000000000000000000 ) ) ;
#26 = CYLINDRICAL_SURFACE ( 'NONE', #353, 5.000000000000000000 ) ;
#27 = AXIS2_PLACEMENT_3D ( 'NONE', #170, #146, #324 ) ;
#28 = DIRECTION ( 'NONE',  ( 1.000000000000000000, 0.000000000000000000, 0.000000000000000000 ) ) ;
#29 = PLANE ( 'NONE',  #337 ) ;
#30 = CLOSED_SHELL ( 'NONE', ( #42, #217, #267, #377, #95, #98, #107, #281, #375, #304, #174 ) ) ;
#31 = DIRECTION ( 'NONE',  ( 1.000000000000000000, 0.000000000000000000, 0.000000000000000000 ) ) ;
#32 = PERSON_AND_ORGANIZATION ( #245, #312 ) ;
#33 = PERSON_AND_ORGANIZATION_ROLE ( 'classification_officer' ) ;
#34 = EDGE_CURVE ( 'NONE', #64, #189, #302, .T. ) ;
#35 = APPROVAL_ROLE ( '' ) ;
#36 = ORIENTED_EDGE ( 'NONE', *, *, #180, .F. ) ;
#37 = CIRCLE ( 'NONE', #70, 0.5000000000000004441 ) ;
#38 = ORIENTED_EDGE ( 'NONE', *, *, #252, .T. ) ;
#39 = EDGE_CURVE ( 'NONE', #248, #322, #243, .T. ) ;
#40 = EDGE_LOOP ( 'NONE', ( #256, #226, #306, #11 ) ) ;
#41 = CIRCLE ( 'NONE', #332, 5.500000000000000000 ) ;
#42 = ADVANCED_FACE ( 'NONE', ( #104 ), #109, .F. ) ;
#43 = EDGE_LOOP ( 'NONE', ( #277, #13, #209, #91 ) ) ;
#44 = CARTESIAN_POINT ( 'NONE',  ( 0.000000000000000000, 0.000000000000000000, 5.000000000000000000 ) ) ;
#45 = CARTESIAN_POINT ( 'NONE',  ( 0.000000000000000000, 0.000000000000000000, 705.0000000000000000 ) ) ;
#46 = CARTESIAN_POINT ( 'NONE',  ( -5.500000000000000000, 6.735557395310442023E-16, 5.499999999999949374 ) ) ;
#47 = DIRECTION ( 'NONE',  ( 1.000000000000000000, 0.000000000000000000, 0.000000000000000000 ) ) ;
#48 = CARTESIAN_POINT ( 'NONE',  ( -5.000000000000000000, 0.000000000000000000, 705.0000000000000000 ) ) ;
#49 = CARTESIAN_POINT ( 'NONE',  ( 0.000000000000000000, 0.000000000000000000, 0.000000000000000000 ) ) ;
#50 = PLANE ( 'NONE',  #314 ) ;
#51 = CARTESIAN_POINT ( 'NONE',  ( 0.000000000000000000, 0.000000000000000000, 5.000000000000000000 ) ) ;
#52 = DIRECTION ( 'NONE',  ( -0.000000000000000000, -0.000000000000000000, -1.000000000000000000 ) ) ;
#53 = CARTESIAN_POINT ( 'NONE',  ( 5.500000000000000000, 0.000000000000000000, 4.999999999999975131 ) ) ;
#54 = CARTESIAN_POINT ( 'NONE',  ( -5.000000000000000000, 0.000000000000000000, 705.0000000000000000 ) ) ;
#55 = CALENDAR_DATE ( 2022, 8, 7 ) ;
#56 = PERSON_AND_ORGANIZATION_ROLE ( 'design_supplier' ) ;
#57 = EDGE_CURVE ( 'NONE', #155, #363, #232, .T. ) ;
#58 = CIRCLE ( 'NONE', #307, 0.5000000000000004441 ) ;
#59 = CC_DESIGN_PERSON_AND_ORGANIZATION_ASSIGNMENT ( #120, #352, ( #310 ) ) ;
#60 = PERSON_AND_ORGANIZATION_ROLE ( 'creator' ) ;
#61 = EDGE_CURVE ( 'NONE', #336, #8, #172, .T. ) ;
#62 = ORIENTED_EDGE ( 'NONE', *, *, #57, .T. ) ;
#63 = COORDINATED_UNIVERSAL_TIME_OFFSET ( 1, 0, .AHEAD. ) ;
#64 = VERTEX_POINT ( 'NONE', #279 ) ;
#65 = EDGE_CURVE ( 'NONE', #336, #64, #282, .T. ) ;
#66 = ORIENTED_EDGE ( 'NONE', *, *, #362, .F. ) ;
#67 = EDGE_LOOP ( 'NONE', ( #96, #131 ) ) ;
#68 = ORIENTED_EDGE ( 'NONE', *, *, #180, .T. ) ;
#69 = VERTEX_POINT ( 'NONE', #140 ) ;
#70 = AXIS2_PLACEMENT_3D ( 'NONE', #288, #143, #193 ) ;
#71 = DIRECTION ( 'NONE',  ( 0.000000000000000000, 0.000000000000000000, -1.000000000000000000 ) ) ;
#72 = CARTESIAN_POINT ( 'NONE',  ( 0.000000000000000000, 0.000000000000000000, 5.000000000000000000 ) ) ;
#73 = FACE_BOUND ( 'NONE', #287, .T. ) ;
#74 = EDGE_CURVE ( 'NONE', #130, #127, #263, .T. ) ;
#75 = DIRECTION ( 'NONE',  ( -1.000000000000000000, 0.000000000000000000, 0.000000000000000000 ) ) ;
#76 = CARTESIAN_POINT ( 'NONE',  ( 8.000000000000000000, 9.797174393178825657E-16, 5.000000000000000000 ) ) ;
#77 = SECURITY_CLASSIFICATION ( '', '', #175 ) ;
#78 = CARTESIAN_POINT ( 'NONE',  ( 0.000000000000000000, 0.000000000000000000, 5.499999999999949374 ) ) ;
#79 = DIRECTION ( 'NONE',  ( -0.000000000000000000, -0.000000000000000000, -1.000000000000000000 ) ) ;
#80 = CC_DESIGN_PERSON_AND_ORGANIZATION_ASSIGNMENT ( #121, #60, ( #258 ) ) ;
#81 = LINE ( 'NONE', #54, #284 ) ;
#82 = DIRECTION ( 'NONE',  ( 1.000000000000000000, 0.000000000000000000, 0.000000000000000000 ) ) ;
#83 = CARTESIAN_POINT ( 'NONE',  ( 0.000000000000000000, 0.000000000000000000, 5.000000000000000000 ) ) ;
#84 = APPROVAL_ROLE ( '' ) ;
#85 = CC_DESIGN_APPROVAL ( #157, ( #258 ) ) ;
#86 = DIRECTION ( 'NONE',  ( 0.000000000000000000, 0.000000000000000000, 1.000000000000000000 ) ) ;
#87 = MECHANICAL_CONTEXT ( 'NONE', #369, 'mechanical' ) ;
#88 = COORDINATED_UNIVERSAL_TIME_OFFSET ( 1, 0, .AHEAD. ) ;
#89 = ORIENTED_EDGE ( 'NONE', *, *, #57, .F. ) ;
#90 = VECTOR ( 'NONE', #234, 1000.000000000000000 ) ;
#91 = ORIENTED_EDGE ( 'NONE', *, *, #252, .F. ) ;
#92 = CC_DESIGN_PERSON_AND_ORGANIZATION_ASSIGNMENT ( #331, #56, ( #258 ) ) ;
#93 = AXIS2_PLACEMENT_3D ( 'NONE', #320, #372, #249 ) ;
#94 = ORIENTED_EDGE ( 'NONE', *, *, #34, .F. ) ;
#95 = ADVANCED_FACE ( 'NONE', ( #196 ), #132, .T. ) ;
#96 = ORIENTED_EDGE ( 'NONE', *, *, #280, .T. ) ;
#97 = VERTEX_POINT ( 'NONE', #339 ) ;
#98 = ADVANCED_FACE ( 'NONE', ( #18, #191 ), #160, .T. ) ;
#99 = DIRECTION ( 'NONE',  ( 1.000000000000000000, 0.000000000000000000, 0.000000000000000000 ) ) ;
#100 = DIRECTION ( 'NONE',  ( 1.000000000000000000, 0.000000000000000000, 0.000000000000000000 ) ) ;
#101 = APPROVAL_PERSON_ORGANIZATION ( #32, #142, #84 ) ;
#102 = ADVANCED_BREP_SHAPE_REPRESENTATION ( '89b8', ( #318, #327 ), #359 ) ;
#103 = CC_DESIGN_DATE_AND_TIME_ASSIGNMENT ( #301, #329, ( #310 ) ) ;
#104 = FACE_OUTER_BOUND ( 'NONE', #273, .T. ) ;
#105 = DIRECTION ( 'NONE',  ( -0.000000000000000000, -0.000000000000000000, -1.000000000000000000 ) ) ;
#106 = DIRECTION ( 'NONE',  ( 1.000000000000000000, 0.000000000000000000, 0.000000000000000000 ) ) ;
#107 = ADVANCED_FACE ( 'NONE', ( #73, #370 ), #50, .F. ) ;
#108 =( NAMED_UNIT ( * ) SI_UNIT ( $, .STERADIAN. ) SOLID_ANGLE_UNIT ( ) );
#109 = CYLINDRICAL_SURFACE ( 'NONE', #126, 2.750000000000000000 ) ;
#110 = CC_DESIGN_APPROVAL ( #298, ( #77 ) ) ;
#111 = CARTESIAN_POINT ( 'NONE',  ( 2.750000000000000000, 3.367778697655221012E-16, 705.0000000000000000 ) ) ;
#112 = EDGE_CURVE ( 'NONE', #69, #97, #145, .T. ) ;
#113 = CARTESIAN_POINT ( 'NONE',  ( 0.000000000000000000, 0.000000000000000000, 705.0000000000000000 ) ) ;
#114 = CARTESIAN_POINT ( 'NONE',  ( 0.000000000000000000, 0.000000000000000000, 705.0000000000000000 ) ) ;
#115 = CARTESIAN_POINT ( 'NONE',  ( -8.000000000000000000, 0.000000000000000000, 5.000000000000000000 ) ) ;
#116 = DATE_AND_TIME ( #182, #206 ) ;
#117 = AXIS2_PLACEMENT_3D ( 'NONE', #78, #290, #100 ) ;
#118 = CARTESIAN_POINT ( 'NONE',  ( 0.000000000000000000, 0.000000000000000000, 0.000000000000000000 ) ) ;
#119 = EDGE_CURVE ( 'NONE', #334, #130, #341, .T. ) ;
#120 = PERSON_AND_ORGANIZATION ( #245, #312 ) ;
#121 = PERSON_AND_ORGANIZATION ( #245, #312 ) ;
#122 = COORDINATED_UNIVERSAL_TIME_OFFSET ( 1, 0, .AHEAD. ) ;
#123 = AXIS2_PLACEMENT_3D ( 'NONE', #194, #317, #47 ) ;
#124 = CC_DESIGN_SECURITY_CLASSIFICATION ( #77, ( #258 ) ) ;
#125 = ORIENTED_EDGE ( 'NONE', *, *, #187, .F. ) ;
#126 = AXIS2_PLACEMENT_3D ( 'NONE', #45, #228, #138 ) ;
#127 = VERTEX_POINT ( 'NONE', #344 ) ;
#128 = ORIENTED_EDGE ( 'NONE', *, *, #165, .F. ) ;
#129 = EDGE_CURVE ( 'NONE', #322, #248, #141, .T. ) ;
#130 = VERTEX_POINT ( 'NONE', #21 ) ;
#131 = ORIENTED_EDGE ( 'NONE', *, *, #61, .T. ) ;
#132 = CYLINDRICAL_SURFACE ( 'NONE', #93, 8.000000000000000000 ) ;
#133 = LOCAL_TIME ( 17, 3, 31.00000000000000000, #264 ) ;
#134 = DIRECTION ( 'NONE',  ( 1.000000000000000000, 0.000000000000000000, -0.000000000000000000 ) ) ;
#135 = CARTESIAN_POINT ( 'NONE',  ( 0.000000000000000000, 0.000000000000000000, 705.0000000000000000 ) ) ;
#136 = AXIS2_PLACEMENT_3D ( 'NONE', #23, #220, #106 ) ;
#137 =( LENGTH_UNIT ( ) NAMED_UNIT ( * ) SI_UNIT ( .MILLI., .METRE. ) );
#138 = DIRECTION ( 'NONE',  ( -1.000000000000000000, 0.000000000000000000, 0.000000000000000000 ) ) ;
#139 = DIRECTION ( 'NONE',  ( 0.000000000000000000, 0.000000000000000000, 1.000000000000000000 ) ) ;
#140 = CARTESIAN_POINT ( 'NONE',  ( 5.000000000000000000, 6.123233995736766282E-16, 5.499999999999949374 ) ) ;
#141 = CIRCLE ( 'NONE', #123, 5.000000000000000000 ) ;
#142 = APPROVAL ( #2, 'NEURÈENÝ' ) ;
#143 = DIRECTION ( 'NONE',  ( 0.000000000000000000, -1.000000000000000000, 0.000000000000000000 ) ) ;
#144 = CARTESIAN_POINT ( 'NONE',  ( -8.000000000000000000, 0.000000000000000000, 0.000000000000000000 ) ) ;
#145 = CIRCLE ( 'NONE', #117, 5.000000000000000000 ) ;
#146 = DIRECTION ( 'NONE',  ( -0.000000000000000000, -0.000000000000000000, -1.000000000000000000 ) ) ;
#147 = CALENDAR_DATE ( 2022, 8, 7 ) ;
#148 = VECTOR ( 'NONE', #71, 1000.000000000000000 ) ;
#149 = APPROVAL_DATE_TIME ( #116, #157 ) ;
#150 = TOROIDAL_SURFACE ( 'NONE', #319, 5.500000000000000000, 0.5000000000000000000 ) ;
#151 = DATE_TIME_ROLE ( 'classification_date' ) ;
#152 = ORIENTED_EDGE ( 'NONE', *, *, #198, .T. ) ;
#153 = ORIENTED_EDGE ( 'NONE', *, *, #278, .F. ) ;
#154 = ORIENTED_EDGE ( 'NONE', *, *, #289, .T. ) ;
#155 = VERTEX_POINT ( 'NONE', #3 ) ;
#156 = DIRECTION ( 'NONE',  ( 0.000000000000000000, 0.000000000000000000, 1.000000000000000000 ) ) ;
#157 = APPROVAL ( #213, 'NEURÈENÝ' ) ;
#158 = DIRECTION ( 'NONE',  ( 1.000000000000000000, 0.000000000000000000, 0.000000000000000000 ) ) ;
#159 = CARTESIAN_POINT ( 'NONE',  ( 5.000000000000000000, 6.123233995736766282E-16, 705.0000000000000000 ) ) ;
#160 = PLANE ( 'NONE',  #188 ) ;
#161 = LOCAL_TIME ( 17, 3, 31.00000000000000000, #122 ) ;
#162 = CARTESIAN_POINT ( 'NONE',  ( 8.000000000000000000, 9.797174393178825657E-16, 5.000000000000000000 ) ) ;
#163 = DIRECTION ( 'NONE',  ( 0.000000000000000000, 0.000000000000000000, 1.000000000000000000 ) ) ;
#164 = APPLICATION_PROTOCOL_DEFINITION ( 'international standard', 'config_control_design', 1994, #369 ) ;
#165 = EDGE_CURVE ( 'NONE', #363, #155, #41, .T. ) ;
#166 = EDGE_LOOP ( 'NONE', ( #308, #355 ) ) ;
#167 = CARTESIAN_POINT ( 'NONE',  ( 0.000000000000000000, 0.000000000000000000, 705.0000000000000000 ) ) ;
#168 = LINE ( 'NONE', #115, #90 ) ;
#169 = DIRECTION ( 'NONE',  ( -1.000000000000000000, 0.000000000000000000, 0.000000000000000000 ) ) ;
#170 = CARTESIAN_POINT ( 'NONE',  ( 0.000000000000000000, 0.000000000000000000, 0.000000000000000000 ) ) ;
#171 = CALENDAR_DATE ( 2022, 8, 7 ) ;
#172 = CIRCLE ( 'NONE', #214, 8.000000000000000000 ) ;
#173 = DIRECTION ( 'NONE',  ( 0.000000000000000000, 0.000000000000000000, 1.000000000000000000 ) ) ;
#174 = ADVANCED_FACE ( 'NONE', ( #293 ), #259, .F. ) ;
#175 = SECURITY_CLASSIFICATION_LEVEL ( 'unclassified' ) ;
#176 = APPROVAL_PERSON_ORGANIZATION ( #178, #298, #35 ) ;
#177 = EDGE_CURVE ( 'NONE', #334, #285, #358, .T. ) ;
#178 = PERSON_AND_ORGANIZATION ( #245, #312 ) ;
#179 = PRODUCT_DEFINITION_SHAPE ( 'NONE', 'NONE',  #310 ) ;
#180 = EDGE_CURVE ( 'NONE', #285, #334, #190, .T. ) ;
#181 = ORIENTED_EDGE ( 'NONE', *, *, #74, .F. ) ;
#182 = CALENDAR_DATE ( 2022, 8, 7 ) ;
#183 = APPLICATION_CONTEXT ( 'configuration controlled 3d designs of mechanical parts and assemblies' ) ;
#184 = ORIENTED_EDGE ( 'NONE', *, *, #362, .T. ) ;
#185 = AXIS2_PLACEMENT_3D ( 'NONE', #250, #342, #75 ) ;
#186 = EDGE_LOOP ( 'NONE', ( #303, #274, #270, #152 ) ) ;
#187 = EDGE_CURVE ( 'NONE', #127, #130, #14, .T. ) ;
#188 = AXIS2_PLACEMENT_3D ( 'NONE', #44, #156, #368 ) ;
#189 = VERTEX_POINT ( 'NONE', #144 ) ;
#190 = CIRCLE ( 'NONE', #340, 2.750000000000000000 ) ;
#191 = FACE_OUTER_BOUND ( 'NONE', #67, .T. ) ;
#192 = ORIENTED_EDGE ( 'NONE', *, *, #365, .F. ) ;
#193 = DIRECTION ( 'NONE',  ( 0.000000000000000000, 0.000000000000000000, -1.000000000000000000 ) ) ;
#194 = CARTESIAN_POINT ( 'NONE',  ( 0.000000000000000000, 0.000000000000000000, 705.0000000000000000 ) ) ;
#195 = FACE_OUTER_BOUND ( 'NONE', #271, .T. ) ;
#196 = FACE_OUTER_BOUND ( 'NONE', #186, .T. ) ;
#197 = CC_DESIGN_APPROVAL ( #142, ( #310 ) ) ;
#198 = EDGE_CURVE ( 'NONE', #189, #64, #227, .T. ) ;
#199 = CC_DESIGN_PERSON_AND_ORGANIZATION_ASSIGNMENT ( #269, #6, ( #321 ) ) ;
#200 = CARTESIAN_POINT ( 'NONE',  ( 0.000000000000000000, 0.000000000000000000, 5.000000000000000000 ) ) ;
#201 = UNCERTAINTY_MEASURE_WITH_UNIT (LENGTH_MEASURE( 1.000000000000000082E-05 ), #137, 'distance_accuracy_value', 'NONE');
#202 = DIRECTION ( 'NONE',  ( 0.000000000000000000, 0.000000000000000000, 1.000000000000000000 ) ) ;
#203 = CARTESIAN_POINT ( 'NONE',  ( 0.000000000000000000, 0.000000000000000000, 705.0000000000000000 ) ) ;
#204 = DIRECTION ( 'NONE',  ( 1.000000000000000000, 0.000000000000000000, 0.000000000000000000 ) ) ;
#205 = DIRECTION ( 'NONE',  ( 0.000000000000000000, 0.000000000000000000, 1.000000000000000000 ) ) ;
#206 = LOCAL_TIME ( 17, 3, 31.00000000000000000, #88 ) ;
#207 = DIRECTION ( 'NONE',  ( 1.000000000000000000, 0.000000000000000000, 0.000000000000000000 ) ) ;
#208 = CALENDAR_DATE ( 2022, 8, 7 ) ;
#209 = ORIENTED_EDGE ( 'NONE', *, *, #112, .T. ) ;
#210 = AXIS2_PLACEMENT_3D ( 'NONE', #203, #380, #351 ) ;
#211 = COORDINATED_UNIVERSAL_TIME_OFFSET ( 1, 0, .AHEAD. ) ;
#212 = ORIENTED_EDGE ( 'NONE', *, *, #119, .F. ) ;
#213 = APPROVAL_STATUS ( 'not_yet_approved' ) ;
#214 = AXIS2_PLACEMENT_3D ( 'NONE', #25, #348, #254 ) ;
#215 = ORIENTED_EDGE ( 'NONE', *, *, #165, .T. ) ;
#216 = ORIENTED_EDGE ( 'NONE', *, *, #289, .F. ) ;
#217 = ADVANCED_FACE ( 'NONE', ( #262 ), #150, .F. ) ;
#218 = ORIENTED_EDGE ( 'NONE', *, *, #74, .T. ) ;
#219 = EDGE_LOOP ( 'NONE', ( #66, #244, #338, #89 ) ) ;
#220 = DIRECTION ( 'NONE',  ( -0.000000000000000000, -0.000000000000000000, -1.000000000000000000 ) ) ;
#221 = APPROVAL_PERSON_ORGANIZATION ( #235, #157, #4 ) ;
#222 = CARTESIAN_POINT ( 'NONE',  ( -2.750000000000000000, 0.000000000000000000, 705.0000000000000000 ) ) ;
#223 = DIRECTION ( 'NONE',  ( 0.000000000000000000, 0.000000000000000000, -1.000000000000000000 ) ) ;
#224 = DIRECTION ( 'NONE',  ( 1.000000000000000000, 0.000000000000000000, -0.000000000000000000 ) ) ;
#225 = CYLINDRICAL_SURFACE ( 'NONE', #185, 5.000000000000000000 ) ;
#226 = ORIENTED_EDGE ( 'NONE', *, *, #65, .T. ) ;
#227 = CIRCLE ( 'NONE', #247, 8.000000000000000000 ) ;
#228 = DIRECTION ( 'NONE',  ( 0.000000000000000000, 0.000000000000000000, -1.000000000000000000 ) ) ;
#229 = LOCAL_TIME ( 17, 3, 31.00000000000000000, #63 ) ;
#230 = CARTESIAN_POINT ( 'NONE',  ( 2.750000000000000000, 3.367778697655221012E-16, 705.0000000000000000 ) ) ;
#231 = DIRECTION ( 'NONE',  ( 0.000000000000000000, 0.000000000000000000, 1.000000000000000000 ) ) ;
#232 = CIRCLE ( 'NONE', #343, 5.500000000000000000 ) ;
#233 = FACE_OUTER_BOUND ( 'NONE', #43, .T. ) ;
#234 = DIRECTION ( 'NONE',  ( -0.000000000000000000, -0.000000000000000000, -1.000000000000000000 ) ) ;
#235 = PERSON_AND_ORGANIZATION ( #245, #312 ) ;
#236 = TOROIDAL_SURFACE ( 'NONE', #240, 5.500000000000000000, 0.5000000000000000000 ) ;
#237 = APPLICATION_PROTOCOL_DEFINITION ( 'international standard', 'config_control_design', 1994, #183 ) ;
#238 = DATE_AND_TIME ( #55, #5 ) ;
#239 = CC_DESIGN_PERSON_AND_ORGANIZATION_ASSIGNMENT ( #300, #33, ( #77 ) ) ;
#240 = AXIS2_PLACEMENT_3D ( 'NONE', #345, #202, #204 ) ;
#241 = DIRECTION ( 'NONE',  ( 1.000000000000000000, 0.000000000000000000, 0.000000000000000000 ) ) ;
#242 = ORIENTED_EDGE ( 'NONE', *, *, #187, .T. ) ;
#243 = CIRCLE ( 'NONE', #17, 5.000000000000000000 ) ;
#244 = ORIENTED_EDGE ( 'NONE', *, *, #112, .F. ) ;
#245 = PERSON ( 'NEURÈENÝ', 'NEURÈENÝ', 'NEURÈENÝ', ('NEURÈENÝ'), ('NEURÈENÝ'), ('NEURÈENÝ') ) ;
#246 = ORIENTED_EDGE ( 'NONE', *, *, #357, .F. ) ;
#247 = AXIS2_PLACEMENT_3D ( 'NONE', #118, #205, #328 ) ;
#248 = VERTEX_POINT ( 'NONE', #330 ) ;
#249 = DIRECTION ( 'NONE',  ( -1.000000000000000000, 0.000000000000000000, 0.000000000000000000 ) ) ;
#250 = CARTESIAN_POINT ( 'NONE',  ( 0.000000000000000000, 0.000000000000000000, 705.0000000000000000 ) ) ;
#251 = CIRCLE ( 'NONE', #379, 5.000000000000000000 ) ;
#252 = EDGE_CURVE ( 'NONE', #322, #97, #81, .T. ) ;
#253 = CARTESIAN_POINT ( 'NONE',  ( -8.000000000000000000, 0.000000000000000000, 5.000000000000000000 ) ) ;
#254 = DIRECTION ( 'NONE',  ( 1.000000000000000000, 0.000000000000000000, 0.000000000000000000 ) ) ;
#255 = CYLINDRICAL_SURFACE ( 'NONE', #276, 8.000000000000000000 ) ;
#256 = ORIENTED_EDGE ( 'NONE', *, *, #61, .F. ) ;
#257 = DIRECTION ( 'NONE',  ( 1.224646799147353207E-16, 1.000000000000000000, -0.000000000000000000 ) ) ;
#258 = PRODUCT_DEFINITION_FORMATION_WITH_SPECIFIED_SOURCE ( 'LIBOVOLNÝ', '', #321, .NOT_KNOWN. ) ;
#259 = CYLINDRICAL_SURFACE ( 'NONE', #210, 2.750000000000000000 ) ;
#260 =( NAMED_UNIT ( * ) PLANE_ANGLE_UNIT ( ) SI_UNIT ( $, .RADIAN. ) );
#261 = CC_DESIGN_DATE_AND_TIME_ASSIGNMENT ( #238, #151, ( #77 ) ) ;
#262 = FACE_OUTER_BOUND ( 'NONE', #10, .T. ) ;
#263 = CIRCLE ( 'NONE', #136, 2.750000000000000000 ) ;
#264 = COORDINATED_UNIVERSAL_TIME_OFFSET ( 1, 0, .AHEAD. ) ;
#265 = EDGE_CURVE ( 'NONE', #8, #189, #168, .T. ) ;
#266 = CARTESIAN_POINT ( 'NONE',  ( 0.000000000000000000, 0.000000000000000000, 705.0000000000000000 ) ) ;
#267 = ADVANCED_FACE ( 'NONE', ( #233 ), #225, .T. ) ;
#268 = PRODUCT_RELATED_PRODUCT_CATEGORY ( 'detail', '', ( #321 ) ) ;
#269 = PERSON_AND_ORGANIZATION ( #245, #312 ) ;
#270 = ORIENTED_EDGE ( 'NONE', *, *, #265, .T. ) ;
#271 = EDGE_LOOP ( 'NONE', ( #192, #364, #38, #154 ) ) ;
#272 = VECTOR ( 'NONE', #223, 1000.000000000000000 ) ;
#273 = EDGE_LOOP ( 'NONE', ( #311, #275, #242, #212 ) ) ;
#274 = ORIENTED_EDGE ( 'NONE', *, *, #280, .F. ) ;
#275 = ORIENTED_EDGE ( 'NONE', *, *, #278, .T. ) ;
#276 = AXIS2_PLACEMENT_3D ( 'NONE', #51, #286, #381 ) ;
#277 = ORIENTED_EDGE ( 'NONE', *, *, #39, .F. ) ;
#278 = EDGE_CURVE ( 'NONE', #285, #127, #326, .T. ) ;
#279 = CARTESIAN_POINT ( 'NONE',  ( 8.000000000000000000, 9.797174393178825657E-16, 0.000000000000000000 ) ) ;
#280 = EDGE_CURVE ( 'NONE', #8, #336, #366, .T. ) ;
#281 = ADVANCED_FACE ( 'NONE', ( #195 ), #26, .T. ) ;
#282 = LINE ( 'NONE', #76, #373 ) ;
#283 = LINE ( 'NONE', #159, #292 ) ;
#284 = VECTOR ( 'NONE', #52, 1000.000000000000000 ) ;
#285 = VERTEX_POINT ( 'NONE', #230 ) ;
#286 = DIRECTION ( 'NONE',  ( -0.000000000000000000, -0.000000000000000000, -1.000000000000000000 ) ) ;
#287 = EDGE_LOOP ( 'NONE', ( #181, #125 ) ) ;
#288 = CARTESIAN_POINT ( 'NONE',  ( 5.500000000000000000, 0.000000000000000000, 5.499999999999949374 ) ) ;
#289 = EDGE_CURVE ( 'NONE', #97, #69, #251, .T. ) ;
#290 = DIRECTION ( 'NONE',  ( 0.000000000000000000, 0.000000000000000000, 1.000000000000000000 ) ) ;
#291 = CARTESIAN_POINT ( 'NONE',  ( -2.750000000000000000, 0.000000000000000000, 705.0000000000000000 ) ) ;
#292 = VECTOR ( 'NONE', #105, 1000.000000000000000 ) ;
#293 = FACE_OUTER_BOUND ( 'NONE', #335, .T. ) ;
#294 = FACE_BOUND ( 'NONE', #360, .T. ) ;
#295 = DIRECTION ( 'NONE',  ( -0.000000000000000000, -0.000000000000000000, -1.000000000000000000 ) ) ;
#296 = APPROVAL_STATUS ( 'not_yet_approved' ) ;
#297 = DATE_AND_TIME ( #147, #161 ) ;
#298 = APPROVAL ( #296, 'NEURÈENÝ' ) ;
#299 = AXIS2_PLACEMENT_3D ( 'NONE', #113, #86, #31 ) ;
#300 = PERSON_AND_ORGANIZATION ( #245, #312 ) ;
#301 = DATE_AND_TIME ( #208, #229 ) ;
#302 = CIRCLE ( 'NONE', #22, 8.000000000000000000 ) ;
#303 = ORIENTED_EDGE ( 'NONE', *, *, #65, .F. ) ;
#304 = ADVANCED_FACE ( 'NONE', ( #349 ), #236, .F. ) ;
#305 = CARTESIAN_POINT ( 'NONE',  ( 0.000000000000000000, 0.000000000000000000, 0.000000000000000000 ) ) ;
#306 = ORIENTED_EDGE ( 'NONE', *, *, #34, .T. ) ;
#307 = AXIS2_PLACEMENT_3D ( 'NONE', #46, #257, #371 ) ;
#308 = ORIENTED_EDGE ( 'NONE', *, *, #129, .T. ) ;
#309 = EDGE_LOOP ( 'NONE', ( #367, #94 ) ) ;
#310 = PRODUCT_DEFINITION ( 'NEZNÁMÝ', '', #258, #325 ) ;
#311 = ORIENTED_EDGE ( 'NONE', *, *, #177, .T. ) ;
#312 = ORGANIZATION ( 'NEURÈENÝ', 'NEURÈENÝ', '' ) ;
#313 = DIRECTION ( 'NONE',  ( 0.000000000000000000, 0.000000000000000000, 1.000000000000000000 ) ) ;
#314 = AXIS2_PLACEMENT_3D ( 'NONE', #49, #163, #224 ) ;
#315 = DIRECTION ( 'NONE',  ( 0.000000000000000000, 0.000000000000000000, 1.000000000000000000 ) ) ;
#316 = DIRECTION ( 'NONE',  ( 1.000000000000000000, 0.000000000000000000, 0.000000000000000000 ) ) ;
#317 = DIRECTION ( 'NONE',  ( 0.000000000000000000, 0.000000000000000000, 1.000000000000000000 ) ) ;
#318 = MANIFOLD_SOLID_BREP ( 'Odebrat vysunutím3', #30 ) ;
#319 = AXIS2_PLACEMENT_3D ( 'NONE', #354, #231, #350 ) ;
#320 = CARTESIAN_POINT ( 'NONE',  ( 0.000000000000000000, 0.000000000000000000, 5.000000000000000000 ) ) ;
#321 = PRODUCT ( '89b8', '89b8', '', ( #87 ) ) ;
#322 = VERTEX_POINT ( 'NONE', #48 ) ;
#323 = DIRECTION ( 'NONE',  ( 0.000000000000000000, 0.000000000000000000, 1.000000000000000000 ) ) ;
#324 = DIRECTION ( 'NONE',  ( 1.000000000000000000, 0.000000000000000000, 0.000000000000000000 ) ) ;
#325 = DESIGN_CONTEXT ( 'detailed design', #183, 'design' ) ;
#326 = LINE ( 'NONE', #111, #272 ) ;
#327 = AXIS2_PLACEMENT_3D ( 'NONE', #305, #173, #241 ) ;
#328 = DIRECTION ( 'NONE',  ( 1.000000000000000000, 0.000000000000000000, 0.000000000000000000 ) ) ;
#329 = DATE_TIME_ROLE ( 'creation_date' ) ;
#330 = CARTESIAN_POINT ( 'NONE',  ( 5.000000000000000000, 6.123233995736766282E-16, 705.0000000000000000 ) ) ;
#331 = PERSON_AND_ORGANIZATION ( #245, #312 ) ;
#332 = AXIS2_PLACEMENT_3D ( 'NONE', #83, #295, #28 ) ;
#333 = EDGE_LOOP ( 'NONE', ( #215, #62 ) ) ;
#334 = VERTEX_POINT ( 'NONE', #291 ) ;
#335 = EDGE_LOOP ( 'NONE', ( #153, #68, #16, #218 ) ) ;
#336 = VERTEX_POINT ( 'NONE', #162 ) ;
#337 = AXIS2_PLACEMENT_3D ( 'NONE', #114, #323, #134 ) ;
#338 = ORIENTED_EDGE ( 'NONE', *, *, #357, .T. ) ;
#339 = CARTESIAN_POINT ( 'NONE',  ( -5.000000000000000000, 0.000000000000000000, 5.499999999999949374 ) ) ;
#340 = AXIS2_PLACEMENT_3D ( 'NONE', #266, #1, #207 ) ;
#341 = LINE ( 'NONE', #222, #148 ) ;
#342 = DIRECTION ( 'NONE',  ( -0.000000000000000000, -0.000000000000000000, -1.000000000000000000 ) ) ;
#343 = AXIS2_PLACEMENT_3D ( 'NONE', #200, #374, #99 ) ;
#344 = CARTESIAN_POINT ( 'NONE',  ( 2.750000000000000000, 3.367778697655221012E-16, 0.000000000000000000 ) ) ;
#345 = CARTESIAN_POINT ( 'NONE',  ( 0.000000000000000000, 0.000000000000000000, 5.499999999999949374 ) ) ;
#346 = CARTESIAN_POINT ( 'NONE',  ( 0.000000000000000000, 0.000000000000000000, 0.000000000000000000 ) ) ;
#347 = CARTESIAN_POINT ( 'NONE',  ( 0.000000000000000000, 0.000000000000000000, 5.499999999999949374 ) ) ;
#348 = DIRECTION ( 'NONE',  ( 0.000000000000000000, 0.000000000000000000, 1.000000000000000000 ) ) ;
#349 = FACE_OUTER_BOUND ( 'NONE', #219, .T. ) ;
#350 = DIRECTION ( 'NONE',  ( 1.000000000000000000, 0.000000000000000000, 0.000000000000000000 ) ) ;
#351 = DIRECTION ( 'NONE',  ( -1.000000000000000000, 0.000000000000000000, 0.000000000000000000 ) ) ;
#352 = PERSON_AND_ORGANIZATION_ROLE ( 'creator' ) ;
#353 = AXIS2_PLACEMENT_3D ( 'NONE', #167, #79, #169 ) ;
#354 = CARTESIAN_POINT ( 'NONE',  ( 0.000000000000000000, 0.000000000000000000, 5.499999999999949374 ) ) ;
#355 = ORIENTED_EDGE ( 'NONE', *, *, #39, .T. ) ;
#356 = APPROVAL_DATE_TIME ( #361, #298 ) ;
#357 = EDGE_CURVE ( 'NONE', #69, #363, #37, .T. ) ;
#358 = CIRCLE ( 'NONE', #299, 2.750000000000000000 ) ;
#359 =( GEOMETRIC_REPRESENTATION_CONTEXT ( 3 ) GLOBAL_UNCERTAINTY_ASSIGNED_CONTEXT ( ( #201 ) ) GLOBAL_UNIT_ASSIGNED_CONTEXT ( ( #137, #260, #108 ) ) REPRESENTATION_CONTEXT ( 'NONE', 'WORKASPACE' ) );
#360 = EDGE_LOOP ( 'NONE', ( #12, #36 ) ) ;
#361 = DATE_AND_TIME ( #171, #133 ) ;
#362 = EDGE_CURVE ( 'NONE', #97, #155, #58, .T. ) ;
#363 = VERTEX_POINT ( 'NONE', #53 ) ;
#364 = ORIENTED_EDGE ( 'NONE', *, *, #129, .F. ) ;
#365 = EDGE_CURVE ( 'NONE', #248, #69, #283, .T. ) ;
#366 = CIRCLE ( 'NONE', #15, 8.000000000000000000 ) ;
#367 = ORIENTED_EDGE ( 'NONE', *, *, #198, .F. ) ;
#368 = DIRECTION ( 'NONE',  ( 1.000000000000000000, 0.000000000000000000, -0.000000000000000000 ) ) ;
#369 = APPLICATION_CONTEXT ( 'configuration controlled 3d designs of mechanical parts and assemblies' ) ;
#370 = FACE_OUTER_BOUND ( 'NONE', #309, .T. ) ;
#371 = DIRECTION ( 'NONE',  ( -1.000000000000000000, 1.224646799147351482E-16, 0.000000000000000000 ) ) ;
#372 = DIRECTION ( 'NONE',  ( -0.000000000000000000, -0.000000000000000000, -1.000000000000000000 ) ) ;
#373 = VECTOR ( 'NONE', #19, 1000.000000000000000 ) ;
#374 = DIRECTION ( 'NONE',  ( -0.000000000000000000, -0.000000000000000000, -1.000000000000000000 ) ) ;
#375 = ADVANCED_FACE ( 'NONE', ( #294, #20 ), #29, .T. ) ;
#376 = DIRECTION ( 'NONE',  ( 1.000000000000000000, 0.000000000000000000, 0.000000000000000000 ) ) ;
#377 = ADVANCED_FACE ( 'NONE', ( #24 ), #255, .T. ) ;
#378 = DIRECTION ( 'NONE',  ( 0.000000000000000000, 0.000000000000000000, 1.000000000000000000 ) ) ;
#379 = AXIS2_PLACEMENT_3D ( 'NONE', #347, #139, #82 ) ;
#380 = DIRECTION ( 'NONE',  ( 0.000000000000000000, 0.000000000000000000, -1.000000000000000000 ) ) ;
#381 = DIRECTION ( 'NONE',  ( -1.000000000000000000, 0.000000000000000000, 0.000000000000000000 ) ) ;
ENDSEC;
END-ISO-10303-21;
