ISO-10303-21;
HEADER;
FILE_DESCRIPTION (( 'STEP AP203' ),
    '1' );
FILE_NAME ('0c87.STEP',
    '2022-07-08T14:26:43',
    ( '' ),
    ( '' ),
    'SwSTEP 2.0',
    'SolidWorks 2019',
    '' );
FILE_SCHEMA (( 'CONFIG_CONTROL_DESIGN' ));
ENDSEC;

DATA;
#1 = MECHANICAL_CONTEXT ( 'NONE', #320, 'mechanical' ) ;
#2 = VERTEX_POINT ( 'NONE', #356 ) ;
#3 = ORGANIZATION ( 'NEURÈENÝ', 'NEURÈENÝ', '' ) ;
#4 = COORDINATED_UNIVERSAL_TIME_OFFSET ( 1, 0, .AHEAD. ) ;
#5 = DIRECTION ( 'NONE',  ( -0.000000000000000000, -0.000000000000000000, -1.000000000000000000 ) ) ;
#6 = DATE_AND_TIME ( #100, #66 ) ;
#7 = CC_DESIGN_PERSON_AND_ORGANIZATION_ASSIGNMENT ( #212, #155, ( #258 ) ) ;
#8 = ORIENTED_EDGE ( 'NONE', *, *, #249, .T. ) ;
#9 = PRODUCT_DEFINITION_SHAPE ( 'NONE', 'NONE',  #71 ) ;
#10 = DIRECTION ( 'NONE',  ( 1.000000000000000000, 0.000000000000000000, 0.000000000000000000 ) ) ;
#11 = ORIENTED_EDGE ( 'NONE', *, *, #55, .T. ) ;
#12 = AXIS2_PLACEMENT_3D ( 'NONE', #104, #217, #39 ) ;
#13 = AXIS2_PLACEMENT_3D ( 'NONE', #342, #185, #283 ) ;
#14 = DIRECTION ( 'NONE',  ( 0.000000000000000000, 0.000000000000000000, -1.000000000000000000 ) ) ;
#15 = ORIENTED_EDGE ( 'NONE', *, *, #233, .T. ) ;
#16 = EDGE_CURVE ( 'NONE', #321, #154, #29, .T. ) ;
#17 = DIRECTION ( 'NONE',  ( -0.000000000000000000, -0.000000000000000000, -1.000000000000000000 ) ) ;
#18 = TOROIDAL_SURFACE ( 'NONE', #129, 6.700000000000001066, 0.6999999999999999556 ) ;
#19 = EDGE_CURVE ( 'NONE', #304, #2, #376, .T. ) ;
#20 = DIRECTION ( 'NONE',  ( 1.000000000000000000, 0.000000000000000000, 0.000000000000000000 ) ) ;
#21 = DIRECTION ( 'NONE',  ( -1.000000000000000000, 0.000000000000000000, 0.000000000000000000 ) ) ;
#22 = DIRECTION ( 'NONE',  ( -1.000000000000000000, 0.000000000000000000, 0.000000000000000000 ) ) ;
#23 = EDGE_LOOP ( 'NONE', ( #359, #208, #257, #241 ) ) ;
#24 = EDGE_CURVE ( 'NONE', #26, #263, #328, .T. ) ;
#25 = CARTESIAN_POINT ( 'NONE',  ( 4.500000000000000000, 5.510910596163088569E-16, 0.000000000000000000 ) ) ;
#26 = VERTEX_POINT ( 'NONE', #298 ) ;
#27 = ORIENTED_EDGE ( 'NONE', *, *, #137, .F. ) ;
#28 = DIRECTION ( 'NONE',  ( 1.000000000000000000, 0.000000000000000000, -0.000000000000000000 ) ) ;
#29 = CIRCLE ( 'NONE', #332, 10.00000000000000000 ) ;
#30 =( GEOMETRIC_REPRESENTATION_CONTEXT ( 3 ) GLOBAL_UNCERTAINTY_ASSIGNED_CONTEXT ( ( #51 ) ) GLOBAL_UNIT_ASSIGNED_CONTEXT ( ( #121, #375, #61 ) ) REPRESENTATION_CONTEXT ( 'NONE', 'WORKASPACE' ) );
#31 = PERSON_AND_ORGANIZATION_ROLE ( 'design_owner' ) ;
#32 = CC_DESIGN_DATE_AND_TIME_ASSIGNMENT ( #218, #221, ( #258 ) ) ;
#33 = VERTEX_POINT ( 'NONE', #331 ) ;
#34 = CARTESIAN_POINT ( 'NONE',  ( 6.000000000000000888, 7.347880794884120722E-16, 307.0000000000000000 ) ) ;
#35 = APPROVAL_ROLE ( '' ) ;
#36 = CARTESIAN_POINT ( 'NONE',  ( 10.00000000000000000, 1.224646799147353256E-15, 7.000000000000000000 ) ) ;
#37 = AXIS2_PLACEMENT_3D ( 'NONE', #86, #371, #179 ) ;
#38 = CC_DESIGN_PERSON_AND_ORGANIZATION_ASSIGNMENT ( #105, #297, ( #215 ) ) ;
#39 = DIRECTION ( 'NONE',  ( -1.000000000000000000, 1.224646799147353454E-16, 0.000000000000000000 ) ) ;
#40 = PERSON_AND_ORGANIZATION ( #60, #3 ) ;
#41 = VERTEX_POINT ( 'NONE', #34 ) ;
#42 = CARTESIAN_POINT ( 'NONE',  ( -6.000000000000000888, 0.000000000000000000, 307.0000000000000000 ) ) ;
#43 = ORIENTED_EDGE ( 'NONE', *, *, #233, .F. ) ;
#44 = CIRCLE ( 'NONE', #37, 6.000000000000000888 ) ;
#45 = DIRECTION ( 'NONE',  ( 0.000000000000000000, 0.000000000000000000, 1.000000000000000000 ) ) ;
#46 = FACE_OUTER_BOUND ( 'NONE', #184, .T. ) ;
#47 = CC_DESIGN_DATE_AND_TIME_ASSIGNMENT ( #135, #264, ( #71 ) ) ;
#48 = AXIS2_PLACEMENT_3D ( 'NONE', #72, #190, #306 ) ;
#49 = LINE ( 'NONE', #172, #116 ) ;
#50 = DIRECTION ( 'NONE',  ( -0.000000000000000000, -0.000000000000000000, -1.000000000000000000 ) ) ;
#51 = UNCERTAINTY_MEASURE_WITH_UNIT (LENGTH_MEASURE( 1.000000000000000082E-05 ), #121, 'distance_accuracy_value', 'NONE');
#52 = CARTESIAN_POINT ( 'NONE',  ( 6.700000000000001066, 0.000000000000000000, 6.999999999999992006 ) ) ;
#53 = DIRECTION ( 'NONE',  ( 1.000000000000000000, 0.000000000000000000, 0.000000000000000000 ) ) ;
#54 = CARTESIAN_POINT ( 'NONE',  ( 0.000000000000000000, 0.000000000000000000, 307.0000000000000000 ) ) ;
#55 = EDGE_CURVE ( 'NONE', #2, #316, #272, .T. ) ;
#56 = FACE_OUTER_BOUND ( 'NONE', #74, .T. ) ;
#57 = LOCAL_TIME ( 16, 26, 43.00000000000000000, #4 ) ;
#58 = ORIENTED_EDGE ( 'NONE', *, *, #77, .F. ) ;
#59 = CYLINDRICAL_SURFACE ( 'NONE', #237, 4.500000000000000000 ) ;
#60 = PERSON ( 'NEURÈENÝ', 'NEURÈENÝ', 'NEURÈENÝ', ('NEURÈENÝ'), ('NEURÈENÝ'), ('NEURÈENÝ') ) ;
#61 =( NAMED_UNIT ( * ) SI_UNIT ( $, .STERADIAN. ) SOLID_ANGLE_UNIT ( ) );
#62 = CC_DESIGN_PERSON_AND_ORGANIZATION_ASSIGNMENT ( #40, #128, ( #71 ) ) ;
#63 = PERSON_AND_ORGANIZATION ( #60, #3 ) ;
#64 = CARTESIAN_POINT ( 'NONE',  ( 10.00000000000000000, 1.224646799147353256E-15, 7.000000000000000000 ) ) ;
#65 = VERTEX_POINT ( 'NONE', #187 ) ;
#66 = LOCAL_TIME ( 16, 26, 43.00000000000000000, #186 ) ;
#67 = CALENDAR_DATE ( 2022, 8, 7 ) ;
#68 = CARTESIAN_POINT ( 'NONE',  ( -4.500000000000000000, 0.000000000000000000, 307.0000000000000000 ) ) ;
#69 = CALENDAR_DATE ( 2022, 8, 7 ) ;
#70 = DIRECTION ( 'NONE',  ( 0.000000000000000000, 0.000000000000000000, -1.000000000000000000 ) ) ;
#71 = PRODUCT_DEFINITION ( 'NEZNÁMÝ', '', #215, #282 ) ;
#72 = CARTESIAN_POINT ( 'NONE',  ( 0.000000000000000000, 0.000000000000000000, 307.0000000000000000 ) ) ;
#73 = AXIS2_PLACEMENT_3D ( 'NONE', #204, #87, #53 ) ;
#74 = EDGE_LOOP ( 'NONE', ( #27, #91, #224, #291 ) ) ;
#75 = ORIENTED_EDGE ( 'NONE', *, *, #279, .F. ) ;
#76 = ADVANCED_BREP_SHAPE_REPRESENTATION ( '0c87', ( #198, #280 ), #30 ) ;
#77 = EDGE_CURVE ( 'NONE', #154, #89, #301, .T. ) ;
#78 = DIRECTION ( 'NONE',  ( -0.000000000000000000, -0.000000000000000000, -1.000000000000000000 ) ) ;
#79 = CARTESIAN_POINT ( 'NONE',  ( 0.000000000000000000, 0.000000000000000000, 0.000000000000000000 ) ) ;
#80 = CIRCLE ( 'NONE', #242, 6.000000000000000888 ) ;
#81 = PRODUCT ( '0c87', '0c87', '', ( #1 ) ) ;
#82 = CYLINDRICAL_SURFACE ( 'NONE', #201, 6.000000000000000888 ) ;
#83 = EDGE_CURVE ( 'NONE', #65, #26, #177, .T. ) ;
#84 = DIRECTION ( 'NONE',  ( 1.000000000000000000, 0.000000000000000000, 0.000000000000000000 ) ) ;
#85 = AXIS2_PLACEMENT_3D ( 'NONE', #277, #17, #364 ) ;
#86 = CARTESIAN_POINT ( 'NONE',  ( 0.000000000000000000, 0.000000000000000000, 307.0000000000000000 ) ) ;
#87 = DIRECTION ( 'NONE',  ( 0.000000000000000000, 0.000000000000000000, 1.000000000000000000 ) ) ;
#88 = FACE_OUTER_BOUND ( 'NONE', #324, .T. ) ;
#89 = VERTEX_POINT ( 'NONE', #284 ) ;
#90 = DIRECTION ( 'NONE',  ( -0.000000000000000000, -0.000000000000000000, -1.000000000000000000 ) ) ;
#91 = ORIENTED_EDGE ( 'NONE', *, *, #19, .T. ) ;
#92 = CARTESIAN_POINT ( 'NONE',  ( 0.000000000000000000, 0.000000000000000000, 307.0000000000000000 ) ) ;
#93 = LOCAL_TIME ( 16, 26, 43.00000000000000000, #355 ) ;
#94 = CARTESIAN_POINT ( 'NONE',  ( 0.000000000000000000, 0.000000000000000000, 7.000000000000000000 ) ) ;
#95 = EDGE_CURVE ( 'NONE', #154, #321, #226, .T. ) ;
#96 = APPROVAL_STATUS ( 'not_yet_approved' ) ;
#97 = ORIENTED_EDGE ( 'NONE', *, *, #83, .T. ) ;
#98 = DIRECTION ( 'NONE',  ( 1.000000000000000000, 0.000000000000000000, 0.000000000000000000 ) ) ;
#99 = AXIS2_PLACEMENT_3D ( 'NONE', #79, #196, #323 ) ;
#100 = CALENDAR_DATE ( 2022, 8, 7 ) ;
#101 = EDGE_CURVE ( 'NONE', #41, #219, #310, .T. ) ;
#102 = ORIENTED_EDGE ( 'NONE', *, *, #55, .F. ) ;
#103 = APPROVAL_DATE_TIME ( #357, #113 ) ;
#104 = CARTESIAN_POINT ( 'NONE',  ( -6.700000000000001066, 8.205133554287267548E-16, 7.699999999999985079 ) ) ;
#105 = PERSON_AND_ORGANIZATION ( #60, #3 ) ;
#106 = ORIENTED_EDGE ( 'NONE', *, *, #299, .T. ) ;
#107 = AXIS2_PLACEMENT_3D ( 'NONE', #252, #50, #248 ) ;
#108 = EDGE_CURVE ( 'NONE', #374, #263, #325, .T. ) ;
#109 = DIRECTION ( 'NONE',  ( 0.000000000000000000, -1.000000000000000000, 0.000000000000000000 ) ) ;
#110 = AXIS2_PLACEMENT_3D ( 'NONE', #367, #278, #173 ) ;
#111 = CIRCLE ( 'NONE', #73, 6.000000000000000888 ) ;
#112 = FACE_OUTER_BOUND ( 'NONE', #244, .T. ) ;
#113 = APPROVAL ( #96, 'NEURÈENÝ' ) ;
#114 = CARTESIAN_POINT ( 'NONE',  ( 0.000000000000000000, 0.000000000000000000, 0.000000000000000000 ) ) ;
#115 = DIRECTION ( 'NONE',  ( 0.000000000000000000, 0.000000000000000000, -1.000000000000000000 ) ) ;
#116 = VECTOR ( 'NONE', #211, 1000.000000000000000 ) ;
#117 = FACE_OUTER_BOUND ( 'NONE', #377, .T. ) ;
#118 = DIRECTION ( 'NONE',  ( 0.000000000000000000, 0.000000000000000000, -1.000000000000000000 ) ) ;
#119 = DIRECTION ( 'NONE',  ( 0.000000000000000000, 0.000000000000000000, 1.000000000000000000 ) ) ;
#120 = EDGE_LOOP ( 'NONE', ( #43, #97, #344, #149 ) ) ;
#121 =( LENGTH_UNIT ( ) NAMED_UNIT ( * ) SI_UNIT ( .MILLI., .METRE. ) );
#122 = CLOSED_SHELL ( 'NONE', ( #372, #254, #313, #327, #207, #286, #150, #195, #362, #220, #319 ) ) ;
#123 = AXIS2_PLACEMENT_3D ( 'NONE', #230, #281, #20 ) ;
#124 = EDGE_CURVE ( 'NONE', #26, #65, #309, .T. ) ;
#125 = FACE_OUTER_BOUND ( 'NONE', #120, .T. ) ;
#126 = APPROVAL_STATUS ( 'not_yet_approved' ) ;
#127 = EDGE_CURVE ( 'NONE', #33, #89, #197, .T. ) ;
#128 = PERSON_AND_ORGANIZATION_ROLE ( 'creator' ) ;
#129 = AXIS2_PLACEMENT_3D ( 'NONE', #151, #259, #343 ) ;
#130 = DIRECTION ( 'NONE',  ( 1.000000000000000000, 0.000000000000000000, 0.000000000000000000 ) ) ;
#131 = CIRCLE ( 'NONE', #274, 0.7000000000000000666 ) ;
#132 = SHAPE_DEFINITION_REPRESENTATION ( #9, #76 ) ;
#133 = ORIENTED_EDGE ( 'NONE', *, *, #163, .F. ) ;
#134 = APPROVAL_ROLE ( '' ) ;
#135 = DATE_AND_TIME ( #67, #370 ) ;
#136 = ORIENTED_EDGE ( 'NONE', *, *, #191, .T. ) ;
#137 = EDGE_CURVE ( 'NONE', #304, #219, #111, .T. ) ;
#138 = CIRCLE ( 'NONE', #141, 6.000000000000000888 ) ;
#139 = DIRECTION ( 'NONE',  ( -0.000000000000000000, -0.000000000000000000, -1.000000000000000000 ) ) ;
#140 = CC_DESIGN_PERSON_AND_ORGANIZATION_ASSIGNMENT ( #302, #31, ( #81 ) ) ;
#141 = AXIS2_PLACEMENT_3D ( 'NONE', #203, #290, #236 ) ;
#142 = DIRECTION ( 'NONE',  ( -0.000000000000000000, -0.000000000000000000, -1.000000000000000000 ) ) ;
#143 = DIRECTION ( 'NONE',  ( 0.000000000000000000, 0.000000000000000000, 1.000000000000000000 ) ) ;
#144 = CYLINDRICAL_SURFACE ( 'NONE', #289, 10.00000000000000000 ) ;
#145 = DIRECTION ( 'NONE',  ( 1.000000000000000000, 0.000000000000000000, -0.000000000000000000 ) ) ;
#146 = APPLICATION_CONTEXT ( 'configuration controlled 3d designs of mechanical parts and assemblies' ) ;
#147 = EDGE_CURVE ( 'NONE', #89, #33, #348, .T. ) ;
#148 = VECTOR ( 'NONE', #5, 1000.000000000000000 ) ;
#149 = ORIENTED_EDGE ( 'NONE', *, *, #202, .T. ) ;
#150 = ADVANCED_FACE ( 'NONE', ( #228, #336 ), #338, .F. ) ;
#151 = CARTESIAN_POINT ( 'NONE',  ( 0.000000000000000000, 0.000000000000000000, 7.699999999999985079 ) ) ;
#152 = ORIENTED_EDGE ( 'NONE', *, *, #127, .F. ) ;
#153 = CARTESIAN_POINT ( 'NONE',  ( 0.000000000000000000, 0.000000000000000000, 7.000000000000000000 ) ) ;
#154 = VERTEX_POINT ( 'NONE', #64 ) ;
#155 = PERSON_AND_ORGANIZATION_ROLE ( 'classification_officer' ) ;
#156 = ORIENTED_EDGE ( 'NONE', *, *, #124, .F. ) ;
#157 = SECURITY_CLASSIFICATION_LEVEL ( 'unclassified' ) ;
#158 = CARTESIAN_POINT ( 'NONE',  ( 0.000000000000000000, 0.000000000000000000, 7.000000000000000000 ) ) ;
#159 = COORDINATED_UNIVERSAL_TIME_OFFSET ( 1, 0, .AHEAD. ) ;
#160 = CC_DESIGN_APPROVAL ( #113, ( #215 ) ) ;
#161 = EDGE_LOOP ( 'NONE', ( #335, #296 ) ) ;
#162 = PERSON_AND_ORGANIZATION ( #60, #3 ) ;
#163 = EDGE_CURVE ( 'NONE', #41, #247, #80, .T. ) ;
#164 = ORIENTED_EDGE ( 'NONE', *, *, #83, .F. ) ;
#165 = FACE_OUTER_BOUND ( 'NONE', #225, .T. ) ;
#166 = EDGE_LOOP ( 'NONE', ( #156, #164 ) ) ;
#167 = CC_DESIGN_APPROVAL ( #182, ( #71 ) ) ;
#168 = EDGE_CURVE ( 'NONE', #219, #316, #131, .T. ) ;
#169 = DIRECTION ( 'NONE',  ( -1.000000000000000000, 0.000000000000000000, 0.000000000000000000 ) ) ;
#170 = DIRECTION ( 'NONE',  ( 1.000000000000000000, 0.000000000000000000, 0.000000000000000000 ) ) ;
#171 = CC_DESIGN_SECURITY_CLASSIFICATION ( #258, ( #215 ) ) ;
#172 = CARTESIAN_POINT ( 'NONE',  ( -10.00000000000000000, 0.000000000000000000, 7.000000000000000000 ) ) ;
#173 = DIRECTION ( 'NONE',  ( 1.000000000000000000, 0.000000000000000000, 0.000000000000000000 ) ) ;
#174 = CYLINDRICAL_SURFACE ( 'NONE', #13, 4.500000000000000000 ) ;
#175 = FACE_OUTER_BOUND ( 'NONE', #350, .T. ) ;
#176 = ORIENTED_EDGE ( 'NONE', *, *, #16, .T. ) ;
#177 = CIRCLE ( 'NONE', #48, 4.500000000000000000 ) ;
#178 = AXIS2_PLACEMENT_3D ( 'NONE', #94, #90, #21 ) ;
#179 = DIRECTION ( 'NONE',  ( 1.000000000000000000, 0.000000000000000000, 0.000000000000000000 ) ) ;
#180 = CARTESIAN_POINT ( 'NONE',  ( 0.000000000000000000, 0.000000000000000000, 307.0000000000000000 ) ) ;
#181 = ORIENTED_EDGE ( 'NONE', *, *, #101, .F. ) ;
#182 = APPROVAL ( #243, 'NEURÈENÝ' ) ;
#183 = DIRECTION ( 'NONE',  ( -1.000000000000000000, 0.000000000000000000, 0.000000000000000000 ) ) ;
#184 = EDGE_LOOP ( 'NONE', ( #181, #329, #136, #213 ) ) ;
#185 = DIRECTION ( 'NONE',  ( 0.000000000000000000, 0.000000000000000000, -1.000000000000000000 ) ) ;
#186 = COORDINATED_UNIVERSAL_TIME_OFFSET ( 1, 0, .AHEAD. ) ;
#187 = CARTESIAN_POINT ( 'NONE',  ( 4.500000000000000000, 5.510910596163088569E-16, 307.0000000000000000 ) ) ;
#188 = APPROVAL_DATE_TIME ( #351, #368 ) ;
#189 = VECTOR ( 'NONE', #14, 1000.000000000000000 ) ;
#190 = DIRECTION ( 'NONE',  ( 0.000000000000000000, 0.000000000000000000, 1.000000000000000000 ) ) ;
#191 = EDGE_CURVE ( 'NONE', #247, #304, #307, .T. ) ;
#192 = CARTESIAN_POINT ( 'NONE',  ( 0.000000000000000000, 0.000000000000000000, 0.000000000000000000 ) ) ;
#193 = ORIENTED_EDGE ( 'NONE', *, *, #19, .F. ) ;
#194 = ORIENTED_EDGE ( 'NONE', *, *, #147, .F. ) ;
#195 = ADVANCED_FACE ( 'NONE', ( #46 ), #82, .T. ) ;
#196 = DIRECTION ( 'NONE',  ( 0.000000000000000000, 0.000000000000000000, 1.000000000000000000 ) ) ;
#197 = CIRCLE ( 'NONE', #123, 10.00000000000000000 ) ;
#198 = MANIFOLD_SOLID_BREP ( 'Odebrat vysunutím3', #122 ) ;
#199 = CARTESIAN_POINT ( 'NONE',  ( 0.000000000000000000, 0.000000000000000000, 7.000000000000000000 ) ) ;
#200 = CARTESIAN_POINT ( 'NONE',  ( -6.000000000000000888, 0.000000000000000000, 307.0000000000000000 ) ) ;
#201 = AXIS2_PLACEMENT_3D ( 'NONE', #251, #78, #169 ) ;
#202 = EDGE_CURVE ( 'NONE', #263, #374, #341, .T. ) ;
#203 = CARTESIAN_POINT ( 'NONE',  ( 0.000000000000000000, 0.000000000000000000, 7.699999999999985079 ) ) ;
#204 = CARTESIAN_POINT ( 'NONE',  ( 0.000000000000000000, 0.000000000000000000, 7.699999999999985079 ) ) ;
#205 = CYLINDRICAL_SURFACE ( 'NONE', #178, 10.00000000000000000 ) ;
#206 = FACE_OUTER_BOUND ( 'NONE', #161, .T. ) ;
#207 = ADVANCED_FACE ( 'NONE', ( #112 ), #144, .T. ) ;
#208 = ORIENTED_EDGE ( 'NONE', *, *, #77, .T. ) ;
#209 = LOCAL_TIME ( 16, 26, 43.00000000000000000, #262 ) ;
#210 = FACE_BOUND ( 'NONE', #166, .T. ) ;
#211 = DIRECTION ( 'NONE',  ( -0.000000000000000000, -0.000000000000000000, -1.000000000000000000 ) ) ;
#212 = PERSON_AND_ORGANIZATION ( #60, #3 ) ;
#213 = ORIENTED_EDGE ( 'NONE', *, *, #137, .T. ) ;
#214 = CALENDAR_DATE ( 2022, 8, 7 ) ;
#215 = PRODUCT_DEFINITION_FORMATION_WITH_SPECIFIED_SOURCE ( 'LIBOVOLNÝ', '', #81, .NOT_KNOWN. ) ;
#216 = ORIENTED_EDGE ( 'NONE', *, *, #24, .F. ) ;
#217 = DIRECTION ( 'NONE',  ( 1.224646799147353207E-16, 1.000000000000000000, -0.000000000000000000 ) ) ;
#218 = DATE_AND_TIME ( #69, #209 ) ;
#219 = VERTEX_POINT ( 'NONE', #366 ) ;
#220 = ADVANCED_FACE ( 'NONE', ( #165 ), #253, .F. ) ;
#221 = DATE_TIME_ROLE ( 'classification_date' ) ;
#222 = AXIS2_PLACEMENT_3D ( 'NONE', #158, #265, #130 ) ;
#223 = AXIS2_PLACEMENT_3D ( 'NONE', #92, #373, #183 ) ;
#224 = ORIENTED_EDGE ( 'NONE', *, *, #299, .F. ) ;
#225 = EDGE_LOOP ( 'NONE', ( #193, #75, #271, #102 ) ) ;
#226 = CIRCLE ( 'NONE', #353, 10.00000000000000000 ) ;
#227 = DIRECTION ( 'NONE',  ( -1.000000000000000000, 0.000000000000000000, 0.000000000000000000 ) ) ;
#228 = FACE_BOUND ( 'NONE', #235, .T. ) ;
#229 = CARTESIAN_POINT ( 'NONE',  ( 4.500000000000000000, 5.510910596163088569E-16, 307.0000000000000000 ) ) ;
#230 = CARTESIAN_POINT ( 'NONE',  ( 0.000000000000000000, 0.000000000000000000, 0.000000000000000000 ) ) ;
#231 = DIRECTION ( 'NONE',  ( 0.000000000000000000, 0.000000000000000000, 1.000000000000000000 ) ) ;
#232 = APPROVAL_PERSON_ORGANIZATION ( #322, #182, #134 ) ;
#233 = EDGE_CURVE ( 'NONE', #65, #374, #273, .T. ) ;
#234 = CYLINDRICAL_SURFACE ( 'NONE', #223, 6.000000000000000888 ) ;
#235 = EDGE_LOOP ( 'NONE', ( #239, #314 ) ) ;
#236 = DIRECTION ( 'NONE',  ( 1.000000000000000000, 0.000000000000000000, 0.000000000000000000 ) ) ;
#237 = AXIS2_PLACEMENT_3D ( 'NONE', #292, #118, #22 ) ;
#238 = CARTESIAN_POINT ( 'NONE',  ( -4.500000000000000000, 0.000000000000000000, 0.000000000000000000 ) ) ;
#239 = ORIENTED_EDGE ( 'NONE', *, *, #202, .F. ) ;
#240 = APPROVAL_ROLE ( '' ) ;
#241 = ORIENTED_EDGE ( 'NONE', *, *, #249, .F. ) ;
#242 = AXIS2_PLACEMENT_3D ( 'NONE', #180, #270, #334 ) ;
#243 = APPROVAL_STATUS ( 'not_yet_approved' ) ;
#244 = EDGE_LOOP ( 'NONE', ( #58, #255, #8, #358 ) ) ;
#245 = DIRECTION ( 'NONE',  ( 0.000000000000000000, 0.000000000000000000, 1.000000000000000000 ) ) ;
#246 = ORIENTED_EDGE ( 'NONE', *, *, #124, .T. ) ;
#247 = VERTEX_POINT ( 'NONE', #200 ) ;
#248 = DIRECTION ( 'NONE',  ( 1.000000000000000000, 0.000000000000000000, 0.000000000000000000 ) ) ;
#249 = EDGE_CURVE ( 'NONE', #321, #33, #49, .T. ) ;
#250 = APPROVAL_PERSON_ORGANIZATION ( #330, #368, #240 ) ;
#251 = CARTESIAN_POINT ( 'NONE',  ( 0.000000000000000000, 0.000000000000000000, 307.0000000000000000 ) ) ;
#252 = CARTESIAN_POINT ( 'NONE',  ( 0.000000000000000000, 0.000000000000000000, 0.000000000000000000 ) ) ;
#253 = TOROIDAL_SURFACE ( 'NONE', #378, 6.700000000000001066, 0.6999999999999999556 ) ;
#254 = ADVANCED_FACE ( 'NONE', ( #56 ), #18, .F. ) ;
#255 = ORIENTED_EDGE ( 'NONE', *, *, #16, .F. ) ;
#256 = FACE_OUTER_BOUND ( 'NONE', #23, .T. ) ;
#257 = ORIENTED_EDGE ( 'NONE', *, *, #147, .T. ) ;
#258 = SECURITY_CLASSIFICATION ( '', '', #157 ) ;
#259 = DIRECTION ( 'NONE',  ( 0.000000000000000000, 0.000000000000000000, 1.000000000000000000 ) ) ;
#260 = EDGE_CURVE ( 'NONE', #247, #41, #44, .T. ) ;
#261 = ORIENTED_EDGE ( 'NONE', *, *, #95, .T. ) ;
#262 = COORDINATED_UNIVERSAL_TIME_OFFSET ( 1, 0, .AHEAD. ) ;
#263 = VERTEX_POINT ( 'NONE', #238 ) ;
#264 = DATE_TIME_ROLE ( 'creation_date' ) ;
#265 = DIRECTION ( 'NONE',  ( -0.000000000000000000, -0.000000000000000000, -1.000000000000000000 ) ) ;
#266 = VECTOR ( 'NONE', #139, 1000.000000000000000 ) ;
#267 = CALENDAR_DATE ( 2022, 8, 7 ) ;
#268 = AXIS2_PLACEMENT_3D ( 'NONE', #379, #311, #369 ) ;
#269 = DIRECTION ( 'NONE',  ( 0.000000000000000000, 0.000000000000000000, 1.000000000000000000 ) ) ;
#270 = DIRECTION ( 'NONE',  ( 0.000000000000000000, 0.000000000000000000, 1.000000000000000000 ) ) ;
#271 = ORIENTED_EDGE ( 'NONE', *, *, #168, .T. ) ;
#272 = CIRCLE ( 'NONE', #222, 6.700000000000001066 ) ;
#273 = LINE ( 'NONE', #229, #189 ) ;
#274 = AXIS2_PLACEMENT_3D ( 'NONE', #276, #109, #115 ) ;
#275 = CARTESIAN_POINT ( 'NONE',  ( 0.000000000000000000, 0.000000000000000000, 7.000000000000000000 ) ) ;
#276 = CARTESIAN_POINT ( 'NONE',  ( 6.700000000000001066, 0.000000000000000000, 7.699999999999985079 ) ) ;
#277 = CARTESIAN_POINT ( 'NONE',  ( 0.000000000000000000, 0.000000000000000000, 0.000000000000000000 ) ) ;
#278 = DIRECTION ( 'NONE',  ( 0.000000000000000000, 0.000000000000000000, 1.000000000000000000 ) ) ;
#279 = EDGE_CURVE ( 'NONE', #219, #304, #138, .T. ) ;
#280 = AXIS2_PLACEMENT_3D ( 'NONE', #192, #245, #10 ) ;
#281 = DIRECTION ( 'NONE',  ( 0.000000000000000000, 0.000000000000000000, 1.000000000000000000 ) ) ;
#282 = DESIGN_CONTEXT ( 'detailed design', #146, 'design' ) ;
#283 = DIRECTION ( 'NONE',  ( -1.000000000000000000, 0.000000000000000000, 0.000000000000000000 ) ) ;
#284 = CARTESIAN_POINT ( 'NONE',  ( 10.00000000000000000, 1.224646799147353256E-15, 0.000000000000000000 ) ) ;
#285 = CARTESIAN_POINT ( 'NONE',  ( -6.000000000000000888, 0.000000000000000000, 7.699999999999985079 ) ) ;
#286 = ADVANCED_FACE ( 'NONE', ( #312, #117 ), #349, .T. ) ;
#287 = ORIENTED_EDGE ( 'NONE', *, *, #101, .T. ) ;
#288 = VECTOR ( 'NONE', #142, 1000.000000000000000 ) ;
#289 = AXIS2_PLACEMENT_3D ( 'NONE', #199, #308, #227 ) ;
#290 = DIRECTION ( 'NONE',  ( 0.000000000000000000, 0.000000000000000000, 1.000000000000000000 ) ) ;
#291 = ORIENTED_EDGE ( 'NONE', *, *, #168, .F. ) ;
#292 = CARTESIAN_POINT ( 'NONE',  ( 0.000000000000000000, 0.000000000000000000, 307.0000000000000000 ) ) ;
#293 = EDGE_LOOP ( 'NONE', ( #152, #194 ) ) ;
#294 = CIRCLE ( 'NONE', #268, 6.700000000000001066 ) ;
#295 = PERSON_AND_ORGANIZATION_ROLE ( 'design_supplier' ) ;
#296 = ORIENTED_EDGE ( 'NONE', *, *, #163, .T. ) ;
#297 = PERSON_AND_ORGANIZATION_ROLE ( 'creator' ) ;
#298 = CARTESIAN_POINT ( 'NONE',  ( -4.500000000000000000, 0.000000000000000000, 307.0000000000000000 ) ) ;
#299 = EDGE_CURVE ( 'NONE', #316, #2, #294, .T. ) ;
#300 = APPLICATION_PROTOCOL_DEFINITION ( 'international standard', 'config_control_design', 1994, #320 ) ;
#301 = LINE ( 'NONE', #36, #148 ) ;
#302 = PERSON_AND_ORGANIZATION ( #60, #3 ) ;
#303 = PRODUCT_RELATED_PRODUCT_CATEGORY ( 'detail', '', ( #81 ) ) ;
#304 = VERTEX_POINT ( 'NONE', #285 ) ;
#305 = VECTOR ( 'NONE', #70, 1000.000000000000000 ) ;
#306 = DIRECTION ( 'NONE',  ( 1.000000000000000000, 0.000000000000000000, 0.000000000000000000 ) ) ;
#307 = LINE ( 'NONE', #42, #288 ) ;
#308 = DIRECTION ( 'NONE',  ( -0.000000000000000000, -0.000000000000000000, -1.000000000000000000 ) ) ;
#309 = CIRCLE ( 'NONE', #110, 4.500000000000000000 ) ;
#310 = LINE ( 'NONE', #365, #266 ) ;
#311 = DIRECTION ( 'NONE',  ( -0.000000000000000000, -0.000000000000000000, -1.000000000000000000 ) ) ;
#312 = FACE_BOUND ( 'NONE', #360, .T. ) ;
#313 = ADVANCED_FACE ( 'NONE', ( #88 ), #234, .T. ) ;
#314 = ORIENTED_EDGE ( 'NONE', *, *, #108, .F. ) ;
#315 = PLANE ( 'NONE',  #363 ) ;
#316 = VERTEX_POINT ( 'NONE', #52 ) ;
#317 = APPROVAL_PERSON_ORGANIZATION ( #162, #113, #35 ) ;
#318 = CARTESIAN_POINT ( 'NONE',  ( -10.00000000000000000, 0.000000000000000000, 7.000000000000000000 ) ) ;
#319 = ADVANCED_FACE ( 'NONE', ( #125 ), #174, .F. ) ;
#320 = APPLICATION_CONTEXT ( 'configuration controlled 3d designs of mechanical parts and assemblies' ) ;
#321 = VERTEX_POINT ( 'NONE', #318 ) ;
#322 = PERSON_AND_ORGANIZATION ( #60, #3 ) ;
#323 = DIRECTION ( 'NONE',  ( 1.000000000000000000, 0.000000000000000000, -0.000000000000000000 ) ) ;
#324 = EDGE_LOOP ( 'NONE', ( #133, #287, #380, #352 ) ) ;
#325 = CIRCLE ( 'NONE', #107, 4.500000000000000000 ) ;
#326 = APPROVAL_DATE_TIME ( #6, #182 ) ;
#327 = ADVANCED_FACE ( 'NONE', ( #256 ), #205, .T. ) ;
#328 = LINE ( 'NONE', #68, #305 ) ;
#329 = ORIENTED_EDGE ( 'NONE', *, *, #260, .F. ) ;
#330 = PERSON_AND_ORGANIZATION ( #60, #3 ) ;
#331 = CARTESIAN_POINT ( 'NONE',  ( -10.00000000000000000, 0.000000000000000000, 0.000000000000000000 ) ) ;
#332 = AXIS2_PLACEMENT_3D ( 'NONE', #275, #269, #98 ) ;
#333 = CC_DESIGN_APPROVAL ( #368, ( #258 ) ) ;
#334 = DIRECTION ( 'NONE',  ( 1.000000000000000000, 0.000000000000000000, 0.000000000000000000 ) ) ;
#335 = ORIENTED_EDGE ( 'NONE', *, *, #260, .T. ) ;
#336 = FACE_OUTER_BOUND ( 'NONE', #293, .T. ) ;
#337 = AXIS2_PLACEMENT_3D ( 'NONE', #153, #345, #28 ) ;
#338 = PLANE ( 'NONE',  #99 ) ;
#339 = CARTESIAN_POINT ( 'NONE',  ( 0.000000000000000000, 0.000000000000000000, 7.699999999999985079 ) ) ;
#340 = CARTESIAN_POINT ( 'NONE',  ( 0.000000000000000000, 0.000000000000000000, 7.000000000000000000 ) ) ;
#341 = CIRCLE ( 'NONE', #85, 4.500000000000000000 ) ;
#342 = CARTESIAN_POINT ( 'NONE',  ( 0.000000000000000000, 0.000000000000000000, 307.0000000000000000 ) ) ;
#343 = DIRECTION ( 'NONE',  ( 1.000000000000000000, 0.000000000000000000, 0.000000000000000000 ) ) ;
#344 = ORIENTED_EDGE ( 'NONE', *, *, #24, .T. ) ;
#345 = DIRECTION ( 'NONE',  ( 0.000000000000000000, 0.000000000000000000, 1.000000000000000000 ) ) ;
#346 = CC_DESIGN_PERSON_AND_ORGANIZATION_ASSIGNMENT ( #63, #295, ( #215 ) ) ;
#347 = ORIENTED_EDGE ( 'NONE', *, *, #108, .T. ) ;
#348 = CIRCLE ( 'NONE', #354, 10.00000000000000000 ) ;
#349 = PLANE ( 'NONE',  #337 ) ;
#350 = EDGE_LOOP ( 'NONE', ( #246, #15, #347, #216 ) ) ;
#351 = DATE_AND_TIME ( #267, #93 ) ;
#352 = ORIENTED_EDGE ( 'NONE', *, *, #191, .F. ) ;
#353 = AXIS2_PLACEMENT_3D ( 'NONE', #340, #143, #170 ) ;
#354 = AXIS2_PLACEMENT_3D ( 'NONE', #114, #45, #361 ) ;
#355 = COORDINATED_UNIVERSAL_TIME_OFFSET ( 1, 0, .AHEAD. ) ;
#356 = CARTESIAN_POINT ( 'NONE',  ( -6.700000000000001066, 8.205133554287267548E-16, 6.999999999999992006 ) ) ;
#357 = DATE_AND_TIME ( #214, #57 ) ;
#358 = ORIENTED_EDGE ( 'NONE', *, *, #127, .T. ) ;
#359 = ORIENTED_EDGE ( 'NONE', *, *, #95, .F. ) ;
#360 = EDGE_LOOP ( 'NONE', ( #106, #11 ) ) ;
#361 = DIRECTION ( 'NONE',  ( 1.000000000000000000, 0.000000000000000000, 0.000000000000000000 ) ) ;
#362 = ADVANCED_FACE ( 'NONE', ( #210, #206 ), #315, .T. ) ;
#363 = AXIS2_PLACEMENT_3D ( 'NONE', #54, #119, #145 ) ;
#364 = DIRECTION ( 'NONE',  ( 1.000000000000000000, 0.000000000000000000, 0.000000000000000000 ) ) ;
#365 = CARTESIAN_POINT ( 'NONE',  ( 6.000000000000000888, 7.347880794884120722E-16, 307.0000000000000000 ) ) ;
#366 = CARTESIAN_POINT ( 'NONE',  ( 6.000000000000000888, 7.347880794884120722E-16, 7.699999999999985079 ) ) ;
#367 = CARTESIAN_POINT ( 'NONE',  ( 0.000000000000000000, 0.000000000000000000, 307.0000000000000000 ) ) ;
#368 = APPROVAL ( #126, 'NEURÈENÝ' ) ;
#369 = DIRECTION ( 'NONE',  ( 1.000000000000000000, 0.000000000000000000, 0.000000000000000000 ) ) ;
#370 = LOCAL_TIME ( 16, 26, 43.00000000000000000, #159 ) ;
#371 = DIRECTION ( 'NONE',  ( 0.000000000000000000, 0.000000000000000000, 1.000000000000000000 ) ) ;
#372 = ADVANCED_FACE ( 'NONE', ( #175 ), #59, .F. ) ;
#373 = DIRECTION ( 'NONE',  ( -0.000000000000000000, -0.000000000000000000, -1.000000000000000000 ) ) ;
#374 = VERTEX_POINT ( 'NONE', #25 ) ;
#375 =( NAMED_UNIT ( * ) PLANE_ANGLE_UNIT ( ) SI_UNIT ( $, .RADIAN. ) );
#376 = CIRCLE ( 'NONE', #12, 0.7000000000000000666 ) ;
#377 = EDGE_LOOP ( 'NONE', ( #176, #261 ) ) ;
#378 = AXIS2_PLACEMENT_3D ( 'NONE', #339, #231, #84 ) ;
#379 = CARTESIAN_POINT ( 'NONE',  ( 0.000000000000000000, 0.000000000000000000, 7.000000000000000000 ) ) ;
#380 = ORIENTED_EDGE ( 'NONE', *, *, #279, .T. ) ;
#381 = APPLICATION_PROTOCOL_DEFINITION ( 'international standard', 'config_control_design', 1994, #146 ) ;
ENDSEC;
END-ISO-10303-21;
