ISO-10303-21;
HEADER;
FILE_DESCRIPTION (( 'STEP AP203' ),
    '1' );
FILE_NAME ('9e2c.STEP',
    '2022-07-08T14:35:17',
    ( '' ),
    ( '' ),
    'SwSTEP 2.0',
    'SolidWorks 2019',
    '' );
FILE_SCHEMA (( 'CONFIG_CONTROL_DESIGN' ));
ENDSEC;

DATA;
#1 = CARTESIAN_POINT ( 'NONE',  ( -6.000000000000000888, 0.000000000000000000, 157.0000000000000000 ) ) ;
#2 = CC_DESIGN_APPROVAL ( #347, ( #30 ) ) ;
#3 = DIRECTION ( 'NONE',  ( 0.000000000000000000, 0.000000000000000000, 1.000000000000000000 ) ) ;
#4 = DIRECTION ( 'NONE',  ( -0.000000000000000000, -0.000000000000000000, -1.000000000000000000 ) ) ;
#5 = ORIENTED_EDGE ( 'NONE', *, *, #150, .F. ) ;
#6 = CC_DESIGN_DATE_AND_TIME_ASSIGNMENT ( #62, #268, ( #30 ) ) ;
#7 = CARTESIAN_POINT ( 'NONE',  ( 0.000000000000000000, 0.000000000000000000, 0.000000000000000000 ) ) ;
#8 = ORIENTED_EDGE ( 'NONE', *, *, #83, .F. ) ;
#9 = VECTOR ( 'NONE', #381, 1000.000000000000000 ) ;
#10 = DIRECTION ( 'NONE',  ( 0.000000000000000000, 0.000000000000000000, 1.000000000000000000 ) ) ;
#11 = CARTESIAN_POINT ( 'NONE',  ( 6.700000000000001066, 0.000000000000000000, 7.700000000000012612 ) ) ;
#12 = APPLICATION_PROTOCOL_DEFINITION ( 'international standard', 'config_control_design', 1994, #328 ) ;
#13 = EDGE_CURVE ( 'NONE', #121, #35, #253, .T. ) ;
#14 = ORIENTED_EDGE ( 'NONE', *, *, #285, .F. ) ;
#15 = AXIS2_PLACEMENT_3D ( 'NONE', #258, #341, #376 ) ;
#16 = ORIENTED_EDGE ( 'NONE', *, *, #322, .T. ) ;
#17 = LOCAL_TIME ( 16, 35, 17.00000000000000000, #69 ) ;
#18 = CARTESIAN_POINT ( 'NONE',  ( 0.000000000000000000, 0.000000000000000000, 157.0000000000000000 ) ) ;
#19 = FACE_BOUND ( 'NONE', #191, .T. ) ;
#20 = CARTESIAN_POINT ( 'NONE',  ( 0.000000000000000000, 0.000000000000000000, 157.0000000000000000 ) ) ;
#21 = VECTOR ( 'NONE', #44, 1000.000000000000000 ) ;
#22 = CARTESIAN_POINT ( 'NONE',  ( -6.000000000000000888, 0.000000000000000000, 7.700000000000012612 ) ) ;
#23 = APPROVAL_PERSON_ORGANIZATION ( #104, #219, #196 ) ;
#24 = DIRECTION ( 'NONE',  ( 0.000000000000000000, 0.000000000000000000, -1.000000000000000000 ) ) ;
#25 = CARTESIAN_POINT ( 'NONE',  ( 0.000000000000000000, 0.000000000000000000, 7.700000000000012612 ) ) ;
#26 = CIRCLE ( 'NONE', #238, 6.000000000000000888 ) ;
#27 = DIRECTION ( 'NONE',  ( 1.000000000000000000, 0.000000000000000000, 0.000000000000000000 ) ) ;
#28 = AXIS2_PLACEMENT_3D ( 'NONE', #111, #262, #94 ) ;
#29 = DIRECTION ( 'NONE',  ( 0.000000000000000000, 0.000000000000000000, 1.000000000000000000 ) ) ;
#30 = PRODUCT_DEFINITION ( 'NEZNÁMÝ', '', #312, #228 ) ;
#31 = DIRECTION ( 'NONE',  ( 1.000000000000000000, 0.000000000000000000, 0.000000000000000000 ) ) ;
#32 = AXIS2_PLACEMENT_3D ( 'NONE', #199, #349, #85 ) ;
#33 = DIRECTION ( 'NONE',  ( 0.000000000000000000, 0.000000000000000000, 1.000000000000000000 ) ) ;
#34 = APPROVAL_ROLE ( '' ) ;
#35 = VERTEX_POINT ( 'NONE', #140 ) ;
#36 = PERSON_AND_ORGANIZATION_ROLE ( 'creator' ) ;
#37 = ORIENTED_EDGE ( 'NONE', *, *, #71, .F. ) ;
#38 = DIRECTION ( 'NONE',  ( 1.000000000000000000, 0.000000000000000000, 0.000000000000000000 ) ) ;
#39 = ORIENTED_EDGE ( 'NONE', *, *, #224, .T. ) ;
#40 = CC_DESIGN_DATE_AND_TIME_ASSIGNMENT ( #282, #345, ( #192 ) ) ;
#41 = CARTESIAN_POINT ( 'NONE',  ( -6.700000000000001066, 8.205133554287267548E-16, 7.000000000000006217 ) ) ;
#42 = ORIENTED_EDGE ( 'NONE', *, *, #206, .T. ) ;
#43 = ORIENTED_EDGE ( 'NONE', *, *, #290, .F. ) ;
#44 = DIRECTION ( 'NONE',  ( -0.000000000000000000, -0.000000000000000000, -1.000000000000000000 ) ) ;
#45 = EDGE_CURVE ( 'NONE', #121, #160, #89, .T. ) ;
#46 = AXIS2_PLACEMENT_3D ( 'NONE', #213, #33, #144 ) ;
#47 = DIRECTION ( 'NONE',  ( 1.000000000000000000, 0.000000000000000000, 0.000000000000000000 ) ) ;
#48 = ADVANCED_FACE ( 'NONE', ( #108 ), #84, .F. ) ;
#49 = DIRECTION ( 'NONE',  ( -1.000000000000000000, 0.000000000000000000, 0.000000000000000000 ) ) ;
#50 = PERSON ( 'NEURÈENÝ', 'NEURÈENÝ', 'NEURÈENÝ', ('NEURÈENÝ'), ('NEURÈENÝ'), ('NEURÈENÝ') ) ;
#51 = DIRECTION ( 'NONE',  ( 1.000000000000000000, 0.000000000000000000, 0.000000000000000000 ) ) ;
#52 = PLANE ( 'NONE',  #249 ) ;
#53 = CIRCLE ( 'NONE', #28, 4.099999999999999645 ) ;
#54 = LINE ( 'NONE', #152, #318 ) ;
#55 = DIRECTION ( 'NONE',  ( -0.000000000000000000, -0.000000000000000000, -1.000000000000000000 ) ) ;
#56 = EDGE_CURVE ( 'NONE', #160, #378, #128, .T. ) ;
#57 = CARTESIAN_POINT ( 'NONE',  ( 0.000000000000000000, 0.000000000000000000, 157.0000000000000000 ) ) ;
#58 = TOROIDAL_SURFACE ( 'NONE', #46, 6.700000000000001066, 0.6999999999999999556 ) ;
#59 = CARTESIAN_POINT ( 'NONE',  ( 0.000000000000000000, 0.000000000000000000, 157.0000000000000000 ) ) ;
#60 = PLANE ( 'NONE',  #183 ) ;
#61 = ORIENTED_EDGE ( 'NONE', *, *, #13, .F. ) ;
#62 = DATE_AND_TIME ( #190, #313 ) ;
#63 = CC_DESIGN_PERSON_AND_ORGANIZATION_ASSIGNMENT ( #216, #333, ( #192 ) ) ;
#64 = ORIENTED_EDGE ( 'NONE', *, *, #138, .T. ) ;
#65 = LOCAL_TIME ( 16, 35, 17.00000000000000000, #308 ) ;
#66 = MANIFOLD_SOLID_BREP ( 'Odebrat vysunutím3', #350 ) ;
#67 = DATE_AND_TIME ( #331, #279 ) ;
#68 = VERTEX_POINT ( 'NONE', #257 ) ;
#69 = COORDINATED_UNIVERSAL_TIME_OFFSET ( 1, 0, .AHEAD. ) ;
#70 = EDGE_LOOP ( 'NONE', ( #297, #123, #271, #103 ) ) ;
#71 = EDGE_CURVE ( 'NONE', #96, #126, #311, .T. ) ;
#72 = ORIENTED_EDGE ( 'NONE', *, *, #93, .F. ) ;
#73 = ADVANCED_FACE ( 'NONE', ( #281 ), #77, .F. ) ;
#74 = AXIS2_PLACEMENT_3D ( 'NONE', #178, #115, #175 ) ;
#75 = DIRECTION ( 'NONE',  ( 1.000000000000000000, 0.000000000000000000, 0.000000000000000000 ) ) ;
#76 = ORIENTED_EDGE ( 'NONE', *, *, #352, .F. ) ;
#77 = CYLINDRICAL_SURFACE ( 'NONE', #151, 4.099999999999999645 ) ;
#78 = AXIS2_PLACEMENT_3D ( 'NONE', #251, #227, #47 ) ;
#79 = DIRECTION ( 'NONE',  ( 0.000000000000000000, 0.000000000000000000, -1.000000000000000000 ) ) ;
#80 = APPROVAL_DATE_TIME ( #340, #219 ) ;
#81 = AXIS2_PLACEMENT_3D ( 'NONE', #278, #317, #170 ) ;
#82 = DIRECTION ( 'NONE',  ( 0.000000000000000000, 0.000000000000000000, 1.000000000000000000 ) ) ;
#83 = EDGE_CURVE ( 'NONE', #68, #121, #314, .T. ) ;
#84 = CYLINDRICAL_SURFACE ( 'NONE', #284, 4.099999999999999645 ) ;
#85 = DIRECTION ( 'NONE',  ( 1.000000000000000000, 0.000000000000000000, 0.000000000000000000 ) ) ;
#86 = DIRECTION ( 'NONE',  ( -0.000000000000000000, -0.000000000000000000, -1.000000000000000000 ) ) ;
#87 = FACE_BOUND ( 'NONE', #245, .T. ) ;
#88 = DIRECTION ( 'NONE',  ( 0.000000000000000000, 0.000000000000000000, 1.000000000000000000 ) ) ;
#89 = CIRCLE ( 'NONE', #78, 6.000000000000000888 ) ;
#90 = CARTESIAN_POINT ( 'NONE',  ( 0.000000000000000000, 0.000000000000000000, 157.0000000000000000 ) ) ;
#91 = EDGE_LOOP ( 'NONE', ( #277, #306, #100, #61 ) ) ;
#92 = AXIS2_PLACEMENT_3D ( 'NONE', #193, #365, #187 ) ;
#93 = EDGE_CURVE ( 'NONE', #338, #68, #26, .T. ) ;
#94 = DIRECTION ( 'NONE',  ( 1.000000000000000000, 0.000000000000000000, 0.000000000000000000 ) ) ;
#95 = PERSON_AND_ORGANIZATION ( #50, #198 ) ;
#96 = VERTEX_POINT ( 'NONE', #171 ) ;
#97 = SECURITY_CLASSIFICATION_LEVEL ( 'unclassified' ) ;
#98 = ORIENTED_EDGE ( 'NONE', *, *, #45, .T. ) ;
#99 =( LENGTH_UNIT ( ) NAMED_UNIT ( * ) SI_UNIT ( .MILLI., .METRE. ) );
#100 = ORIENTED_EDGE ( 'NONE', *, *, #224, .F. ) ;
#101 = ORIENTED_EDGE ( 'NONE', *, *, #294, .T. ) ;
#102 = CC_DESIGN_SECURITY_CLASSIFICATION ( #192, ( #312 ) ) ;
#103 = ORIENTED_EDGE ( 'NONE', *, *, #358, .F. ) ;
#104 = PERSON_AND_ORGANIZATION ( #50, #198 ) ;
#105 = FACE_BOUND ( 'NONE', #305, .T. ) ;
#106 = DIRECTION ( 'NONE',  ( 0.000000000000000000, 0.000000000000000000, -1.000000000000000000 ) ) ;
#107 = DIRECTION ( 'NONE',  ( -1.000000000000000000, 0.000000000000000000, 0.000000000000000000 ) ) ;
#108 = FACE_OUTER_BOUND ( 'NONE', #155, .T. ) ;
#109 = FACE_OUTER_BOUND ( 'NONE', #70, .T. ) ;
#110 = EDGE_CURVE ( 'NONE', #160, #121, #202, .T. ) ;
#111 = CARTESIAN_POINT ( 'NONE',  ( 0.000000000000000000, 0.000000000000000000, 157.0000000000000000 ) ) ;
#112 = CIRCLE ( 'NONE', #124, 6.700000000000001066 ) ;
#113 = VERTEX_POINT ( 'NONE', #286 ) ;
#114 = ADVANCED_FACE ( 'NONE', ( #19, #230 ), #52, .F. ) ;
#115 = DIRECTION ( 'NONE',  ( 0.000000000000000000, 0.000000000000000000, 1.000000000000000000 ) ) ;
#116 = CARTESIAN_POINT ( 'NONE',  ( 0.000000000000000000, 0.000000000000000000, 7.000000000000000000 ) ) ;
#117 = DIRECTION ( 'NONE',  ( -0.000000000000000000, -0.000000000000000000, -1.000000000000000000 ) ) ;
#118 = AXIS2_PLACEMENT_3D ( 'NONE', #25, #208, #31 ) ;
#119 = APPLICATION_PROTOCOL_DEFINITION ( 'international standard', 'config_control_design', 1994, #316 ) ;
#120 = DIRECTION ( 'NONE',  ( 1.000000000000000000, 0.000000000000000000, 0.000000000000000000 ) ) ;
#121 = VERTEX_POINT ( 'NONE', #255 ) ;
#122 = EDGE_CURVE ( 'NONE', #269, #113, #179, .T. ) ;
#123 = ORIENTED_EDGE ( 'NONE', *, *, #45, .F. ) ;
#124 = AXIS2_PLACEMENT_3D ( 'NONE', #116, #235, #174 ) ;
#125 = CARTESIAN_POINT ( 'NONE',  ( 0.000000000000000000, 0.000000000000000000, 7.000000000000000000 ) ) ;
#126 = VERTEX_POINT ( 'NONE', #201 ) ;
#127 = ORIENTED_EDGE ( 'NONE', *, *, #186, .T. ) ;
#128 = CIRCLE ( 'NONE', #304, 0.7000000000000000666 ) ;
#129 = ORIENTED_EDGE ( 'NONE', *, *, #294, .F. ) ;
#130 = CC_DESIGN_PERSON_AND_ORGANIZATION_ASSIGNMENT ( #159, #162, ( #134 ) ) ;
#131 = SHAPE_DEFINITION_REPRESENTATION ( #380, #209 ) ;
#132 = LINE ( 'NONE', #346, #267 ) ;
#133 = PLANE ( 'NONE',  #81 ) ;
#134 = PRODUCT ( '9e2c', '9e2c', '', ( #327 ) ) ;
#135 = VECTOR ( 'NONE', #169, 1000.000000000000000 ) ;
#136 = CARTESIAN_POINT ( 'NONE',  ( 0.000000000000000000, 0.000000000000000000, 0.000000000000000000 ) ) ;
#137 = VECTOR ( 'NONE', #142, 1000.000000000000000 ) ;
#138 = EDGE_CURVE ( 'NONE', #338, #160, #132, .T. ) ;
#139 = DIRECTION ( 'NONE',  ( -1.000000000000000000, 0.000000000000000000, 0.000000000000000000 ) ) ;
#140 = CARTESIAN_POINT ( 'NONE',  ( 6.700000000000001066, 0.000000000000000000, 7.000000000000006217 ) ) ;
#141 = AXIS2_PLACEMENT_3D ( 'NONE', #11, #172, #79 ) ;
#142 = DIRECTION ( 'NONE',  ( 0.000000000000000000, 0.000000000000000000, -1.000000000000000000 ) ) ;
#143 = ORIENTED_EDGE ( 'NONE', *, *, #186, .F. ) ;
#144 = DIRECTION ( 'NONE',  ( 1.000000000000000000, 0.000000000000000000, 0.000000000000000000 ) ) ;
#145 = LOCAL_TIME ( 16, 35, 17.00000000000000000, #348 ) ;
#146 = AXIS2_PLACEMENT_3D ( 'NONE', #240, #239, #353 ) ;
#147 = ADVANCED_FACE ( 'NONE', ( #105, #204 ), #133, .T. ) ;
#148 = DIRECTION ( 'NONE',  ( -1.000000000000000000, 0.000000000000000000, 0.000000000000000000 ) ) ;
#149 = FACE_OUTER_BOUND ( 'NONE', #188, .T. ) ;
#150 = EDGE_CURVE ( 'NONE', #96, #218, #273, .T. ) ;
#151 = AXIS2_PLACEMENT_3D ( 'NONE', #20, #24, #139 ) ;
#152 = CARTESIAN_POINT ( 'NONE',  ( -10.00000000000000000, 0.000000000000000000, 7.000000000000000000 ) ) ;
#153 = ORIENTED_EDGE ( 'NONE', *, *, #110, .T. ) ;
#154 = COORDINATED_UNIVERSAL_TIME_OFFSET ( 1, 0, .AHEAD. ) ;
#155 = EDGE_LOOP ( 'NONE', ( #37, #212, #16, #369 ) ) ;
#156 = PERSON_AND_ORGANIZATION ( #50, #198 ) ;
#157 = ORIENTED_EDGE ( 'NONE', *, *, #138, .F. ) ;
#158 = CC_DESIGN_PERSON_AND_ORGANIZATION_ASSIGNMENT ( #156, #244, ( #312 ) ) ;
#159 = PERSON_AND_ORGANIZATION ( #50, #198 ) ;
#160 = VERTEX_POINT ( 'NONE', #22 ) ;
#161 = CIRCLE ( 'NONE', #74, 10.00000000000000000 ) ;
#162 = PERSON_AND_ORGANIZATION_ROLE ( 'design_owner' ) ;
#163 = ORIENTED_EDGE ( 'NONE', *, *, #362, .F. ) ;
#164 = PERSON_AND_ORGANIZATION ( #50, #198 ) ;
#165 = PRODUCT_RELATED_PRODUCT_CATEGORY ( 'detail', '', ( #134 ) ) ;
#166 = ORIENTED_EDGE ( 'NONE', *, *, #122, .T. ) ;
#167 = CARTESIAN_POINT ( 'NONE',  ( 6.000000000000000888, 7.347880794884120722E-16, 157.0000000000000000 ) ) ;
#168 = AXIS2_PLACEMENT_3D ( 'NONE', #57, #29, #291 ) ;
#169 = DIRECTION ( 'NONE',  ( 0.000000000000000000, 0.000000000000000000, -1.000000000000000000 ) ) ;
#170 = DIRECTION ( 'NONE',  ( 1.000000000000000000, 0.000000000000000000, -0.000000000000000000 ) ) ;
#171 = CARTESIAN_POINT ( 'NONE',  ( 4.099999999999999645, 5.021051876504147385E-16, 157.0000000000000000 ) ) ;
#172 = DIRECTION ( 'NONE',  ( 0.000000000000000000, -1.000000000000000000, 0.000000000000000000 ) ) ;
#173 = CYLINDRICAL_SURFACE ( 'NONE', #229, 6.000000000000000888 ) ;
#174 = DIRECTION ( 'NONE',  ( 1.000000000000000000, 0.000000000000000000, 0.000000000000000000 ) ) ;
#175 = DIRECTION ( 'NONE',  ( 1.000000000000000000, 0.000000000000000000, 0.000000000000000000 ) ) ;
#176 = AXIS2_PLACEMENT_3D ( 'NONE', #125, #4, #120 ) ;
#177 = LINE ( 'NONE', #295, #137 ) ;
#178 = CARTESIAN_POINT ( 'NONE',  ( 0.000000000000000000, 0.000000000000000000, 7.000000000000000000 ) ) ;
#179 = CIRCLE ( 'NONE', #15, 10.00000000000000000 ) ;
#180 = PERSON_AND_ORGANIZATION ( #50, #198 ) ;
#181 = ADVANCED_FACE ( 'NONE', ( #342 ), #252, .T. ) ;
#182 = ORIENTED_EDGE ( 'NONE', *, *, #242, .F. ) ;
#183 = AXIS2_PLACEMENT_3D ( 'NONE', #265, #88, #326 ) ;
#184 = APPROVAL_DATE_TIME ( #67, #368 ) ;
#185 = VERTEX_POINT ( 'NONE', #283 ) ;
#186 = EDGE_CURVE ( 'NONE', #218, #96, #53, .T. ) ;
#187 = DIRECTION ( 'NONE',  ( 1.000000000000000000, 0.000000000000000000, 0.000000000000000000 ) ) ;
#188 = EDGE_LOOP ( 'NONE', ( #14, #42, #367, #129 ) ) ;
#189 = ADVANCED_FACE ( 'NONE', ( #109 ), #374, .F. ) ;
#190 = CALENDAR_DATE ( 2022, 8, 7 ) ;
#191 = EDGE_LOOP ( 'NONE', ( #43, #163 ) ) ;
#192 = SECURITY_CLASSIFICATION ( '', '', #97 ) ;
#193 = CARTESIAN_POINT ( 'NONE',  ( 0.000000000000000000, 0.000000000000000000, 0.000000000000000000 ) ) ;
#194 = ORIENTED_EDGE ( 'NONE', *, *, #71, .T. ) ;
#195 = DIRECTION ( 'NONE',  ( 1.000000000000000000, 0.000000000000000000, 0.000000000000000000 ) ) ;
#196 = APPROVAL_ROLE ( '' ) ;
#197 = DIRECTION ( 'NONE',  ( 1.224646799147353207E-16, 1.000000000000000000, -0.000000000000000000 ) ) ;
#198 = ORGANIZATION ( 'NEURÈENÝ', 'NEURÈENÝ', '' ) ;
#199 = CARTESIAN_POINT ( 'NONE',  ( 0.000000000000000000, 0.000000000000000000, 7.700000000000012612 ) ) ;
#200 = AXIS2_PLACEMENT_3D ( 'NONE', #377, #355, #233 ) ;
#201 = CARTESIAN_POINT ( 'NONE',  ( 4.099999999999999645, 5.021051876504147385E-16, 0.000000000000000000 ) ) ;
#202 = CIRCLE ( 'NONE', #32, 6.000000000000000888 ) ;
#203 = APPROVAL_STATUS ( 'not_yet_approved' ) ;
#204 = FACE_OUTER_BOUND ( 'NONE', #221, .T. ) ;
#205 = CYLINDRICAL_SURFACE ( 'NONE', #146, 10.00000000000000000 ) ;
#206 = EDGE_CURVE ( 'NONE', #309, #113, #321, .T. ) ;
#207 = CARTESIAN_POINT ( 'NONE',  ( 0.000000000000000000, 0.000000000000000000, 0.000000000000000000 ) ) ;
#208 = DIRECTION ( 'NONE',  ( 0.000000000000000000, 0.000000000000000000, 1.000000000000000000 ) ) ;
#209 = ADVANCED_BREP_SHAPE_REPRESENTATION ( '9e2c', ( #66, #330 ), #241 ) ;
#210 = FACE_OUTER_BOUND ( 'NONE', #301, .T. ) ;
#211 = AXIS2_PLACEMENT_3D ( 'NONE', #207, #55, #27 ) ;
#212 = ORIENTED_EDGE ( 'NONE', *, *, #150, .T. ) ;
#213 = CARTESIAN_POINT ( 'NONE',  ( 0.000000000000000000, 0.000000000000000000, 7.700000000000012612 ) ) ;
#214 = ORIENTED_EDGE ( 'NONE', *, *, #93, .T. ) ;
#215 = AXIS2_PLACEMENT_3D ( 'NONE', #18, #370, #51 ) ;
#216 = PERSON_AND_ORGANIZATION ( #50, #198 ) ;
#217 = EDGE_LOOP ( 'NONE', ( #360, #76, #101, #166 ) ) ;
#218 = VERTEX_POINT ( 'NONE', #237 ) ;
#219 = APPROVAL ( #203, 'NEURÈENÝ' ) ;
#220 = APPROVAL_DATE_TIME ( #359, #347 ) ;
#221 = EDGE_LOOP ( 'NONE', ( #236, #332 ) ) ;
#222 = CC_DESIGN_APPROVAL ( #368, ( #312 ) ) ;
#223 = DIRECTION ( 'NONE',  ( 1.000000000000000000, 0.000000000000000000, -0.000000000000000000 ) ) ;
#224 = EDGE_CURVE ( 'NONE', #35, #378, #112, .T. ) ;
#225 = DIRECTION ( 'NONE',  ( 0.000000000000000000, 0.000000000000000000, 1.000000000000000000 ) ) ;
#226 = ADVANCED_FACE ( 'NONE', ( #149 ), #205, .T. ) ;
#227 = DIRECTION ( 'NONE',  ( 0.000000000000000000, 0.000000000000000000, 1.000000000000000000 ) ) ;
#228 = DESIGN_CONTEXT ( 'detailed design', #328, 'design' ) ;
#229 = AXIS2_PLACEMENT_3D ( 'NONE', #90, #117, #289 ) ;
#230 = FACE_OUTER_BOUND ( 'NONE', #366, .T. ) ;
#231 = DIRECTION ( 'NONE',  ( -1.000000000000000000, 1.224646799147353454E-16, 0.000000000000000000 ) ) ;
#232 = CC_DESIGN_PERSON_AND_ORGANIZATION_ASSIGNMENT ( #300, #36, ( #312 ) ) ;
#233 = DIRECTION ( 'NONE',  ( 1.000000000000000000, 0.000000000000000000, 0.000000000000000000 ) ) ;
#234 = CIRCLE ( 'NONE', #287, 10.00000000000000000 ) ;
#235 = DIRECTION ( 'NONE',  ( -0.000000000000000000, -0.000000000000000000, -1.000000000000000000 ) ) ;
#236 = ORIENTED_EDGE ( 'NONE', *, *, #352, .T. ) ;
#237 = CARTESIAN_POINT ( 'NONE',  ( -4.099999999999999645, 0.000000000000000000, 157.0000000000000000 ) ) ;
#238 = AXIS2_PLACEMENT_3D ( 'NONE', #315, #82, #195 ) ;
#239 = DIRECTION ( 'NONE',  ( -0.000000000000000000, -0.000000000000000000, -1.000000000000000000 ) ) ;
#240 = CARTESIAN_POINT ( 'NONE',  ( 0.000000000000000000, 0.000000000000000000, 7.000000000000000000 ) ) ;
#241 =( GEOMETRIC_REPRESENTATION_CONTEXT ( 3 ) GLOBAL_UNCERTAINTY_ASSIGNED_CONTEXT ( ( #372 ) ) GLOBAL_UNIT_ASSIGNED_CONTEXT ( ( #99, #270, #361 ) ) REPRESENTATION_CONTEXT ( 'NONE', 'WORKASPACE' ) );
#242 = EDGE_CURVE ( 'NONE', #113, #269, #364, .T. ) ;
#243 = ORIENTED_EDGE ( 'NONE', *, *, #358, .T. ) ;
#244 = PERSON_AND_ORGANIZATION_ROLE ( 'design_supplier' ) ;
#245 = EDGE_LOOP ( 'NONE', ( #143, #5 ) ) ;
#246 = CIRCLE ( 'NONE', #211, 4.099999999999999645 ) ;
#247 = ORIENTED_EDGE ( 'NONE', *, *, #322, .F. ) ;
#248 = EDGE_LOOP ( 'NONE', ( #336, #329, #98, #157 ) ) ;
#249 = AXIS2_PLACEMENT_3D ( 'NONE', #136, #225, #223 ) ;
#250 = ORIENTED_EDGE ( 'NONE', *, *, #122, .F. ) ;
#251 = CARTESIAN_POINT ( 'NONE',  ( 0.000000000000000000, 0.000000000000000000, 7.700000000000012612 ) ) ;
#252 = CYLINDRICAL_SURFACE ( 'NONE', #379, 10.00000000000000000 ) ;
#253 = CIRCLE ( 'NONE', #141, 0.7000000000000000666 ) ;
#254 = CALENDAR_DATE ( 2022, 8, 7 ) ;
#255 = CARTESIAN_POINT ( 'NONE',  ( 6.000000000000000888, 7.347880794884120722E-16, 7.700000000000012612 ) ) ;
#256 = CIRCLE ( 'NONE', #168, 6.000000000000000888 ) ;
#257 = CARTESIAN_POINT ( 'NONE',  ( 6.000000000000000888, 7.347880794884120722E-16, 157.0000000000000000 ) ) ;
#258 = CARTESIAN_POINT ( 'NONE',  ( 0.000000000000000000, 0.000000000000000000, 0.000000000000000000 ) ) ;
#259 = CARTESIAN_POINT ( 'NONE',  ( 0.000000000000000000, 0.000000000000000000, 7.000000000000000000 ) ) ;
#260 = CIRCLE ( 'NONE', #92, 4.099999999999999645 ) ;
#261 = CYLINDRICAL_SURFACE ( 'NONE', #344, 6.000000000000000888 ) ;
#262 = DIRECTION ( 'NONE',  ( 0.000000000000000000, 0.000000000000000000, 1.000000000000000000 ) ) ;
#263 = CARTESIAN_POINT ( 'NONE',  ( -4.099999999999999645, 0.000000000000000000, 0.000000000000000000 ) ) ;
#264 = ADVANCED_FACE ( 'NONE', ( #87, #210 ), #60, .T. ) ;
#265 = CARTESIAN_POINT ( 'NONE',  ( 0.000000000000000000, 0.000000000000000000, 157.0000000000000000 ) ) ;
#266 = CC_DESIGN_APPROVAL ( #219, ( #192 ) ) ;
#267 = VECTOR ( 'NONE', #310, 1000.000000000000000 ) ;
#268 = DATE_TIME_ROLE ( 'creation_date' ) ;
#269 = VERTEX_POINT ( 'NONE', #319 ) ;
#270 =( NAMED_UNIT ( * ) PLANE_ANGLE_UNIT ( ) SI_UNIT ( $, .RADIAN. ) );
#271 = ORIENTED_EDGE ( 'NONE', *, *, #13, .T. ) ;
#272 = EDGE_LOOP ( 'NONE', ( #8, #72, #64, #153 ) ) ;
#273 = CIRCLE ( 'NONE', #215, 4.099999999999999645 ) ;
#274 = CALENDAR_DATE ( 2022, 8, 7 ) ;
#275 = VERTEX_POINT ( 'NONE', #263 ) ;
#276 = CALENDAR_DATE ( 2022, 8, 7 ) ;
#277 = ORIENTED_EDGE ( 'NONE', *, *, #110, .F. ) ;
#278 = CARTESIAN_POINT ( 'NONE',  ( 0.000000000000000000, 0.000000000000000000, 7.000000000000000000 ) ) ;
#279 = LOCAL_TIME ( 16, 35, 17.00000000000000000, #154 ) ;
#280 = EDGE_CURVE ( 'NONE', #68, #338, #256, .T. ) ;
#281 = FACE_OUTER_BOUND ( 'NONE', #299, .T. ) ;
#282 = DATE_AND_TIME ( #276, #17 ) ;
#283 = CARTESIAN_POINT ( 'NONE',  ( -10.00000000000000000, 0.000000000000000000, 7.000000000000000000 ) ) ;
#284 = AXIS2_PLACEMENT_3D ( 'NONE', #288, #106, #107 ) ;
#285 = EDGE_CURVE ( 'NONE', #309, #185, #161, .T. ) ;
#286 = CARTESIAN_POINT ( 'NONE',  ( 10.00000000000000000, 1.224646799147353256E-15, 0.000000000000000000 ) ) ;
#287 = AXIS2_PLACEMENT_3D ( 'NONE', #259, #3, #75 ) ;
#288 = CARTESIAN_POINT ( 'NONE',  ( 0.000000000000000000, 0.000000000000000000, 157.0000000000000000 ) ) ;
#289 = DIRECTION ( 'NONE',  ( -1.000000000000000000, 0.000000000000000000, 0.000000000000000000 ) ) ;
#290 = EDGE_CURVE ( 'NONE', #275, #126, #246, .T. ) ;
#291 = DIRECTION ( 'NONE',  ( 1.000000000000000000, 0.000000000000000000, 0.000000000000000000 ) ) ;
#292 = ADVANCED_FACE ( 'NONE', ( #351 ), #58, .F. ) ;
#293 = DIRECTION ( 'NONE',  ( -0.000000000000000000, -0.000000000000000000, -1.000000000000000000 ) ) ;
#294 = EDGE_CURVE ( 'NONE', #185, #269, #54, .T. ) ;
#295 = CARTESIAN_POINT ( 'NONE',  ( -4.099999999999999645, 0.000000000000000000, 157.0000000000000000 ) ) ;
#296 = CC_DESIGN_PERSON_AND_ORGANIZATION_ASSIGNMENT ( #164, #337, ( #30 ) ) ;
#297 = ORIENTED_EDGE ( 'NONE', *, *, #56, .F. ) ;
#298 = APPROVAL_STATUS ( 'not_yet_approved' ) ;
#299 = EDGE_LOOP ( 'NONE', ( #127, #194, #363, #247 ) ) ;
#300 = PERSON_AND_ORGANIZATION ( #50, #198 ) ;
#301 = EDGE_LOOP ( 'NONE', ( #214, #334 ) ) ;
#302 = ADVANCED_FACE ( 'NONE', ( #354 ), #173, .T. ) ;
#303 = APPROVAL_ROLE ( '' ) ;
#304 = AXIS2_PLACEMENT_3D ( 'NONE', #373, #197, #231 ) ;
#305 = EDGE_LOOP ( 'NONE', ( #39, #243 ) ) ;
#306 = ORIENTED_EDGE ( 'NONE', *, *, #56, .T. ) ;
#307 = APPROVAL_PERSON_ORGANIZATION ( #180, #368, #34 ) ;
#308 = COORDINATED_UNIVERSAL_TIME_OFFSET ( 1, 0, .AHEAD. ) ;
#309 = VERTEX_POINT ( 'NONE', #325 ) ;
#310 = DIRECTION ( 'NONE',  ( -0.000000000000000000, -0.000000000000000000, -1.000000000000000000 ) ) ;
#311 = LINE ( 'NONE', #343, #135 ) ;
#312 = PRODUCT_DEFINITION_FORMATION_WITH_SPECIFIED_SOURCE ( 'LIBOVOLNÝ', '', #134, .NOT_KNOWN. ) ;
#313 = LOCAL_TIME ( 16, 35, 17.00000000000000000, #335 ) ;
#314 = LINE ( 'NONE', #167, #21 ) ;
#315 = CARTESIAN_POINT ( 'NONE',  ( 0.000000000000000000, 0.000000000000000000, 157.0000000000000000 ) ) ;
#316 = APPLICATION_CONTEXT ( 'configuration controlled 3d designs of mechanical parts and assemblies' ) ;
#317 = DIRECTION ( 'NONE',  ( 0.000000000000000000, 0.000000000000000000, 1.000000000000000000 ) ) ;
#318 = VECTOR ( 'NONE', #86, 1000.000000000000000 ) ;
#319 = CARTESIAN_POINT ( 'NONE',  ( -10.00000000000000000, 0.000000000000000000, 0.000000000000000000 ) ) ;
#320 = ADVANCED_FACE ( 'NONE', ( #356 ), #261, .T. ) ;
#321 = LINE ( 'NONE', #323, #9 ) ;
#322 = EDGE_CURVE ( 'NONE', #218, #275, #177, .T. ) ;
#323 = CARTESIAN_POINT ( 'NONE',  ( 10.00000000000000000, 1.224646799147353256E-15, 7.000000000000000000 ) ) ;
#324 = APPROVAL_PERSON_ORGANIZATION ( #95, #347, #303 ) ;
#325 = CARTESIAN_POINT ( 'NONE',  ( 10.00000000000000000, 1.224646799147353256E-15, 7.000000000000000000 ) ) ;
#326 = DIRECTION ( 'NONE',  ( 1.000000000000000000, 0.000000000000000000, -0.000000000000000000 ) ) ;
#327 = MECHANICAL_CONTEXT ( 'NONE', #316, 'mechanical' ) ;
#328 = APPLICATION_CONTEXT ( 'configuration controlled 3d designs of mechanical parts and assemblies' ) ;
#329 = ORIENTED_EDGE ( 'NONE', *, *, #83, .T. ) ;
#330 = AXIS2_PLACEMENT_3D ( 'NONE', #7, #10, #38 ) ;
#331 = CALENDAR_DATE ( 2022, 8, 7 ) ;
#332 = ORIENTED_EDGE ( 'NONE', *, *, #285, .T. ) ;
#333 = PERSON_AND_ORGANIZATION_ROLE ( 'classification_officer' ) ;
#334 = ORIENTED_EDGE ( 'NONE', *, *, #280, .T. ) ;
#335 = COORDINATED_UNIVERSAL_TIME_OFFSET ( 1, 0, .AHEAD. ) ;
#336 = ORIENTED_EDGE ( 'NONE', *, *, #280, .F. ) ;
#337 = PERSON_AND_ORGANIZATION_ROLE ( 'creator' ) ;
#338 = VERTEX_POINT ( 'NONE', #1 ) ;
#339 = CIRCLE ( 'NONE', #176, 6.700000000000001066 ) ;
#340 = DATE_AND_TIME ( #254, #145 ) ;
#341 = DIRECTION ( 'NONE',  ( 0.000000000000000000, 0.000000000000000000, 1.000000000000000000 ) ) ;
#342 = FACE_OUTER_BOUND ( 'NONE', #217, .T. ) ;
#343 = CARTESIAN_POINT ( 'NONE',  ( 4.099999999999999645, 5.021051876504147385E-16, 157.0000000000000000 ) ) ;
#344 = AXIS2_PLACEMENT_3D ( 'NONE', #59, #293, #148 ) ;
#345 = DATE_TIME_ROLE ( 'classification_date' ) ;
#346 = CARTESIAN_POINT ( 'NONE',  ( -6.000000000000000888, 0.000000000000000000, 157.0000000000000000 ) ) ;
#347 = APPROVAL ( #357, 'NEURÈENÝ' ) ;
#348 = COORDINATED_UNIVERSAL_TIME_OFFSET ( 1, 0, .AHEAD. ) ;
#349 = DIRECTION ( 'NONE',  ( 0.000000000000000000, 0.000000000000000000, 1.000000000000000000 ) ) ;
#350 = CLOSED_SHELL ( 'NONE', ( #73, #292, #320, #226, #181, #147, #114, #302, #264, #189, #48 ) ) ;
#351 = FACE_OUTER_BOUND ( 'NONE', #91, .T. ) ;
#352 = EDGE_CURVE ( 'NONE', #185, #309, #234, .T. ) ;
#353 = DIRECTION ( 'NONE',  ( -1.000000000000000000, 0.000000000000000000, 0.000000000000000000 ) ) ;
#354 = FACE_OUTER_BOUND ( 'NONE', #272, .T. ) ;
#355 = DIRECTION ( 'NONE',  ( 0.000000000000000000, 0.000000000000000000, 1.000000000000000000 ) ) ;
#356 = FACE_OUTER_BOUND ( 'NONE', #248, .T. ) ;
#357 = APPROVAL_STATUS ( 'not_yet_approved' ) ;
#358 = EDGE_CURVE ( 'NONE', #378, #35, #339, .T. ) ;
#359 = DATE_AND_TIME ( #274, #65 ) ;
#360 = ORIENTED_EDGE ( 'NONE', *, *, #206, .F. ) ;
#361 =( NAMED_UNIT ( * ) SI_UNIT ( $, .STERADIAN. ) SOLID_ANGLE_UNIT ( ) );
#362 = EDGE_CURVE ( 'NONE', #126, #275, #260, .T. ) ;
#363 = ORIENTED_EDGE ( 'NONE', *, *, #362, .T. ) ;
#364 = CIRCLE ( 'NONE', #200, 10.00000000000000000 ) ;
#365 = DIRECTION ( 'NONE',  ( -0.000000000000000000, -0.000000000000000000, -1.000000000000000000 ) ) ;
#366 = EDGE_LOOP ( 'NONE', ( #250, #182 ) ) ;
#367 = ORIENTED_EDGE ( 'NONE', *, *, #242, .T. ) ;
#368 = APPROVAL ( #298, 'NEURÈENÝ' ) ;
#369 = ORIENTED_EDGE ( 'NONE', *, *, #290, .T. ) ;
#370 = DIRECTION ( 'NONE',  ( 0.000000000000000000, 0.000000000000000000, 1.000000000000000000 ) ) ;
#371 = CARTESIAN_POINT ( 'NONE',  ( 0.000000000000000000, 0.000000000000000000, 7.000000000000000000 ) ) ;
#372 = UNCERTAINTY_MEASURE_WITH_UNIT (LENGTH_MEASURE( 1.000000000000000082E-05 ), #99, 'distance_accuracy_value', 'NONE');
#373 = CARTESIAN_POINT ( 'NONE',  ( -6.700000000000001066, 8.205133554287267548E-16, 7.700000000000012612 ) ) ;
#374 = TOROIDAL_SURFACE ( 'NONE', #118, 6.700000000000001066, 0.6999999999999999556 ) ;
#375 = DIRECTION ( 'NONE',  ( -0.000000000000000000, -0.000000000000000000, -1.000000000000000000 ) ) ;
#376 = DIRECTION ( 'NONE',  ( 1.000000000000000000, 0.000000000000000000, 0.000000000000000000 ) ) ;
#377 = CARTESIAN_POINT ( 'NONE',  ( 0.000000000000000000, 0.000000000000000000, 0.000000000000000000 ) ) ;
#378 = VERTEX_POINT ( 'NONE', #41 ) ;
#379 = AXIS2_PLACEMENT_3D ( 'NONE', #371, #375, #49 ) ;
#380 = PRODUCT_DEFINITION_SHAPE ( 'NONE', 'NONE',  #30 ) ;
#381 = DIRECTION ( 'NONE',  ( -0.000000000000000000, -0.000000000000000000, -1.000000000000000000 ) ) ;
ENDSEC;
END-ISO-10303-21;
