ISO-10303-21;
HEADER;
FILE_DESCRIPTION (( 'STEP AP203' ),
    '1' );
FILE_NAME ('f8eb.STEP',
    '2022-07-08T15:38:58',
    ( '' ),
    ( '' ),
    'SwSTEP 2.0',
    'SolidWorks 2019',
    '' );
FILE_SCHEMA (( 'CONFIG_CONTROL_DESIGN' ));
ENDSEC;

DATA;
#1 = EDGE_CURVE ( 'NONE', #255, #160, #70, .T. ) ;
#2 = EDGE_LOOP ( 'NONE', ( #375, #276, #169, #84 ) ) ;
#3 = CIRCLE ( 'NONE', #77, 3.000000000000000444 ) ;
#4 = CARTESIAN_POINT ( 'NONE',  ( 0.000000000000000000, 0.000000000000000000, 5.500000000000005329 ) ) ;
#5 = ORIENTED_EDGE ( 'NONE', *, *, #85, .T. ) ;
#6 = COORDINATED_UNIVERSAL_TIME_OFFSET ( 1, 0, .AHEAD. ) ;
#7 = EDGE_LOOP ( 'NONE', ( #56, #343 ) ) ;
#8 = AXIS2_PLACEMENT_3D ( 'NONE', #379, #285, #207 ) ;
#9 = LOCAL_TIME ( 17, 38, 58.00000000000000000, #60 ) ;
#10 = CARTESIAN_POINT ( 'NONE',  ( -3.500000000000000444, 4.286263797015737088E-16, 5.000000000000002665 ) ) ;
#11 = DIRECTION ( 'NONE',  ( 1.000000000000000000, 0.000000000000000000, 0.000000000000000000 ) ) ;
#12 = EDGE_CURVE ( 'NONE', #99, #160, #3, .T. ) ;
#13 = DIRECTION ( 'NONE',  ( 0.000000000000000000, 0.000000000000000000, 1.000000000000000000 ) ) ;
#14 = VECTOR ( 'NONE', #89, 1000.000000000000000 ) ;
#15 = CARTESIAN_POINT ( 'NONE',  ( -6.000000000000000888, 0.000000000000000000, 5.000000000000000000 ) ) ;
#16 = CIRCLE ( 'NONE', #250, 1.750000000000000000 ) ;
#17 = ORIENTED_EDGE ( 'NONE', *, *, #373, .F. ) ;
#18 = ADVANCED_FACE ( 'NONE', ( #189 ), #357, .F. ) ;
#19 = DIRECTION ( 'NONE',  ( -0.000000000000000000, -0.000000000000000000, -1.000000000000000000 ) ) ;
#20 = ORIENTED_EDGE ( 'NONE', *, *, #181, .T. ) ;
#21 = CARTESIAN_POINT ( 'NONE',  ( 0.000000000000000000, 0.000000000000000000, 0.000000000000000000 ) ) ;
#22 = FACE_OUTER_BOUND ( 'NONE', #101, .T. ) ;
#23 = VERTEX_POINT ( 'NONE', #212 ) ;
#24 = CARTESIAN_POINT ( 'NONE',  ( 6.000000000000000888, 7.347880794884120722E-16, 0.000000000000000000 ) ) ;
#25 = DIRECTION ( 'NONE',  ( 1.000000000000000000, 0.000000000000000000, 0.000000000000000000 ) ) ;
#26 = VECTOR ( 'NONE', #171, 1000.000000000000000 ) ;
#27 = APPLICATION_CONTEXT ( 'configuration controlled 3d designs of mechanical parts and assemblies' ) ;
#28 = CIRCLE ( 'NONE', #91, 1.750000000000000000 ) ;
#29 = APPROVAL ( #40, 'NEURÈENÝ' ) ;
#30 = ORIENTED_EDGE ( 'NONE', *, *, #142, .F. ) ;
#31 = SECURITY_CLASSIFICATION_LEVEL ( 'unclassified' ) ;
#32 = DIRECTION ( 'NONE',  ( 0.000000000000000000, 0.000000000000000000, -1.000000000000000000 ) ) ;
#33 = SHAPE_DEFINITION_REPRESENTATION ( #220, #206 ) ;
#34 = DIRECTION ( 'NONE',  ( -0.000000000000000000, -0.000000000000000000, -1.000000000000000000 ) ) ;
#35 = AXIS2_PLACEMENT_3D ( 'NONE', #180, #140, #290 ) ;
#36 = COORDINATED_UNIVERSAL_TIME_OFFSET ( 1, 0, .AHEAD. ) ;
#37 = CARTESIAN_POINT ( 'NONE',  ( 0.000000000000000000, 0.000000000000000000, 0.000000000000000000 ) ) ;
#38 = PERSON_AND_ORGANIZATION ( #52, #309 ) ;
#39 = ORIENTED_EDGE ( 'NONE', *, *, #228, .F. ) ;
#40 = APPROVAL_STATUS ( 'not_yet_approved' ) ;
#41 = VERTEX_POINT ( 'NONE', #10 ) ;
#42 = CC_DESIGN_DATE_AND_TIME_ASSIGNMENT ( #271, #97, ( #68 ) ) ;
#43 = DIRECTION ( 'NONE',  ( 0.000000000000000000, 0.000000000000000000, 1.000000000000000000 ) ) ;
#44 = VECTOR ( 'NONE', #218, 1000.000000000000000 ) ;
#45 = CARTESIAN_POINT ( 'NONE',  ( 0.000000000000000000, 0.000000000000000000, 205.0000000000000284 ) ) ;
#46 = DIRECTION ( 'NONE',  ( -1.000000000000000000, 0.000000000000000000, 0.000000000000000000 ) ) ;
#47 = ADVANCED_FACE ( 'NONE', ( #129 ), #66, .T. ) ;
#48 = ORIENTED_EDGE ( 'NONE', *, *, #85, .F. ) ;
#49 = AXIS2_PLACEMENT_3D ( 'NONE', #45, #192, #199 ) ;
#50 = DIRECTION ( 'NONE',  ( 1.000000000000000000, 0.000000000000000000, 0.000000000000000000 ) ) ;
#51 = ORIENTED_EDGE ( 'NONE', *, *, #150, .F. ) ;
#52 = PERSON ( 'NEURÈENÝ', 'NEURÈENÝ', 'NEURÈENÝ', ('NEURÈENÝ'), ('NEURÈENÝ'), ('NEURÈENÝ') ) ;
#53 = DIRECTION ( 'NONE',  ( 1.000000000000000000, 0.000000000000000000, 0.000000000000000000 ) ) ;
#54 = EDGE_LOOP ( 'NONE', ( #48, #174 ) ) ;
#55 = DIRECTION ( 'NONE',  ( 0.000000000000000000, 0.000000000000000000, 1.000000000000000000 ) ) ;
#56 = ORIENTED_EDGE ( 'NONE', *, *, #264, .F. ) ;
#57 = CARTESIAN_POINT ( 'NONE',  ( 0.000000000000000000, 0.000000000000000000, 0.000000000000000000 ) ) ;
#58 = CC_DESIGN_DATE_AND_TIME_ASSIGNMENT ( #329, #327, ( #138 ) ) ;
#59 = CIRCLE ( 'NONE', #263, 3.500000000000000444 ) ;
#60 = COORDINATED_UNIVERSAL_TIME_OFFSET ( 1, 0, .AHEAD. ) ;
#61 = EDGE_LOOP ( 'NONE', ( #267, #139 ) ) ;
#62 = PERSON_AND_ORGANIZATION_ROLE ( 'creator' ) ;
#63 = ADVANCED_FACE ( 'NONE', ( #127, #184 ), #244, .T. ) ;
#64 = DIRECTION ( 'NONE',  ( -1.000000000000000000, 0.000000000000000000, 0.000000000000000000 ) ) ;
#65 = PERSON_AND_ORGANIZATION ( #52, #309 ) ;
#66 = CYLINDRICAL_SURFACE ( 'NONE', #198, 3.000000000000000444 ) ;
#67 =( GEOMETRIC_REPRESENTATION_CONTEXT ( 3 ) GLOBAL_UNCERTAINTY_ASSIGNED_CONTEXT ( ( #121 ) ) GLOBAL_UNIT_ASSIGNED_CONTEXT ( ( #202, #353, #292 ) ) REPRESENTATION_CONTEXT ( 'NONE', 'WORKASPACE' ) );
#68 = SECURITY_CLASSIFICATION ( '', '', #31 ) ;
#69 = APPROVAL_DATE_TIME ( #300, #102 ) ;
#70 = LINE ( 'NONE', #124, #44 ) ;
#71 = PERSON_AND_ORGANIZATION_ROLE ( 'design_owner' ) ;
#72 = ORIENTED_EDGE ( 'NONE', *, *, #12, .F. ) ;
#73 = EDGE_CURVE ( 'NONE', #167, #23, #28, .T. ) ;
#74 = CARTESIAN_POINT ( 'NONE',  ( -6.000000000000000888, 0.000000000000000000, 5.000000000000000000 ) ) ;
#75 = APPROVAL_PERSON_ORGANIZATION ( #295, #102, #266 ) ;
#76 = DIRECTION ( 'NONE',  ( -1.000000000000000000, 0.000000000000000000, 0.000000000000000000 ) ) ;
#77 = AXIS2_PLACEMENT_3D ( 'NONE', #4, #238, #334 ) ;
#78 = CARTESIAN_POINT ( 'NONE',  ( 1.750000000000000000, 2.143131898507868297E-16, 205.0000000000000284 ) ) ;
#79 = CARTESIAN_POINT ( 'NONE',  ( 0.000000000000000000, 0.000000000000000000, 5.500000000000005329 ) ) ;
#80 = AXIS2_PLACEMENT_3D ( 'NONE', #235, #323, #378 ) ;
#81 = FACE_OUTER_BOUND ( 'NONE', #325, .T. ) ;
#82 = VERTEX_POINT ( 'NONE', #122 ) ;
#83 = CARTESIAN_POINT ( 'NONE',  ( 6.000000000000000888, 7.347880794884120722E-16, 5.000000000000000000 ) ) ;
#84 = ORIENTED_EDGE ( 'NONE', *, *, #268, .F. ) ;
#85 = EDGE_CURVE ( 'NONE', #23, #167, #16, .T. ) ;
#86 = CIRCLE ( 'NONE', #8, 6.000000000000000888 ) ;
#87 = TOROIDAL_SURFACE ( 'NONE', #299, 3.500000000000000444, 0.5000000000000000000 ) ;
#88 = ADVANCED_FACE ( 'NONE', ( #157 ), #272, .T. ) ;
#89 = DIRECTION ( 'NONE',  ( -0.000000000000000000, -0.000000000000000000, -1.000000000000000000 ) ) ;
#90 = PERSON_AND_ORGANIZATION ( #52, #309 ) ;
#91 = AXIS2_PLACEMENT_3D ( 'NONE', #298, #34, #153 ) ;
#92 = APPROVAL ( #297, 'NEURÈENÝ' ) ;
#93 = APPROVAL_DATE_TIME ( #123, #92 ) ;
#94 = ORIENTED_EDGE ( 'NONE', *, *, #360, .T. ) ;
#95 = CALENDAR_DATE ( 2022, 8, 7 ) ;
#96 = ORIENTED_EDGE ( 'NONE', *, *, #112, .F. ) ;
#97 = DATE_TIME_ROLE ( 'classification_date' ) ;
#98 = VECTOR ( 'NONE', #226, 1000.000000000000000 ) ;
#99 = VERTEX_POINT ( 'NONE', #252 ) ;
#100 = CIRCLE ( 'NONE', #318, 3.500000000000000444 ) ;
#101 = EDGE_LOOP ( 'NONE', ( #72, #229, #113, #51 ) ) ;
#102 = APPROVAL ( #216, 'NEURÈENÝ' ) ;
#103 = DIRECTION ( 'NONE',  ( -0.000000000000000000, -0.000000000000000000, -1.000000000000000000 ) ) ;
#104 = CARTESIAN_POINT ( 'NONE',  ( 0.000000000000000000, 0.000000000000000000, 5.000000000000000000 ) ) ;
#105 = CIRCLE ( 'NONE', #162, 3.000000000000000444 ) ;
#106 = DIRECTION ( 'NONE',  ( 0.000000000000000000, 0.000000000000000000, 1.000000000000000000 ) ) ;
#107 = ORIENTED_EDGE ( 'NONE', *, *, #228, .T. ) ;
#108 = CARTESIAN_POINT ( 'NONE',  ( 0.000000000000000000, 0.000000000000000000, 5.000000000000000000 ) ) ;
#109 = ORIENTED_EDGE ( 'NONE', *, *, #1, .F. ) ;
#110 = VECTOR ( 'NONE', #349, 1000.000000000000000 ) ;
#111 = LINE ( 'NONE', #234, #110 ) ;
#112 = EDGE_CURVE ( 'NONE', #233, #82, #342, .T. ) ;
#113 = ORIENTED_EDGE ( 'NONE', *, *, #158, .F. ) ;
#114 = CARTESIAN_POINT ( 'NONE',  ( 3.000000000000000444, 3.673940397442060361E-16, 205.0000000000000284 ) ) ;
#115 = AXIS2_PLACEMENT_3D ( 'NONE', #261, #321, #178 ) ;
#116 = EDGE_CURVE ( 'NONE', #99, #41, #369, .T. ) ;
#117 = DIRECTION ( 'NONE',  ( 0.000000000000000000, 0.000000000000000000, 1.000000000000000000 ) ) ;
#118 = FACE_OUTER_BOUND ( 'NONE', #308, .T. ) ;
#119 = ORIENTED_EDGE ( 'NONE', *, *, #73, .T. ) ;
#120 = CC_DESIGN_APPROVAL ( #29, ( #239 ) ) ;
#121 = UNCERTAINTY_MEASURE_WITH_UNIT (LENGTH_MEASURE( 1.000000000000000082E-05 ), #202, 'distance_accuracy_value', 'NONE');
#122 = CARTESIAN_POINT ( 'NONE',  ( -6.000000000000000888, 0.000000000000000000, 0.000000000000000000 ) ) ;
#123 = DATE_AND_TIME ( #95, #340 ) ;
#124 = CARTESIAN_POINT ( 'NONE',  ( 3.000000000000000444, 3.673940397442060361E-16, 205.0000000000000284 ) ) ;
#125 = PERSON_AND_ORGANIZATION ( #52, #309 ) ;
#126 = ADVANCED_FACE ( 'NONE', ( #370 ), #87, .F. ) ;
#127 = FACE_BOUND ( 'NONE', #7, .T. ) ;
#128 = AXIS2_PLACEMENT_3D ( 'NONE', #21, #43, #256 ) ;
#129 = FACE_OUTER_BOUND ( 'NONE', #374, .T. ) ;
#130 = DIRECTION ( 'NONE',  ( 0.000000000000000000, 0.000000000000000000, 1.000000000000000000 ) ) ;
#131 = EDGE_CURVE ( 'NONE', #336, #134, #331, .T. ) ;
#132 = CARTESIAN_POINT ( 'NONE',  ( 0.000000000000000000, 0.000000000000000000, 205.0000000000000284 ) ) ;
#133 = DIRECTION ( 'NONE',  ( -0.000000000000000000, -0.000000000000000000, -1.000000000000000000 ) ) ;
#134 = VERTEX_POINT ( 'NONE', #372 ) ;
#135 = DIRECTION ( 'NONE',  ( 0.000000000000000000, 0.000000000000000000, 1.000000000000000000 ) ) ;
#136 = EDGE_LOOP ( 'NONE', ( #313, #172, #119, #328 ) ) ;
#137 = DIRECTION ( 'NONE',  ( 0.000000000000000000, 0.000000000000000000, -1.000000000000000000 ) ) ;
#138 = PRODUCT_DEFINITION ( 'NEZNÁMÝ', '', #239, #293 ) ;
#139 = ORIENTED_EDGE ( 'NONE', *, *, #191, .T. ) ;
#140 = DIRECTION ( 'NONE',  ( 0.000000000000000000, 0.000000000000000000, 1.000000000000000000 ) ) ;
#141 = LINE ( 'NONE', #203, #14 ) ;
#142 = EDGE_CURVE ( 'NONE', #336, #167, #280, .T. ) ;
#143 = DIRECTION ( 'NONE',  ( 1.000000000000000000, 0.000000000000000000, 0.000000000000000000 ) ) ;
#144 = AXIS2_PLACEMENT_3D ( 'NONE', #193, #312, #46 ) ;
#145 = FACE_BOUND ( 'NONE', #54, .T. ) ;
#146 = CC_DESIGN_APPROVAL ( #102, ( #68 ) ) ;
#147 = PLANE ( 'NONE',  #179 ) ;
#148 = PERSON_AND_ORGANIZATION_ROLE ( 'classification_officer' ) ;
#149 = EDGE_LOOP ( 'NONE', ( #257, #39 ) ) ;
#150 = EDGE_CURVE ( 'NONE', #160, #286, #344, .T. ) ;
#151 = COORDINATED_UNIVERSAL_TIME_OFFSET ( 1, 0, .AHEAD. ) ;
#152 = CIRCLE ( 'NONE', #186, 1.750000000000000000 ) ;
#153 = DIRECTION ( 'NONE',  ( 1.000000000000000000, 0.000000000000000000, 0.000000000000000000 ) ) ;
#154 = LOCAL_TIME ( 17, 38, 58.00000000000000000, #324 ) ;
#155 = VECTOR ( 'NONE', #133, 1000.000000000000000 ) ;
#156 = CALENDAR_DATE ( 2022, 8, 7 ) ;
#157 = FACE_OUTER_BOUND ( 'NONE', #182, .T. ) ;
#158 = EDGE_CURVE ( 'NONE', #286, #41, #59, .T. ) ;
#159 = PERSON_AND_ORGANIZATION ( #52, #309 ) ;
#160 = VERTEX_POINT ( 'NONE', #230 ) ;
#161 = EDGE_LOOP ( 'NONE', ( #247, #274 ) ) ;
#162 = AXIS2_PLACEMENT_3D ( 'NONE', #190, #13, #166 ) ;
#163 = CARTESIAN_POINT ( 'NONE',  ( 0.000000000000000000, 0.000000000000000000, 205.0000000000000284 ) ) ;
#164 = PRODUCT ( 'f8eb', 'f8eb', '', ( #185 ) ) ;
#165 = DIRECTION ( 'NONE',  ( 1.000000000000000000, 0.000000000000000000, 0.000000000000000000 ) ) ;
#166 = DIRECTION ( 'NONE',  ( 1.000000000000000000, 0.000000000000000000, 0.000000000000000000 ) ) ;
#167 = VERTEX_POINT ( 'NONE', #345 ) ;
#168 = CARTESIAN_POINT ( 'NONE',  ( -1.750000000000000000, 0.000000000000000000, 205.0000000000000284 ) ) ;
#169 = ORIENTED_EDGE ( 'NONE', *, *, #150, .T. ) ;
#170 = ADVANCED_FACE ( 'NONE', ( #81 ), #337, .T. ) ;
#171 = DIRECTION ( 'NONE',  ( 0.000000000000000000, 0.000000000000000000, -1.000000000000000000 ) ) ;
#172 = ORIENTED_EDGE ( 'NONE', *, *, #142, .T. ) ;
#173 = DIRECTION ( 'NONE',  ( 0.000000000000000000, 0.000000000000000000, 1.000000000000000000 ) ) ;
#174 = ORIENTED_EDGE ( 'NONE', *, *, #73, .F. ) ;
#175 = ORIENTED_EDGE ( 'NONE', *, *, #373, .T. ) ;
#176 = MANIFOLD_SOLID_BREP ( 'Odebrat vysunutím3', #352 ) ;
#177 = DIRECTION ( 'NONE',  ( 1.000000000000000000, 0.000000000000000000, 0.000000000000000000 ) ) ;
#178 = DIRECTION ( 'NONE',  ( 1.000000000000000000, 0.000000000000000000, 0.000000000000000000 ) ) ;
#179 = AXIS2_PLACEMENT_3D ( 'NONE', #57, #173, #317 ) ;
#180 = CARTESIAN_POINT ( 'NONE',  ( 0.000000000000000000, 0.000000000000000000, 0.000000000000000000 ) ) ;
#181 = EDGE_CURVE ( 'NONE', #134, #23, #224, .T. ) ;
#182 = EDGE_LOOP ( 'NONE', ( #210, #364, #253, #241 ) ) ;
#183 = APPROVAL_ROLE ( '' ) ;
#184 = FACE_OUTER_BOUND ( 'NONE', #61, .T. ) ;
#185 = MECHANICAL_CONTEXT ( 'NONE', #27, 'mechanical' ) ;
#186 = AXIS2_PLACEMENT_3D ( 'NONE', #200, #55, #350 ) ;
#187 = DIRECTION ( 'NONE',  ( 1.000000000000000000, 0.000000000000000000, -0.000000000000000000 ) ) ;
#188 = APPLICATION_PROTOCOL_DEFINITION ( 'international standard', 'config_control_design', 1994, #219 ) ;
#189 = FACE_OUTER_BOUND ( 'NONE', #136, .T. ) ;
#190 = CARTESIAN_POINT ( 'NONE',  ( 0.000000000000000000, 0.000000000000000000, 205.0000000000000284 ) ) ;
#191 = EDGE_CURVE ( 'NONE', #255, #270, #380, .T. ) ;
#192 = DIRECTION ( 'NONE',  ( 0.000000000000000000, 0.000000000000000000, -1.000000000000000000 ) ) ;
#193 = CARTESIAN_POINT ( 'NONE',  ( 0.000000000000000000, 0.000000000000000000, 5.000000000000000000 ) ) ;
#194 = DIRECTION ( 'NONE',  ( 1.000000000000000000, 0.000000000000000000, 0.000000000000000000 ) ) ;
#195 = APPROVAL_PERSON_ORGANIZATION ( #38, #92, #209 ) ;
#196 = CC_DESIGN_PERSON_AND_ORGANIZATION_ASSIGNMENT ( #159, #358, ( #239 ) ) ;
#197 = ORIENTED_EDGE ( 'NONE', *, *, #112, .T. ) ;
#198 = AXIS2_PLACEMENT_3D ( 'NONE', #365, #301, #64 ) ;
#199 = DIRECTION ( 'NONE',  ( -1.000000000000000000, 0.000000000000000000, 0.000000000000000000 ) ) ;
#200 = CARTESIAN_POINT ( 'NONE',  ( 0.000000000000000000, 0.000000000000000000, 205.0000000000000284 ) ) ;
#201 = ORIENTED_EDGE ( 'NONE', *, *, #12, .T. ) ;
#202 =( LENGTH_UNIT ( ) NAMED_UNIT ( * ) SI_UNIT ( .MILLI., .METRE. ) );
#203 = CARTESIAN_POINT ( 'NONE',  ( 6.000000000000000888, 7.347880794884120722E-16, 5.000000000000000000 ) ) ;
#204 = CC_DESIGN_APPROVAL ( #92, ( #138 ) ) ;
#205 = AXIS2_PLACEMENT_3D ( 'NONE', #310, #222, #368 ) ;
#206 = ADVANCED_BREP_SHAPE_REPRESENTATION ( 'f8eb', ( #176, #115 ), #67 ) ;
#207 = DIRECTION ( 'NONE',  ( 1.000000000000000000, 0.000000000000000000, 0.000000000000000000 ) ) ;
#208 = ADVANCED_FACE ( 'NONE', ( #339, #282 ), #305, .T. ) ;
#209 = APPROVAL_ROLE ( '' ) ;
#210 = ORIENTED_EDGE ( 'NONE', *, *, #191, .F. ) ;
#211 = CALENDAR_DATE ( 2022, 8, 7 ) ;
#212 = CARTESIAN_POINT ( 'NONE',  ( -1.750000000000000000, 0.000000000000000000, 0.000000000000000000 ) ) ;
#213 = DATE_AND_TIME ( #211, #154 ) ;
#214 = CARTESIAN_POINT ( 'NONE',  ( 0.000000000000000000, 0.000000000000000000, 205.0000000000000284 ) ) ;
#215 = AXIS2_PLACEMENT_3D ( 'NONE', #307, #106, #53 ) ;
#216 = APPROVAL_STATUS ( 'not_yet_approved' ) ;
#217 = AXIS2_PLACEMENT_3D ( 'NONE', #341, #366, #137 ) ;
#218 = DIRECTION ( 'NONE',  ( -0.000000000000000000, -0.000000000000000000, -1.000000000000000000 ) ) ;
#219 = APPLICATION_CONTEXT ( 'configuration controlled 3d designs of mechanical parts and assemblies' ) ;
#220 = PRODUCT_DEFINITION_SHAPE ( 'NONE', 'NONE',  #138 ) ;
#221 = ORIENTED_EDGE ( 'NONE', *, *, #131, .T. ) ;
#222 = DIRECTION ( 'NONE',  ( 1.224646799147353207E-16, 1.000000000000000000, -0.000000000000000000 ) ) ;
#223 = ADVANCED_FACE ( 'NONE', ( #254 ), #284, .F. ) ;
#224 = LINE ( 'NONE', #168, #26 ) ;
#225 = LOCAL_TIME ( 17, 38, 58.00000000000000000, #6 ) ;
#226 = DIRECTION ( 'NONE',  ( 0.000000000000000000, 0.000000000000000000, -1.000000000000000000 ) ) ;
#227 = DIRECTION ( 'NONE',  ( 0.000000000000000000, 0.000000000000000000, 1.000000000000000000 ) ) ;
#228 = EDGE_CURVE ( 'NONE', #283, #82, #243, .T. ) ;
#229 = ORIENTED_EDGE ( 'NONE', *, *, #116, .T. ) ;
#230 = CARTESIAN_POINT ( 'NONE',  ( 3.000000000000000444, 3.673940397442060361E-16, 5.500000000000005329 ) ) ;
#231 = CIRCLE ( 'NONE', #279, 3.000000000000000444 ) ;
#232 = CYLINDRICAL_SURFACE ( 'NONE', #80, 6.000000000000000888 ) ;
#233 = VERTEX_POINT ( 'NONE', #74 ) ;
#234 = CARTESIAN_POINT ( 'NONE',  ( -3.000000000000000444, 0.000000000000000000, 205.0000000000000284 ) ) ;
#235 = CARTESIAN_POINT ( 'NONE',  ( 0.000000000000000000, 0.000000000000000000, 5.000000000000000000 ) ) ;
#236 = CARTESIAN_POINT ( 'NONE',  ( 0.000000000000000000, 0.000000000000000000, 5.500000000000005329 ) ) ;
#237 = EDGE_CURVE ( 'NONE', #270, #255, #105, .T. ) ;
#238 = DIRECTION ( 'NONE',  ( 0.000000000000000000, 0.000000000000000000, 1.000000000000000000 ) ) ;
#239 = PRODUCT_DEFINITION_FORMATION_WITH_SPECIFIED_SOURCE ( 'LIBOVOLNÝ', '', #164, .NOT_KNOWN. ) ;
#240 = DIRECTION ( 'NONE',  ( -0.000000000000000000, -0.000000000000000000, -1.000000000000000000 ) ) ;
#241 = ORIENTED_EDGE ( 'NONE', *, *, #360, .F. ) ;
#242 = APPROVAL_DATE_TIME ( #213, #29 ) ;
#243 = CIRCLE ( 'NONE', #128, 6.000000000000000888 ) ;
#244 = PLANE ( 'NONE',  #311 ) ;
#245 = CC_DESIGN_SECURITY_CLASSIFICATION ( #68, ( #239 ) ) ;
#246 = AXIS2_PLACEMENT_3D ( 'NONE', #303, #32, #330 ) ;
#247 = ORIENTED_EDGE ( 'NONE', *, *, #355, .T. ) ;
#248 = EDGE_CURVE ( 'NONE', #160, #99, #231, .T. ) ;
#249 = APPROVAL_PERSON_ORGANIZATION ( #125, #29, #183 ) ;
#250 = AXIS2_PLACEMENT_3D ( 'NONE', #37, #240, #359 ) ;
#251 = CC_DESIGN_PERSON_AND_ORGANIZATION_ASSIGNMENT ( #273, #62, ( #138 ) ) ;
#252 = CARTESIAN_POINT ( 'NONE',  ( -3.000000000000000444, 0.000000000000000000, 5.500000000000005329 ) ) ;
#253 = ORIENTED_EDGE ( 'NONE', *, *, #248, .T. ) ;
#254 = FACE_OUTER_BOUND ( 'NONE', #361, .T. ) ;
#255 = VERTEX_POINT ( 'NONE', #114 ) ;
#256 = DIRECTION ( 'NONE',  ( 1.000000000000000000, 0.000000000000000000, 0.000000000000000000 ) ) ;
#257 = ORIENTED_EDGE ( 'NONE', *, *, #259, .F. ) ;
#258 = CARTESIAN_POINT ( 'NONE',  ( 0.000000000000000000, 0.000000000000000000, 5.000000000000000000 ) ) ;
#259 = EDGE_CURVE ( 'NONE', #82, #283, #269, .T. ) ;
#260 = ORIENTED_EDGE ( 'NONE', *, *, #259, .T. ) ;
#261 = CARTESIAN_POINT ( 'NONE',  ( 0.000000000000000000, 0.000000000000000000, 0.000000000000000000 ) ) ;
#262 = CARTESIAN_POINT ( 'NONE',  ( 3.500000000000000444, 0.000000000000000000, 5.000000000000002665 ) ) ;
#263 = AXIS2_PLACEMENT_3D ( 'NONE', #104, #19, #50 ) ;
#264 = EDGE_CURVE ( 'NONE', #134, #336, #152, .T. ) ;
#265 = FACE_OUTER_BOUND ( 'NONE', #149, .T. ) ;
#266 = APPROVAL_ROLE ( '' ) ;
#267 = ORIENTED_EDGE ( 'NONE', *, *, #237, .T. ) ;
#268 = EDGE_CURVE ( 'NONE', #41, #286, #100, .T. ) ;
#269 = CIRCLE ( 'NONE', #35, 6.000000000000000888 ) ;
#270 = VERTEX_POINT ( 'NONE', #315 ) ;
#271 = DATE_AND_TIME ( #354, #9 ) ;
#272 = CYLINDRICAL_SURFACE ( 'NONE', #320, 3.000000000000000444 ) ;
#273 = PERSON_AND_ORGANIZATION ( #52, #309 ) ;
#274 = ORIENTED_EDGE ( 'NONE', *, *, #306, .T. ) ;
#275 = TOROIDAL_SURFACE ( 'NONE', #367, 3.500000000000000444, 0.5000000000000000000 ) ;
#276 = ORIENTED_EDGE ( 'NONE', *, *, #248, .F. ) ;
#277 = DIRECTION ( 'NONE',  ( 0.000000000000000000, 0.000000000000000000, 1.000000000000000000 ) ) ;
#278 = DIRECTION ( 'NONE',  ( 1.000000000000000000, 0.000000000000000000, -0.000000000000000000 ) ) ;
#279 = AXIS2_PLACEMENT_3D ( 'NONE', #304, #277, #11 ) ;
#280 = LINE ( 'NONE', #78, #98 ) ;
#281 = VERTEX_POINT ( 'NONE', #83 ) ;
#282 = FACE_OUTER_BOUND ( 'NONE', #161, .T. ) ;
#283 = VERTEX_POINT ( 'NONE', #24 ) ;
#284 = CYLINDRICAL_SURFACE ( 'NONE', #49, 1.750000000000000000 ) ;
#285 = DIRECTION ( 'NONE',  ( 0.000000000000000000, 0.000000000000000000, 1.000000000000000000 ) ) ;
#286 = VERTEX_POINT ( 'NONE', #262 ) ;
#287 = ORIENTED_EDGE ( 'NONE', *, *, #306, .F. ) ;
#288 = CARTESIAN_POINT ( 'NONE',  ( 0.000000000000000000, 0.000000000000000000, 5.000000000000000000 ) ) ;
#289 = ADVANCED_FACE ( 'NONE', ( #145, #265 ), #147, .F. ) ;
#290 = DIRECTION ( 'NONE',  ( 1.000000000000000000, 0.000000000000000000, 0.000000000000000000 ) ) ;
#291 = AXIS2_PLACEMENT_3D ( 'NONE', #108, #135, #278 ) ;
#292 =( NAMED_UNIT ( * ) SI_UNIT ( $, .STERADIAN. ) SOLID_ANGLE_UNIT ( ) );
#293 = DESIGN_CONTEXT ( 'detailed design', #219, 'design' ) ;
#294 = ORIENTED_EDGE ( 'NONE', *, *, #355, .F. ) ;
#295 = PERSON_AND_ORGANIZATION ( #52, #309 ) ;
#296 = DIRECTION ( 'NONE',  ( 0.000000000000000000, 0.000000000000000000, 1.000000000000000000 ) ) ;
#297 = APPROVAL_STATUS ( 'not_yet_approved' ) ;
#298 = CARTESIAN_POINT ( 'NONE',  ( 0.000000000000000000, 0.000000000000000000, 0.000000000000000000 ) ) ;
#299 = AXIS2_PLACEMENT_3D ( 'NONE', #79, #130, #165 ) ;
#300 = DATE_AND_TIME ( #363, #319 ) ;
#301 = DIRECTION ( 'NONE',  ( -0.000000000000000000, -0.000000000000000000, -1.000000000000000000 ) ) ;
#302 = CC_DESIGN_PERSON_AND_ORGANIZATION_ASSIGNMENT ( #65, #148, ( #68 ) ) ;
#303 = CARTESIAN_POINT ( 'NONE',  ( 0.000000000000000000, 0.000000000000000000, 205.0000000000000284 ) ) ;
#304 = CARTESIAN_POINT ( 'NONE',  ( 0.000000000000000000, 0.000000000000000000, 5.500000000000005329 ) ) ;
#305 = PLANE ( 'NONE',  #291 ) ;
#306 = EDGE_CURVE ( 'NONE', #281, #233, #86, .T. ) ;
#307 = CARTESIAN_POINT ( 'NONE',  ( 0.000000000000000000, 0.000000000000000000, 205.0000000000000284 ) ) ;
#308 = EDGE_LOOP ( 'NONE', ( #17, #294, #197, #260 ) ) ;
#309 = ORGANIZATION ( 'NEURÈENÝ', 'NEURÈENÝ', '' ) ;
#310 = CARTESIAN_POINT ( 'NONE',  ( -3.500000000000000444, 4.286263797015737088E-16, 5.500000000000005329 ) ) ;
#311 = AXIS2_PLACEMENT_3D ( 'NONE', #214, #296, #187 ) ;
#312 = DIRECTION ( 'NONE',  ( -0.000000000000000000, -0.000000000000000000, -1.000000000000000000 ) ) ;
#313 = ORIENTED_EDGE ( 'NONE', *, *, #264, .T. ) ;
#314 = ADVANCED_FACE ( 'NONE', ( #118 ), #232, .T. ) ;
#315 = CARTESIAN_POINT ( 'NONE',  ( -3.000000000000000444, 0.000000000000000000, 205.0000000000000284 ) ) ;
#316 = ORIENTED_EDGE ( 'NONE', *, *, #237, .F. ) ;
#317 = DIRECTION ( 'NONE',  ( 1.000000000000000000, 0.000000000000000000, -0.000000000000000000 ) ) ;
#318 = AXIS2_PLACEMENT_3D ( 'NONE', #288, #322, #25 ) ;
#319 = LOCAL_TIME ( 17, 38, 58.00000000000000000, #151 ) ;
#320 = AXIS2_PLACEMENT_3D ( 'NONE', #132, #103, #76 ) ;
#321 = DIRECTION ( 'NONE',  ( 0.000000000000000000, 0.000000000000000000, 1.000000000000000000 ) ) ;
#322 = DIRECTION ( 'NONE',  ( -0.000000000000000000, -0.000000000000000000, -1.000000000000000000 ) ) ;
#323 = DIRECTION ( 'NONE',  ( -0.000000000000000000, -0.000000000000000000, -1.000000000000000000 ) ) ;
#324 = COORDINATED_UNIVERSAL_TIME_OFFSET ( 1, 0, .AHEAD. ) ;
#325 = EDGE_LOOP ( 'NONE', ( #287, #175, #107, #96 ) ) ;
#326 = CC_DESIGN_PERSON_AND_ORGANIZATION_ASSIGNMENT ( #90, #356, ( #239 ) ) ;
#327 = DATE_TIME_ROLE ( 'creation_date' ) ;
#328 = ORIENTED_EDGE ( 'NONE', *, *, #181, .F. ) ;
#329 = DATE_AND_TIME ( #156, #225 ) ;
#330 = DIRECTION ( 'NONE',  ( -1.000000000000000000, 0.000000000000000000, 0.000000000000000000 ) ) ;
#331 = CIRCLE ( 'NONE', #215, 1.750000000000000000 ) ;
#332 = AXIS2_PLACEMENT_3D ( 'NONE', #258, #117, #143 ) ;
#333 = PERSON_AND_ORGANIZATION ( #52, #309 ) ;
#334 = DIRECTION ( 'NONE',  ( 1.000000000000000000, 0.000000000000000000, 0.000000000000000000 ) ) ;
#335 = CC_DESIGN_PERSON_AND_ORGANIZATION_ASSIGNMENT ( #333, #71, ( #164 ) ) ;
#336 = VERTEX_POINT ( 'NONE', #381 ) ;
#337 = CYLINDRICAL_SURFACE ( 'NONE', #144, 6.000000000000000888 ) ;
#338 = ADVANCED_FACE ( 'NONE', ( #22 ), #275, .F. ) ;
#339 = FACE_BOUND ( 'NONE', #348, .T. ) ;
#340 = LOCAL_TIME ( 17, 38, 58.00000000000000000, #36 ) ;
#341 = CARTESIAN_POINT ( 'NONE',  ( 3.500000000000000444, 0.000000000000000000, 5.500000000000005329 ) ) ;
#342 = LINE ( 'NONE', #15, #155 ) ;
#343 = ORIENTED_EDGE ( 'NONE', *, *, #131, .F. ) ;
#344 = CIRCLE ( 'NONE', #217, 0.5000000000000004441 ) ;
#345 = CARTESIAN_POINT ( 'NONE',  ( 1.750000000000000000, 2.143131898507868297E-16, 0.000000000000000000 ) ) ;
#346 = PRODUCT_RELATED_PRODUCT_CATEGORY ( 'detail', '', ( #164 ) ) ;
#347 = APPLICATION_PROTOCOL_DEFINITION ( 'international standard', 'config_control_design', 1994, #27 ) ;
#348 = EDGE_LOOP ( 'NONE', ( #371, #377 ) ) ;
#349 = DIRECTION ( 'NONE',  ( -0.000000000000000000, -0.000000000000000000, -1.000000000000000000 ) ) ;
#350 = DIRECTION ( 'NONE',  ( 1.000000000000000000, 0.000000000000000000, 0.000000000000000000 ) ) ;
#351 = AXIS2_PLACEMENT_3D ( 'NONE', #163, #227, #194 ) ;
#352 = CLOSED_SHELL ( 'NONE', ( #18, #338, #88, #170, #314, #208, #289, #47, #63, #126, #223 ) ) ;
#353 =( NAMED_UNIT ( * ) PLANE_ANGLE_UNIT ( ) SI_UNIT ( $, .RADIAN. ) );
#354 = CALENDAR_DATE ( 2022, 8, 7 ) ;
#355 = EDGE_CURVE ( 'NONE', #233, #281, #362, .T. ) ;
#356 = PERSON_AND_ORGANIZATION_ROLE ( 'design_supplier' ) ;
#357 = CYLINDRICAL_SURFACE ( 'NONE', #246, 1.750000000000000000 ) ;
#358 = PERSON_AND_ORGANIZATION_ROLE ( 'creator' ) ;
#359 = DIRECTION ( 'NONE',  ( 1.000000000000000000, 0.000000000000000000, 0.000000000000000000 ) ) ;
#360 = EDGE_CURVE ( 'NONE', #270, #99, #111, .T. ) ;
#361 = EDGE_LOOP ( 'NONE', ( #30, #221, #20, #5 ) ) ;
#362 = CIRCLE ( 'NONE', #332, 6.000000000000000888 ) ;
#363 = CALENDAR_DATE ( 2022, 8, 7 ) ;
#364 = ORIENTED_EDGE ( 'NONE', *, *, #1, .T. ) ;
#365 = CARTESIAN_POINT ( 'NONE',  ( 0.000000000000000000, 0.000000000000000000, 205.0000000000000284 ) ) ;
#366 = DIRECTION ( 'NONE',  ( 0.000000000000000000, -1.000000000000000000, 0.000000000000000000 ) ) ;
#367 = AXIS2_PLACEMENT_3D ( 'NONE', #236, #376, #177 ) ;
#368 = DIRECTION ( 'NONE',  ( -1.000000000000000000, 1.224646799147354440E-16, 0.000000000000000000 ) ) ;
#369 = CIRCLE ( 'NONE', #205, 0.4999999999999995559 ) ;
#370 = FACE_OUTER_BOUND ( 'NONE', #2, .T. ) ;
#371 = ORIENTED_EDGE ( 'NONE', *, *, #158, .T. ) ;
#372 = CARTESIAN_POINT ( 'NONE',  ( -1.750000000000000000, 0.000000000000000000, 205.0000000000000284 ) ) ;
#373 = EDGE_CURVE ( 'NONE', #281, #283, #141, .T. ) ;
#374 = EDGE_LOOP ( 'NONE', ( #109, #316, #94, #201 ) ) ;
#375 = ORIENTED_EDGE ( 'NONE', *, *, #116, .F. ) ;
#376 = DIRECTION ( 'NONE',  ( 0.000000000000000000, 0.000000000000000000, 1.000000000000000000 ) ) ;
#377 = ORIENTED_EDGE ( 'NONE', *, *, #268, .T. ) ;
#378 = DIRECTION ( 'NONE',  ( -1.000000000000000000, 0.000000000000000000, 0.000000000000000000 ) ) ;
#379 = CARTESIAN_POINT ( 'NONE',  ( 0.000000000000000000, 0.000000000000000000, 5.000000000000000000 ) ) ;
#380 = CIRCLE ( 'NONE', #351, 3.000000000000000444 ) ;
#381 = CARTESIAN_POINT ( 'NONE',  ( 1.750000000000000000, 2.143131898507868297E-16, 205.0000000000000284 ) ) ;
ENDSEC;
END-ISO-10303-21;
