ISO-10303-21;
HEADER;
FILE_DESCRIPTION (( 'STEP AP203' ),
    '1' );
FILE_NAME ('5772.STEP',
    '2022-07-08T14:42:59',
    ( '' ),
    ( '' ),
    'SwSTEP 2.0',
    'SolidWorks 2019',
    '' );
FILE_SCHEMA (( 'CONFIG_CONTROL_DESIGN' ));
ENDSEC;

DATA;
#1 = DIRECTION ( 'NONE',  ( -1.000000000000000000, 0.000000000000000000, 0.000000000000000000 ) ) ;
#2 = EDGE_CURVE ( 'NONE', #165, #110, #289, .T. ) ;
#3 = PERSON_AND_ORGANIZATION ( #153, #286 ) ;
#4 = APPROVAL_PERSON_ORGANIZATION ( #81, #20, #160 ) ;
#5 = DIRECTION ( 'NONE',  ( 1.000000000000000000, 0.000000000000000000, 0.000000000000000000 ) ) ;
#6 = CARTESIAN_POINT ( 'NONE',  ( 0.000000000000000000, 0.000000000000000000, 0.000000000000000000 ) ) ;
#7 = DIRECTION ( 'NONE',  ( 0.000000000000000000, 0.000000000000000000, 1.000000000000000000 ) ) ;
#8 = CARTESIAN_POINT ( 'NONE',  ( 10.00000000000000000, 1.224646799147353256E-15, 7.000000000000000000 ) ) ;
#9 = CC_DESIGN_SECURITY_CLASSIFICATION ( #63, ( #101 ) ) ;
#10 = DIRECTION ( 'NONE',  ( 1.000000000000000000, 0.000000000000000000, 0.000000000000000000 ) ) ;
#11 = ORIENTED_EDGE ( 'NONE', *, *, #353, .T. ) ;
#12 = DIRECTION ( 'NONE',  ( 0.000000000000000000, 0.000000000000000000, 1.000000000000000000 ) ) ;
#13 = COORDINATED_UNIVERSAL_TIME_OFFSET ( 1, 0, .AHEAD. ) ;
#14 = ORIENTED_EDGE ( 'NONE', *, *, #361, .F. ) ;
#15 = AXIS2_PLACEMENT_3D ( 'NONE', #173, #169, #1 ) ;
#16 = CARTESIAN_POINT ( 'NONE',  ( -6.500000000000000888, 7.960204194457796463E-16, 7.500000000000007105 ) ) ;
#17 = VERTEX_POINT ( 'NONE', #187 ) ;
#18 = DIRECTION ( 'NONE',  ( -1.000000000000000000, 0.000000000000000000, 0.000000000000000000 ) ) ;
#19 = ORIENTED_EDGE ( 'NONE', *, *, #364, .F. ) ;
#20 = APPROVAL ( #79, 'NEURÈENÝ' ) ;
#21 = CARTESIAN_POINT ( 'NONE',  ( 0.000000000000000000, 0.000000000000000000, 0.000000000000000000 ) ) ;
#22 = AXIS2_PLACEMENT_3D ( 'NONE', #149, #239, #91 ) ;
#23 = CARTESIAN_POINT ( 'NONE',  ( 0.000000000000000000, 0.000000000000000000, 167.0000000000000000 ) ) ;
#24 = ORIENTED_EDGE ( 'NONE', *, *, #84, .F. ) ;
#25 = CARTESIAN_POINT ( 'NONE',  ( -3.250000000000000444, 0.000000000000000000, 167.0000000000000000 ) ) ;
#26 = ADVANCED_FACE ( 'NONE', ( #35, #67 ), #368, .T. ) ;
#27 = DIRECTION ( 'NONE',  ( 1.000000000000000000, 0.000000000000000000, 0.000000000000000000 ) ) ;
#28 = EDGE_LOOP ( 'NONE', ( #227, #255 ) ) ;
#29 = EDGE_CURVE ( 'NONE', #249, #223, #42, .T. ) ;
#30 = PERSON_AND_ORGANIZATION ( #153, #286 ) ;
#31 = DIRECTION ( 'NONE',  ( -1.000000000000000000, 0.000000000000000000, 0.000000000000000000 ) ) ;
#32 = LOCAL_TIME ( 16, 42, 59.00000000000000000, #76 ) ;
#33 = CARTESIAN_POINT ( 'NONE',  ( 6.500000000000000888, 0.000000000000000000, 7.000000000000002665 ) ) ;
#34 = VERTEX_POINT ( 'NONE', #218 ) ;
#35 = FACE_BOUND ( 'NONE', #97, .T. ) ;
#36 = VECTOR ( 'NONE', #195, 1000.000000000000000 ) ;
#37 = ORIENTED_EDGE ( 'NONE', *, *, #84, .T. ) ;
#38 = EDGE_CURVE ( 'NONE', #110, #198, #69, .T. ) ;
#39 = DIRECTION ( 'NONE',  ( 1.000000000000000000, 0.000000000000000000, 0.000000000000000000 ) ) ;
#40 = ORIENTED_EDGE ( 'NONE', *, *, #361, .T. ) ;
#41 = SECURITY_CLASSIFICATION_LEVEL ( 'unclassified' ) ;
#42 = CIRCLE ( 'NONE', #220, 3.250000000000000444 ) ;
#43 = DIRECTION ( 'NONE',  ( -1.000000000000000000, 1.224646799147351482E-16, 0.000000000000000000 ) ) ;
#44 = ORIENTED_EDGE ( 'NONE', *, *, #46, .T. ) ;
#45 = DIRECTION ( 'NONE',  ( 1.000000000000000000, 0.000000000000000000, -0.000000000000000000 ) ) ;
#46 = EDGE_CURVE ( 'NONE', #110, #165, #190, .T. ) ;
#47 = VERTEX_POINT ( 'NONE', #191 ) ;
#48 = CIRCLE ( 'NONE', #22, 10.00000000000000000 ) ;
#49 = LOCAL_TIME ( 16, 42, 59.00000000000000000, #122 ) ;
#50 = DIRECTION ( 'NONE',  ( -0.000000000000000000, -0.000000000000000000, -1.000000000000000000 ) ) ;
#51 = CC_DESIGN_DATE_AND_TIME_ASSIGNMENT ( #61, #238, ( #240 ) ) ;
#52 = DIRECTION ( 'NONE',  ( -0.000000000000000000, -0.000000000000000000, -1.000000000000000000 ) ) ;
#53 = EDGE_LOOP ( 'NONE', ( #44, #252 ) ) ;
#54 = AXIS2_PLACEMENT_3D ( 'NONE', #150, #7, #292 ) ;
#55 = DIRECTION ( 'NONE',  ( -0.000000000000000000, -0.000000000000000000, -1.000000000000000000 ) ) ;
#56 = ORIENTED_EDGE ( 'NONE', *, *, #234, .F. ) ;
#57 = FACE_OUTER_BOUND ( 'NONE', #104, .T. ) ;
#58 = EDGE_CURVE ( 'NONE', #198, #288, #330, .T. ) ;
#59 = APPROVAL_ROLE ( '' ) ;
#60 = PRODUCT ( '5772', '5772', '', ( #261 ) ) ;
#61 = DATE_AND_TIME ( #203, #266 ) ;
#62 = APPLICATION_PROTOCOL_DEFINITION ( 'international standard', 'config_control_design', 1994, #65 ) ;
#63 = SECURITY_CLASSIFICATION ( '', '', #41 ) ;
#64 = CARTESIAN_POINT ( 'NONE',  ( 6.000000000000000888, 7.347880794884120722E-16, 167.0000000000000000 ) ) ;
#65 = APPLICATION_CONTEXT ( 'configuration controlled 3d designs of mechanical parts and assemblies' ) ;
#66 = CLOSED_SHELL ( 'NONE', ( #313, #201, #221, #345, #297, #26, #135, #152, #231, #303, #268 ) ) ;
#67 = FACE_OUTER_BOUND ( 'NONE', #259, .T. ) ;
#68 = ORIENTED_EDGE ( 'NONE', *, *, #29, .F. ) ;
#69 = LINE ( 'NONE', #131, #270 ) ;
#70 = AXIS2_PLACEMENT_3D ( 'NONE', #23, #52, #324 ) ;
#71 = AXIS2_PLACEMENT_3D ( 'NONE', #21, #197, #329 ) ;
#72 = ORIENTED_EDGE ( 'NONE', *, *, #105, .F. ) ;
#73 = AXIS2_PLACEMENT_3D ( 'NONE', #314, #346, #272 ) ;
#74 = CARTESIAN_POINT ( 'NONE',  ( -10.00000000000000000, 0.000000000000000000, 0.000000000000000000 ) ) ;
#75 = ORIENTED_EDGE ( 'NONE', *, *, #105, .T. ) ;
#76 = COORDINATED_UNIVERSAL_TIME_OFFSET ( 1, 0, .AHEAD. ) ;
#77 = CARTESIAN_POINT ( 'NONE',  ( 3.250000000000000444, 3.980102097228897245E-16, 167.0000000000000000 ) ) ;
#78 = ORIENTED_EDGE ( 'NONE', *, *, #334, .T. ) ;
#79 = APPROVAL_STATUS ( 'not_yet_approved' ) ;
#80 = CARTESIAN_POINT ( 'NONE',  ( 0.000000000000000000, 0.000000000000000000, 7.500000000000007105 ) ) ;
#81 = PERSON_AND_ORGANIZATION ( #153, #286 ) ;
#82 = CARTESIAN_POINT ( 'NONE',  ( 6.000000000000000888, 7.347880794884120722E-16, 7.500000000000007105 ) ) ;
#83 = AXIS2_PLACEMENT_3D ( 'NONE', #161, #215, #339 ) ;
#84 = EDGE_CURVE ( 'NONE', #288, #162, #92, .T. ) ;
#85 = DIRECTION ( 'NONE',  ( 0.000000000000000000, 0.000000000000000000, 1.000000000000000000 ) ) ;
#86 = ORIENTED_EDGE ( 'NONE', *, *, #275, .T. ) ;
#87 = APPROVAL ( #337, 'NEURÈENÝ' ) ;
#88 = CARTESIAN_POINT ( 'NONE',  ( 0.000000000000000000, 0.000000000000000000, 7.000000000000000000 ) ) ;
#89 = PERSON_AND_ORGANIZATION_ROLE ( 'creator' ) ;
#90 = PERSON_AND_ORGANIZATION ( #153, #286 ) ;
#91 = DIRECTION ( 'NONE',  ( 1.000000000000000000, 0.000000000000000000, 0.000000000000000000 ) ) ;
#92 = CIRCLE ( 'NONE', #211, 6.500000000000000888 ) ;
#93 =( LENGTH_UNIT ( ) NAMED_UNIT ( * ) SI_UNIT ( .MILLI., .METRE. ) );
#94 =( GEOMETRIC_REPRESENTATION_CONTEXT ( 3 ) GLOBAL_UNCERTAINTY_ASSIGNED_CONTEXT ( ( #170 ) ) GLOBAL_UNIT_ASSIGNED_CONTEXT ( ( #93, #179, #362 ) ) REPRESENTATION_CONTEXT ( 'NONE', 'WORKASPACE' ) );
#95 = CYLINDRICAL_SURFACE ( 'NONE', #121, 6.000000000000000888 ) ;
#96 = FACE_BOUND ( 'NONE', #28, .T. ) ;
#97 = EDGE_LOOP ( 'NONE', ( #86, #37 ) ) ;
#98 = DIRECTION ( 'NONE',  ( 0.000000000000000000, 0.000000000000000000, 1.000000000000000000 ) ) ;
#99 = CARTESIAN_POINT ( 'NONE',  ( 0.000000000000000000, 0.000000000000000000, 167.0000000000000000 ) ) ;
#100 = VECTOR ( 'NONE', #193, 1000.000000000000000 ) ;
#101 = PRODUCT_DEFINITION_FORMATION_WITH_SPECIFIED_SOURCE ( 'LIBOVOLNÝ', '', #60, .NOT_KNOWN. ) ;
#102 = ORIENTED_EDGE ( 'NONE', *, *, #377, .F. ) ;
#103 = SHAPE_DEFINITION_REPRESENTATION ( #145, #159 ) ;
#104 = EDGE_LOOP ( 'NONE', ( #158, #276, #115, #137 ) ) ;
#105 = EDGE_CURVE ( 'NONE', #186, #198, #106, .T. ) ;
#106 = CIRCLE ( 'NONE', #73, 6.000000000000000888 ) ;
#107 = CYLINDRICAL_SURFACE ( 'NONE', #274, 10.00000000000000000 ) ;
#108 = ORIENTED_EDGE ( 'NONE', *, *, #2, .F. ) ;
#109 = DIRECTION ( 'NONE',  ( 0.000000000000000000, 0.000000000000000000, -1.000000000000000000 ) ) ;
#110 = VERTEX_POINT ( 'NONE', #365 ) ;
#111 = APPROVAL_PERSON_ORGANIZATION ( #90, #318, #59 ) ;
#112 = DIRECTION ( 'NONE',  ( 0.000000000000000000, 0.000000000000000000, 1.000000000000000000 ) ) ;
#113 = ORIENTED_EDGE ( 'NONE', *, *, #275, .F. ) ;
#114 = FACE_BOUND ( 'NONE', #273, .T. ) ;
#115 = ORIENTED_EDGE ( 'NONE', *, *, #323, .T. ) ;
#116 = AXIS2_PLACEMENT_3D ( 'NONE', #99, #183, #127 ) ;
#117 = CARTESIAN_POINT ( 'NONE',  ( 6.000000000000000888, 7.347880794884120722E-16, 167.0000000000000000 ) ) ;
#118 = CC_DESIGN_APPROVAL ( #20, ( #63 ) ) ;
#119 = PERSON_AND_ORGANIZATION_ROLE ( 'design_owner' ) ;
#120 = APPROVAL_STATUS ( 'not_yet_approved' ) ;
#121 = AXIS2_PLACEMENT_3D ( 'NONE', #129, #367, #208 ) ;
#122 = COORDINATED_UNIVERSAL_TIME_OFFSET ( 1, 0, .AHEAD. ) ;
#123 = CARTESIAN_POINT ( 'NONE',  ( 0.000000000000000000, 0.000000000000000000, 7.000000000000000000 ) ) ;
#124 = VECTOR ( 'NONE', #212, 1000.000000000000000 ) ;
#125 = TOROIDAL_SURFACE ( 'NONE', #176, 6.500000000000000888, 0.5000000000000000000 ) ;
#126 = CIRCLE ( 'NONE', #280, 6.000000000000000888 ) ;
#127 = DIRECTION ( 'NONE',  ( 1.000000000000000000, 0.000000000000000000, 0.000000000000000000 ) ) ;
#128 = ORIENTED_EDGE ( 'NONE', *, *, #263, .T. ) ;
#129 = CARTESIAN_POINT ( 'NONE',  ( 0.000000000000000000, 0.000000000000000000, 167.0000000000000000 ) ) ;
#130 = ORIENTED_EDGE ( 'NONE', *, *, #38, .T. ) ;
#131 = CARTESIAN_POINT ( 'NONE',  ( -6.000000000000000888, 0.000000000000000000, 167.0000000000000000 ) ) ;
#132 = VERTEX_POINT ( 'NONE', #74 ) ;
#133 = AXIS2_PLACEMENT_3D ( 'NONE', #281, #352, #27 ) ;
#134 = EDGE_LOOP ( 'NONE', ( #188, #102, #348, #11 ) ) ;
#135 = ADVANCED_FACE ( 'NONE', ( #96, #184 ), #277, .F. ) ;
#136 = PERSON_AND_ORGANIZATION_ROLE ( 'creator' ) ;
#137 = ORIENTED_EDGE ( 'NONE', *, *, #175, .F. ) ;
#138 = CALENDAR_DATE ( 2022, 8, 7 ) ;
#139 = LINE ( 'NONE', #117, #100 ) ;
#140 = ORIENTED_EDGE ( 'NONE', *, *, #369, .T. ) ;
#141 = DESIGN_CONTEXT ( 'detailed design', #271, 'design' ) ;
#142 = CYLINDRICAL_SURFACE ( 'NONE', #15, 3.250000000000000444 ) ;
#143 = FACE_OUTER_BOUND ( 'NONE', #302, .T. ) ;
#144 = VERTEX_POINT ( 'NONE', #164 ) ;
#145 = PRODUCT_DEFINITION_SHAPE ( 'NONE', 'NONE',  #240 ) ;
#146 = DIRECTION ( 'NONE',  ( 0.000000000000000000, 0.000000000000000000, 1.000000000000000000 ) ) ;
#147 = CARTESIAN_POINT ( 'NONE',  ( -10.00000000000000000, 0.000000000000000000, 7.000000000000000000 ) ) ;
#148 = DIRECTION ( 'NONE',  ( 0.000000000000000000, 0.000000000000000000, 1.000000000000000000 ) ) ;
#149 = CARTESIAN_POINT ( 'NONE',  ( 0.000000000000000000, 0.000000000000000000, 7.000000000000000000 ) ) ;
#150 = CARTESIAN_POINT ( 'NONE',  ( 0.000000000000000000, 0.000000000000000000, 0.000000000000000000 ) ) ;
#151 = PERSON_AND_ORGANIZATION ( #153, #286 ) ;
#152 = ADVANCED_FACE ( 'NONE', ( #304 ), #95, .T. ) ;
#153 = PERSON ( 'NEURÈENÝ', 'NEURÈENÝ', 'NEURÈENÝ', ('NEURÈENÝ'), ('NEURÈENÝ'), ('NEURÈENÝ') ) ;
#154 = ORIENTED_EDGE ( 'NONE', *, *, #58, .F. ) ;
#155 = EDGE_LOOP ( 'NONE', ( #305, #328, #113, #56 ) ) ;
#156 = CC_DESIGN_APPROVAL ( #87, ( #101 ) ) ;
#157 = CARTESIAN_POINT ( 'NONE',  ( 0.000000000000000000, 0.000000000000000000, 167.0000000000000000 ) ) ;
#158 = ORIENTED_EDGE ( 'NONE', *, *, #178, .T. ) ;
#159 = ADVANCED_BREP_SHAPE_REPRESENTATION ( '5772', ( #319, #262 ), #94 ) ;
#160 = APPROVAL_ROLE ( '' ) ;
#161 = CARTESIAN_POINT ( 'NONE',  ( 0.000000000000000000, 0.000000000000000000, 7.000000000000000000 ) ) ;
#162 = VERTEX_POINT ( 'NONE', #33 ) ;
#163 = CALENDAR_DATE ( 2022, 8, 7 ) ;
#164 = CARTESIAN_POINT ( 'NONE',  ( 3.250000000000000444, 3.980102097228897245E-16, 0.000000000000000000 ) ) ;
#165 = VERTEX_POINT ( 'NONE', #64 ) ;
#166 = CARTESIAN_POINT ( 'NONE',  ( -6.500000000000000888, 7.960204194457796463E-16, 7.000000000000002665 ) ) ;
#167 = EDGE_CURVE ( 'NONE', #17, #34, #338, .T. ) ;
#168 = PERSON_AND_ORGANIZATION ( #153, #286 ) ;
#169 = DIRECTION ( 'NONE',  ( 0.000000000000000000, 0.000000000000000000, -1.000000000000000000 ) ) ;
#170 = UNCERTAINTY_MEASURE_WITH_UNIT (LENGTH_MEASURE( 1.000000000000000082E-05 ), #93, 'distance_accuracy_value', 'NONE');
#171 = DIRECTION ( 'NONE',  ( 1.000000000000000000, 0.000000000000000000, 0.000000000000000000 ) ) ;
#172 = CIRCLE ( 'NONE', #206, 10.00000000000000000 ) ;
#173 = CARTESIAN_POINT ( 'NONE',  ( 0.000000000000000000, 0.000000000000000000, 167.0000000000000000 ) ) ;
#174 = CARTESIAN_POINT ( 'NONE',  ( 0.000000000000000000, 0.000000000000000000, 7.500000000000007105 ) ) ;
#175 = EDGE_CURVE ( 'NONE', #223, #196, #342, .T. ) ;
#176 = AXIS2_PLACEMENT_3D ( 'NONE', #80, #85, #171 ) ;
#177 = DIRECTION ( 'NONE',  ( -0.000000000000000000, -0.000000000000000000, -1.000000000000000000 ) ) ;
#178 = EDGE_CURVE ( 'NONE', #223, #249, #350, .T. ) ;
#179 =( NAMED_UNIT ( * ) PLANE_ANGLE_UNIT ( ) SI_UNIT ( $, .RADIAN. ) );
#180 = LINE ( 'NONE', #147, #254 ) ;
#181 = CIRCLE ( 'NONE', #54, 10.00000000000000000 ) ;
#182 = DIRECTION ( 'NONE',  ( 1.000000000000000000, 0.000000000000000000, 0.000000000000000000 ) ) ;
#183 = DIRECTION ( 'NONE',  ( 0.000000000000000000, 0.000000000000000000, 1.000000000000000000 ) ) ;
#184 = FACE_OUTER_BOUND ( 'NONE', #315, .T. ) ;
#185 = CARTESIAN_POINT ( 'NONE',  ( -3.250000000000000444, 0.000000000000000000, 167.0000000000000000 ) ) ;
#186 = VERTEX_POINT ( 'NONE', #82 ) ;
#187 = CARTESIAN_POINT ( 'NONE',  ( 10.00000000000000000, 1.224646799147353256E-15, 7.000000000000000000 ) ) ;
#188 = ORIENTED_EDGE ( 'NONE', *, *, #167, .F. ) ;
#189 = PERSON_AND_ORGANIZATION ( #153, #286 ) ;
#190 = CIRCLE ( 'NONE', #200, 6.000000000000000888 ) ;
#191 = CARTESIAN_POINT ( 'NONE',  ( -10.00000000000000000, 0.000000000000000000, 7.000000000000000000 ) ) ;
#192 = ORIENTED_EDGE ( 'NONE', *, *, #234, .T. ) ;
#193 = DIRECTION ( 'NONE',  ( -0.000000000000000000, -0.000000000000000000, -1.000000000000000000 ) ) ;
#194 = CARTESIAN_POINT ( 'NONE',  ( 6.500000000000000888, 0.000000000000000000, 7.500000000000007105 ) ) ;
#195 = DIRECTION ( 'NONE',  ( 0.000000000000000000, 0.000000000000000000, -1.000000000000000000 ) ) ;
#196 = VERTEX_POINT ( 'NONE', #375 ) ;
#197 = DIRECTION ( 'NONE',  ( -0.000000000000000000, -0.000000000000000000, -1.000000000000000000 ) ) ;
#198 = VERTEX_POINT ( 'NONE', #225 ) ;
#199 = PERSON_AND_ORGANIZATION ( #153, #286 ) ;
#200 = AXIS2_PLACEMENT_3D ( 'NONE', #246, #98, #10 ) ;
#201 = ADVANCED_FACE ( 'NONE', ( #282 ), #125, .F. ) ;
#202 = DATE_AND_TIME ( #294, #49 ) ;
#203 = CALENDAR_DATE ( 2022, 8, 7 ) ;
#204 = VECTOR ( 'NONE', #308, 1000.000000000000000 ) ;
#205 = DIRECTION ( 'NONE',  ( 1.000000000000000000, 0.000000000000000000, 0.000000000000000000 ) ) ;
#206 = AXIS2_PLACEMENT_3D ( 'NONE', #123, #267, #295 ) ;
#207 = PERSON_AND_ORGANIZATION_ROLE ( 'design_supplier' ) ;
#208 = DIRECTION ( 'NONE',  ( -1.000000000000000000, 0.000000000000000000, 0.000000000000000000 ) ) ;
#209 = CARTESIAN_POINT ( 'NONE',  ( 0.000000000000000000, 0.000000000000000000, 0.000000000000000000 ) ) ;
#210 = ORIENTED_EDGE ( 'NONE', *, *, #244, .F. ) ;
#211 = AXIS2_PLACEMENT_3D ( 'NONE', #371, #366, #39 ) ;
#212 = DIRECTION ( 'NONE',  ( -0.000000000000000000, -0.000000000000000000, -1.000000000000000000 ) ) ;
#213 = ORIENTED_EDGE ( 'NONE', *, *, #353, .F. ) ;
#214 = CC_DESIGN_APPROVAL ( #318, ( #240 ) ) ;
#215 = DIRECTION ( 'NONE',  ( 0.000000000000000000, 0.000000000000000000, 1.000000000000000000 ) ) ;
#216 = EDGE_LOOP ( 'NONE', ( #257, #320, #40, #19 ) ) ;
#217 = DATE_AND_TIME ( #163, #327 ) ;
#218 = CARTESIAN_POINT ( 'NONE',  ( 10.00000000000000000, 1.224646799147353256E-15, 0.000000000000000000 ) ) ;
#219 = ORIENTED_EDGE ( 'NONE', *, *, #175, .T. ) ;
#220 = AXIS2_PLACEMENT_3D ( 'NONE', #344, #278, #301 ) ;
#221 = ADVANCED_FACE ( 'NONE', ( #143 ), #222, .T. ) ;
#222 = CYLINDRICAL_SURFACE ( 'NONE', #70, 6.000000000000000888 ) ;
#223 = VERTEX_POINT ( 'NONE', #25 ) ;
#224 = CIRCLE ( 'NONE', #306, 0.5000000000000004441 ) ;
#225 = CARTESIAN_POINT ( 'NONE',  ( -6.000000000000000888, 0.000000000000000000, 7.500000000000007105 ) ) ;
#226 = LOCAL_TIME ( 16, 42, 59.00000000000000000, #13 ) ;
#227 = ORIENTED_EDGE ( 'NONE', *, *, #291, .F. ) ;
#228 = CALENDAR_DATE ( 2022, 8, 7 ) ;
#229 = DIRECTION ( 'NONE',  ( -1.000000000000000000, 0.000000000000000000, 0.000000000000000000 ) ) ;
#230 = DIRECTION ( 'NONE',  ( 0.000000000000000000, 0.000000000000000000, -1.000000000000000000 ) ) ;
#231 = ADVANCED_FACE ( 'NONE', ( #114, #347 ), #380, .T. ) ;
#232 = FACE_OUTER_BOUND ( 'NONE', #279, .T. ) ;
#233 = AXIS2_PLACEMENT_3D ( 'NONE', #6, #148, #182 ) ;
#234 = EDGE_CURVE ( 'NONE', #186, #162, #224, .T. ) ;
#235 = AXIS2_PLACEMENT_3D ( 'NONE', #209, #12, #45 ) ;
#236 = AXIS2_PLACEMENT_3D ( 'NONE', #157, #146, #258 ) ;
#237 = AXIS2_PLACEMENT_3D ( 'NONE', #300, #298, #31 ) ;
#238 = DATE_TIME_ROLE ( 'creation_date' ) ;
#239 = DIRECTION ( 'NONE',  ( 0.000000000000000000, 0.000000000000000000, 1.000000000000000000 ) ) ;
#240 = PRODUCT_DEFINITION ( 'NEZNÁMÝ', '', #101, #141 ) ;
#241 = PERSON_AND_ORGANIZATION_ROLE ( 'classification_officer' ) ;
#242 = AXIS2_PLACEMENT_3D ( 'NONE', #88, #50, #355 ) ;
#243 = DIRECTION ( 'NONE',  ( 1.224646799147353207E-16, 1.000000000000000000, -0.000000000000000000 ) ) ;
#244 = EDGE_CURVE ( 'NONE', #249, #144, #285, .T. ) ;
#245 = ORIENTED_EDGE ( 'NONE', *, *, #38, .F. ) ;
#246 = CARTESIAN_POINT ( 'NONE',  ( 0.000000000000000000, 0.000000000000000000, 167.0000000000000000 ) ) ;
#247 = COORDINATED_UNIVERSAL_TIME_OFFSET ( 1, 0, .AHEAD. ) ;
#248 = DIRECTION ( 'NONE',  ( 0.000000000000000000, 0.000000000000000000, 1.000000000000000000 ) ) ;
#249 = VERTEX_POINT ( 'NONE', #287 ) ;
#250 = DATE_TIME_ROLE ( 'classification_date' ) ;
#251 = CARTESIAN_POINT ( 'NONE',  ( 0.000000000000000000, 0.000000000000000000, 7.500000000000007105 ) ) ;
#252 = ORIENTED_EDGE ( 'NONE', *, *, #2, .T. ) ;
#253 = DIRECTION ( 'NONE',  ( 1.000000000000000000, 0.000000000000000000, -0.000000000000000000 ) ) ;
#254 = VECTOR ( 'NONE', #177, 1000.000000000000000 ) ;
#255 = ORIENTED_EDGE ( 'NONE', *, *, #323, .F. ) ;
#256 = CYLINDRICAL_SURFACE ( 'NONE', #370, 3.250000000000000444 ) ;
#257 = ORIENTED_EDGE ( 'NONE', *, *, #369, .F. ) ;
#258 = DIRECTION ( 'NONE',  ( 1.000000000000000000, 0.000000000000000000, 0.000000000000000000 ) ) ;
#259 = EDGE_LOOP ( 'NONE', ( #312, #140 ) ) ;
#260 = CC_DESIGN_PERSON_AND_ORGANIZATION_ASSIGNMENT ( #151, #241, ( #63 ) ) ;
#261 = MECHANICAL_CONTEXT ( 'NONE', #65, 'mechanical' ) ;
#262 = AXIS2_PLACEMENT_3D ( 'NONE', #360, #265, #205 ) ;
#263 = EDGE_CURVE ( 'NONE', #165, #186, #139, .T. ) ;
#264 = COORDINATED_UNIVERSAL_TIME_OFFSET ( 1, 0, .AHEAD. ) ;
#265 = DIRECTION ( 'NONE',  ( 0.000000000000000000, 0.000000000000000000, 1.000000000000000000 ) ) ;
#266 = LOCAL_TIME ( 16, 42, 59.00000000000000000, #264 ) ;
#267 = DIRECTION ( 'NONE',  ( 0.000000000000000000, 0.000000000000000000, 1.000000000000000000 ) ) ;
#268 = ADVANCED_FACE ( 'NONE', ( #232 ), #256, .F. ) ;
#269 = APPROVAL_DATE_TIME ( #374, #20 ) ;
#270 = VECTOR ( 'NONE', #311, 1000.000000000000000 ) ;
#271 = APPLICATION_CONTEXT ( 'configuration controlled 3d designs of mechanical parts and assemblies' ) ;
#272 = DIRECTION ( 'NONE',  ( 1.000000000000000000, 0.000000000000000000, 0.000000000000000000 ) ) ;
#273 = EDGE_LOOP ( 'NONE', ( #354, #68 ) ) ;
#274 = AXIS2_PLACEMENT_3D ( 'NONE', #381, #55, #18 ) ;
#275 = EDGE_CURVE ( 'NONE', #162, #288, #325, .T. ) ;
#276 = ORIENTED_EDGE ( 'NONE', *, *, #244, .T. ) ;
#277 = PLANE ( 'NONE',  #235 ) ;
#278 = DIRECTION ( 'NONE',  ( 0.000000000000000000, 0.000000000000000000, 1.000000000000000000 ) ) ;
#279 = EDGE_LOOP ( 'NONE', ( #210, #322, #219, #379 ) ) ;
#280 = AXIS2_PLACEMENT_3D ( 'NONE', #174, #248, #5 ) ;
#281 = CARTESIAN_POINT ( 'NONE',  ( 0.000000000000000000, 0.000000000000000000, 0.000000000000000000 ) ) ;
#282 = FACE_OUTER_BOUND ( 'NONE', #155, .T. ) ;
#283 = CC_DESIGN_PERSON_AND_ORGANIZATION_ASSIGNMENT ( #3, #119, ( #60 ) ) ;
#284 = AXIS2_PLACEMENT_3D ( 'NONE', #321, #112, #253 ) ;
#285 = LINE ( 'NONE', #77, #36 ) ;
#286 = ORGANIZATION ( 'NEURÈENÝ', 'NEURÈENÝ', '' ) ;
#287 = CARTESIAN_POINT ( 'NONE',  ( 3.250000000000000444, 3.980102097228897245E-16, 167.0000000000000000 ) ) ;
#288 = VERTEX_POINT ( 'NONE', #166 ) ;
#289 = CIRCLE ( 'NONE', #116, 6.000000000000000888 ) ;
#290 = FACE_OUTER_BOUND ( 'NONE', #134, .T. ) ;
#291 = EDGE_CURVE ( 'NONE', #196, #144, #336, .T. ) ;
#292 = DIRECTION ( 'NONE',  ( 1.000000000000000000, 0.000000000000000000, 0.000000000000000000 ) ) ;
#293 = CIRCLE ( 'NONE', #71, 3.250000000000000444 ) ;
#294 = CALENDAR_DATE ( 2022, 8, 7 ) ;
#295 = DIRECTION ( 'NONE',  ( 1.000000000000000000, 0.000000000000000000, 0.000000000000000000 ) ) ;
#296 = AXIS2_PLACEMENT_3D ( 'NONE', #16, #243, #43 ) ;
#297 = ADVANCED_FACE ( 'NONE', ( #290 ), #107, .T. ) ;
#298 = DIRECTION ( 'NONE',  ( -0.000000000000000000, -0.000000000000000000, -1.000000000000000000 ) ) ;
#299 = AXIS2_PLACEMENT_3D ( 'NONE', #251, #326, #378 ) ;
#300 = CARTESIAN_POINT ( 'NONE',  ( 0.000000000000000000, 0.000000000000000000, 7.000000000000000000 ) ) ;
#301 = DIRECTION ( 'NONE',  ( 1.000000000000000000, 0.000000000000000000, 0.000000000000000000 ) ) ;
#302 = EDGE_LOOP ( 'NONE', ( #108, #128, #75, #245 ) ) ;
#303 = ADVANCED_FACE ( 'NONE', ( #356 ), #351, .F. ) ;
#304 = FACE_OUTER_BOUND ( 'NONE', #376, .T. ) ;
#305 = ORIENTED_EDGE ( 'NONE', *, *, #334, .F. ) ;
#306 = AXIS2_PLACEMENT_3D ( 'NONE', #194, #317, #230 ) ;
#307 = CC_DESIGN_PERSON_AND_ORGANIZATION_ASSIGNMENT ( #189, #136, ( #101 ) ) ;
#308 = DIRECTION ( 'NONE',  ( 0.000000000000000000, 0.000000000000000000, -1.000000000000000000 ) ) ;
#309 = ORIENTED_EDGE ( 'NONE', *, *, #263, .F. ) ;
#310 = APPROVAL_ROLE ( '' ) ;
#311 = DIRECTION ( 'NONE',  ( -0.000000000000000000, -0.000000000000000000, -1.000000000000000000 ) ) ;
#312 = ORIENTED_EDGE ( 'NONE', *, *, #377, .T. ) ;
#313 = ADVANCED_FACE ( 'NONE', ( #57 ), #142, .F. ) ;
#314 = CARTESIAN_POINT ( 'NONE',  ( 0.000000000000000000, 0.000000000000000000, 7.500000000000007105 ) ) ;
#315 = EDGE_LOOP ( 'NONE', ( #213, #14 ) ) ;
#316 = APPROVAL_DATE_TIME ( #349, #87 ) ;
#317 = DIRECTION ( 'NONE',  ( 0.000000000000000000, -1.000000000000000000, 0.000000000000000000 ) ) ;
#318 = APPROVAL ( #120, 'NEURÈENÝ' ) ;
#319 = MANIFOLD_SOLID_BREP ( 'Odebrat vysunutím3', #66 ) ;
#320 = ORIENTED_EDGE ( 'NONE', *, *, #167, .T. ) ;
#321 = CARTESIAN_POINT ( 'NONE',  ( 0.000000000000000000, 0.000000000000000000, 167.0000000000000000 ) ) ;
#322 = ORIENTED_EDGE ( 'NONE', *, *, #29, .T. ) ;
#323 = EDGE_CURVE ( 'NONE', #144, #196, #293, .T. ) ;
#324 = DIRECTION ( 'NONE',  ( -1.000000000000000000, 0.000000000000000000, 0.000000000000000000 ) ) ;
#325 = CIRCLE ( 'NONE', #242, 6.500000000000000888 ) ;
#326 = DIRECTION ( 'NONE',  ( 0.000000000000000000, 0.000000000000000000, 1.000000000000000000 ) ) ;
#327 = LOCAL_TIME ( 16, 42, 59.00000000000000000, #247 ) ;
#328 = ORIENTED_EDGE ( 'NONE', *, *, #58, .T. ) ;
#329 = DIRECTION ( 'NONE',  ( 1.000000000000000000, 0.000000000000000000, 0.000000000000000000 ) ) ;
#330 = CIRCLE ( 'NONE', #296, 0.5000000000000004441 ) ;
#331 = CYLINDRICAL_SURFACE ( 'NONE', #237, 10.00000000000000000 ) ;
#332 = APPLICATION_PROTOCOL_DEFINITION ( 'international standard', 'config_control_design', 1994, #271 ) ;
#333 = CIRCLE ( 'NONE', #233, 10.00000000000000000 ) ;
#334 = EDGE_CURVE ( 'NONE', #198, #186, #126, .T. ) ;
#335 = CC_DESIGN_PERSON_AND_ORGANIZATION_ASSIGNMENT ( #168, #207, ( #101 ) ) ;
#336 = CIRCLE ( 'NONE', #133, 3.250000000000000444 ) ;
#337 = APPROVAL_STATUS ( 'not_yet_approved' ) ;
#338 = LINE ( 'NONE', #8, #124 ) ;
#339 = DIRECTION ( 'NONE',  ( 1.000000000000000000, 0.000000000000000000, -0.000000000000000000 ) ) ;
#340 = PRODUCT_RELATED_PRODUCT_CATEGORY ( 'detail', '', ( #60 ) ) ;
#341 = ORIENTED_EDGE ( 'NONE', *, *, #46, .F. ) ;
#342 = LINE ( 'NONE', #185, #204 ) ;
#343 = APPROVAL_PERSON_ORGANIZATION ( #199, #87, #310 ) ;
#344 = CARTESIAN_POINT ( 'NONE',  ( 0.000000000000000000, 0.000000000000000000, 167.0000000000000000 ) ) ;
#345 = ADVANCED_FACE ( 'NONE', ( #363 ), #331, .T. ) ;
#346 = DIRECTION ( 'NONE',  ( 0.000000000000000000, 0.000000000000000000, 1.000000000000000000 ) ) ;
#347 = FACE_OUTER_BOUND ( 'NONE', #53, .T. ) ;
#348 = ORIENTED_EDGE ( 'NONE', *, *, #364, .T. ) ;
#349 = DATE_AND_TIME ( #138, #32 ) ;
#350 = CIRCLE ( 'NONE', #236, 3.250000000000000444 ) ;
#351 = TOROIDAL_SURFACE ( 'NONE', #299, 6.500000000000000888, 0.5000000000000000000 ) ;
#352 = DIRECTION ( 'NONE',  ( -0.000000000000000000, -0.000000000000000000, -1.000000000000000000 ) ) ;
#353 = EDGE_CURVE ( 'NONE', #132, #34, #181, .T. ) ;
#354 = ORIENTED_EDGE ( 'NONE', *, *, #178, .F. ) ;
#355 = DIRECTION ( 'NONE',  ( 1.000000000000000000, 0.000000000000000000, 0.000000000000000000 ) ) ;
#356 = FACE_OUTER_BOUND ( 'NONE', #372, .T. ) ;
#357 = CARTESIAN_POINT ( 'NONE',  ( 0.000000000000000000, 0.000000000000000000, 167.0000000000000000 ) ) ;
#358 = APPROVAL_DATE_TIME ( #202, #318 ) ;
#359 = CC_DESIGN_PERSON_AND_ORGANIZATION_ASSIGNMENT ( #30, #89, ( #240 ) ) ;
#360 = CARTESIAN_POINT ( 'NONE',  ( 0.000000000000000000, 0.000000000000000000, 0.000000000000000000 ) ) ;
#361 = EDGE_CURVE ( 'NONE', #34, #132, #333, .T. ) ;
#362 =( NAMED_UNIT ( * ) SI_UNIT ( $, .STERADIAN. ) SOLID_ANGLE_UNIT ( ) );
#363 = FACE_OUTER_BOUND ( 'NONE', #216, .T. ) ;
#364 = EDGE_CURVE ( 'NONE', #47, #132, #180, .T. ) ;
#365 = CARTESIAN_POINT ( 'NONE',  ( -6.000000000000000888, 0.000000000000000000, 167.0000000000000000 ) ) ;
#366 = DIRECTION ( 'NONE',  ( -0.000000000000000000, -0.000000000000000000, -1.000000000000000000 ) ) ;
#367 = DIRECTION ( 'NONE',  ( -0.000000000000000000, -0.000000000000000000, -1.000000000000000000 ) ) ;
#368 = PLANE ( 'NONE',  #83 ) ;
#369 = EDGE_CURVE ( 'NONE', #17, #47, #172, .T. ) ;
#370 = AXIS2_PLACEMENT_3D ( 'NONE', #357, #109, #229 ) ;
#371 = CARTESIAN_POINT ( 'NONE',  ( 0.000000000000000000, 0.000000000000000000, 7.000000000000000000 ) ) ;
#372 = EDGE_LOOP ( 'NONE', ( #154, #72, #192, #24 ) ) ;
#373 = CC_DESIGN_DATE_AND_TIME_ASSIGNMENT ( #217, #250, ( #63 ) ) ;
#374 = DATE_AND_TIME ( #228, #226 ) ;
#375 = CARTESIAN_POINT ( 'NONE',  ( -3.250000000000000444, 0.000000000000000000, 0.000000000000000000 ) ) ;
#376 = EDGE_LOOP ( 'NONE', ( #309, #341, #130, #78 ) ) ;
#377 = EDGE_CURVE ( 'NONE', #47, #17, #48, .T. ) ;
#378 = DIRECTION ( 'NONE',  ( 1.000000000000000000, 0.000000000000000000, 0.000000000000000000 ) ) ;
#379 = ORIENTED_EDGE ( 'NONE', *, *, #291, .T. ) ;
#380 = PLANE ( 'NONE',  #284 ) ;
#381 = CARTESIAN_POINT ( 'NONE',  ( 0.000000000000000000, 0.000000000000000000, 7.000000000000000000 ) ) ;
ENDSEC;
END-ISO-10303-21;
