ISO-10303-21;
HEADER;
FILE_DESCRIPTION (( 'STEP AP203' ),
    '1' );
FILE_NAME ('0484.STEP',
    '2022-07-08T14:29:09',
    ( '' ),
    ( '' ),
    'SwSTEP 2.0',
    'SolidWorks 2019',
    '' );
FILE_SCHEMA (( 'CONFIG_CONTROL_DESIGN' ));
ENDSEC;

DATA;
#1 = CYLINDRICAL_SURFACE ( 'NONE', #282, 4.250000000000000000 ) ;
#2 = DIRECTION ( 'NONE',  ( 1.000000000000000000, 0.000000000000000000, 0.000000000000000000 ) ) ;
#3 = DIRECTION ( 'NONE',  ( 0.000000000000000000, 0.000000000000000000, 1.000000000000000000 ) ) ;
#4 = PRODUCT_RELATED_PRODUCT_CATEGORY ( 'detail', '', ( #85 ) ) ;
#5 = ORIENTED_EDGE ( 'NONE', *, *, #218, .T. ) ;
#6 = CARTESIAN_POINT ( 'NONE',  ( 0.000000000000000000, 0.000000000000000000, 7.000000000000000000 ) ) ;
#7 = ORIENTED_EDGE ( 'NONE', *, *, #160, .F. ) ;
#8 = ORIENTED_EDGE ( 'NONE', *, *, #236, .T. ) ;
#9 = EDGE_CURVE ( 'NONE', #223, #107, #11, .T. ) ;
#10 = ORIENTED_EDGE ( 'NONE', *, *, #192, .F. ) ;
#11 = CIRCLE ( 'NONE', #274, 6.000000000000000888 ) ;
#12 = VECTOR ( 'NONE', #235, 1000.000000000000000 ) ;
#13 = ORIENTED_EDGE ( 'NONE', *, *, #300, .T. ) ;
#14 = EDGE_LOOP ( 'NONE', ( #276, #190 ) ) ;
#15 = ADVANCED_FACE ( 'NONE', ( #194 ), #83, .T. ) ;
#16 = DIRECTION ( 'NONE',  ( 1.000000000000000000, 0.000000000000000000, 0.000000000000000000 ) ) ;
#17 = PERSON ( 'NEURÈENÝ', 'NEURÈENÝ', 'NEURÈENÝ', ('NEURÈENÝ'), ('NEURÈENÝ'), ('NEURÈENÝ') ) ;
#18 = DATE_AND_TIME ( #149, #302 ) ;
#19 = CARTESIAN_POINT ( 'NONE',  ( 0.000000000000000000, 0.000000000000000000, 7.000000000000000000 ) ) ;
#20 = AXIS2_PLACEMENT_3D ( 'NONE', #288, #146, #262 ) ;
#21 = AXIS2_PLACEMENT_3D ( 'NONE', #210, #329, #303 ) ;
#22 = CALENDAR_DATE ( 2022, 8, 7 ) ;
#23 = CARTESIAN_POINT ( 'NONE',  ( 0.000000000000000000, 0.000000000000000000, 7.000000000000000000 ) ) ;
#24 = EDGE_CURVE ( 'NONE', #309, #187, #266, .T. ) ;
#25 = PERSON_AND_ORGANIZATION ( #17, #325 ) ;
#26 = LINE ( 'NONE', #88, #162 ) ;
#27 = CYLINDRICAL_SURFACE ( 'NONE', #207, 10.00000000000000000 ) ;
#28 = CARTESIAN_POINT ( 'NONE',  ( -4.250000000000000000, 0.000000000000000000, 0.000000000000000000 ) ) ;
#29 = CARTESIAN_POINT ( 'NONE',  ( 0.000000000000000000, 0.000000000000000000, 707.0000000000000000 ) ) ;
#30 = CARTESIAN_POINT ( 'NONE',  ( -6.700000000000001066, 8.205133554287267548E-16, 7.000000000000020428 ) ) ;
#31 = DIRECTION ( 'NONE',  ( 0.000000000000000000, -1.000000000000000000, 0.000000000000000000 ) ) ;
#32 = VERTEX_POINT ( 'NONE', #142 ) ;
#33 = CARTESIAN_POINT ( 'NONE',  ( 0.000000000000000000, 0.000000000000000000, 7.700000000000040146 ) ) ;
#34 = ORIENTED_EDGE ( 'NONE', *, *, #224, .F. ) ;
#35 = ORIENTED_EDGE ( 'NONE', *, *, #101, .T. ) ;
#36 = AXIS2_PLACEMENT_3D ( 'NONE', #29, #242, #301 ) ;
#37 = ORIENTED_EDGE ( 'NONE', *, *, #160, .T. ) ;
#38 = ORIENTED_EDGE ( 'NONE', *, *, #268, .F. ) ;
#39 = EDGE_LOOP ( 'NONE', ( #343, #305, #169, #246 ) ) ;
#40 = TOROIDAL_SURFACE ( 'NONE', #20, 6.700000000000001066, 0.6999999999999999556 ) ;
#41 = ADVANCED_FACE ( 'NONE', ( #234, #231 ), #45, .T. ) ;
#42 =( NAMED_UNIT ( * ) PLANE_ANGLE_UNIT ( ) SI_UNIT ( $, .RADIAN. ) );
#43 = EDGE_LOOP ( 'NONE', ( #141, #75 ) ) ;
#44 = APPROVAL_DATE_TIME ( #143, #263 ) ;
#45 = PLANE ( 'NONE',  #70 ) ;
#46 = CALENDAR_DATE ( 2022, 8, 7 ) ;
#47 = CARTESIAN_POINT ( 'NONE',  ( 0.000000000000000000, 0.000000000000000000, 707.0000000000000000 ) ) ;
#48 = SECURITY_CLASSIFICATION_LEVEL ( 'unclassified' ) ;
#49 = DIRECTION ( 'NONE',  ( -0.000000000000000000, -0.000000000000000000, -1.000000000000000000 ) ) ;
#50 = CIRCLE ( 'NONE', #183, 0.7000000000000000666 ) ;
#51 = AXIS2_PLACEMENT_3D ( 'NONE', #95, #213, #299 ) ;
#52 = APPROVAL_STATUS ( 'not_yet_approved' ) ;
#53 = CARTESIAN_POINT ( 'NONE',  ( 0.000000000000000000, 0.000000000000000000, 0.000000000000000000 ) ) ;
#54 = LINE ( 'NONE', #113, #144 ) ;
#55 = ADVANCED_FACE ( 'NONE', ( #267 ), #320, .T. ) ;
#56 = DIRECTION ( 'NONE',  ( 0.000000000000000000, 0.000000000000000000, -1.000000000000000000 ) ) ;
#57 =( GEOMETRIC_REPRESENTATION_CONTEXT ( 3 ) GLOBAL_UNCERTAINTY_ASSIGNED_CONTEXT ( ( #116 ) ) GLOBAL_UNIT_ASSIGNED_CONTEXT ( ( #311, #42, #103 ) ) REPRESENTATION_CONTEXT ( 'NONE', 'WORKASPACE' ) );
#58 = DIRECTION ( 'NONE',  ( 0.000000000000000000, 0.000000000000000000, 1.000000000000000000 ) ) ;
#59 = DIRECTION ( 'NONE',  ( 0.000000000000000000, 0.000000000000000000, -1.000000000000000000 ) ) ;
#60 = CARTESIAN_POINT ( 'NONE',  ( 10.00000000000000000, 1.224646799147353256E-15, 7.000000000000000000 ) ) ;
#61 = ORIENTED_EDGE ( 'NONE', *, *, #364, .T. ) ;
#62 = APPROVAL ( #52, 'NEURÈENÝ' ) ;
#63 = VECTOR ( 'NONE', #59, 1000.000000000000000 ) ;
#64 = CARTESIAN_POINT ( 'NONE',  ( 10.00000000000000000, 1.224646799147353256E-15, 7.000000000000000000 ) ) ;
#65 = MANIFOLD_SOLID_BREP ( 'Odebrat vysunutím3', #212 ) ;
#66 = ORIENTED_EDGE ( 'NONE', *, *, #120, .T. ) ;
#67 = DIRECTION ( 'NONE',  ( 1.000000000000000000, 0.000000000000000000, 0.000000000000000000 ) ) ;
#68 = EDGE_CURVE ( 'NONE', #256, #223, #26, .T. ) ;
#69 = EDGE_LOOP ( 'NONE', ( #7, #185 ) ) ;
#70 = AXIS2_PLACEMENT_3D ( 'NONE', #47, #174, #201 ) ;
#71 = APPLICATION_CONTEXT ( 'configuration controlled 3d designs of mechanical parts and assemblies' ) ;
#72 = PRODUCT_DEFINITION_FORMATION_WITH_SPECIFIED_SOURCE ( 'LIBOVOLNÝ', '', #85, .NOT_KNOWN. ) ;
#73 = ORIENTED_EDGE ( 'NONE', *, *, #224, .T. ) ;
#74 = DIRECTION ( 'NONE',  ( 1.000000000000000000, 0.000000000000000000, 0.000000000000000000 ) ) ;
#75 = ORIENTED_EDGE ( 'NONE', *, *, #211, .F. ) ;
#76 = CC_DESIGN_PERSON_AND_ORGANIZATION_ASSIGNMENT ( #225, #291, ( #72 ) ) ;
#77 = DIRECTION ( 'NONE',  ( 0.000000000000000000, 0.000000000000000000, 1.000000000000000000 ) ) ;
#78 = ORIENTED_EDGE ( 'NONE', *, *, #175, .F. ) ;
#79 = PRODUCT_DEFINITION_SHAPE ( 'NONE', 'NONE',  #98 ) ;
#80 = CIRCLE ( 'NONE', #251, 4.250000000000000000 ) ;
#81 = COORDINATED_UNIVERSAL_TIME_OFFSET ( 1, 0, .AHEAD. ) ;
#82 = AXIS2_PLACEMENT_3D ( 'NONE', #159, #356, #269 ) ;
#83 = CYLINDRICAL_SURFACE ( 'NONE', #238, 10.00000000000000000 ) ;
#84 = LOCAL_TIME ( 16, 29, 9.000000000000000000, #195 ) ;
#85 = PRODUCT ( '0484', '0484', '', ( #245 ) ) ;
#86 = CARTESIAN_POINT ( 'NONE',  ( 0.000000000000000000, 0.000000000000000000, 0.000000000000000000 ) ) ;
#87 = PERSON_AND_ORGANIZATION_ROLE ( 'design_supplier' ) ;
#88 = CARTESIAN_POINT ( 'NONE',  ( -6.000000000000000888, 0.000000000000000000, 707.0000000000000000 ) ) ;
#89 = EDGE_CURVE ( 'NONE', #32, #306, #205, .T. ) ;
#90 = APPLICATION_PROTOCOL_DEFINITION ( 'international standard', 'config_control_design', 1994, #71 ) ;
#91 = DIRECTION ( 'NONE',  ( -1.000000000000000000, 0.000000000000000000, 0.000000000000000000 ) ) ;
#92 = DIRECTION ( 'NONE',  ( 1.000000000000000000, 0.000000000000000000, 0.000000000000000000 ) ) ;
#93 = ADVANCED_FACE ( 'NONE', ( #349, #172 ), #176, .F. ) ;
#94 = DIRECTION ( 'NONE',  ( 0.000000000000000000, 0.000000000000000000, 1.000000000000000000 ) ) ;
#95 = CARTESIAN_POINT ( 'NONE',  ( 0.000000000000000000, 0.000000000000000000, 707.0000000000000000 ) ) ;
#96 = DIRECTION ( 'NONE',  ( -0.000000000000000000, -0.000000000000000000, -1.000000000000000000 ) ) ;
#97 = DIRECTION ( 'NONE',  ( 0.000000000000000000, 0.000000000000000000, -1.000000000000000000 ) ) ;
#98 = PRODUCT_DEFINITION ( 'NEZNÁMÝ', '', #72, #254 ) ;
#99 = CYLINDRICAL_SURFACE ( 'NONE', #51, 4.250000000000000000 ) ;
#100 = AXIS2_PLACEMENT_3D ( 'NONE', #134, #77, #130 ) ;
#101 = EDGE_CURVE ( 'NONE', #135, #306, #377, .T. ) ;
#102 = ORIENTED_EDGE ( 'NONE', *, *, #359, .F. ) ;
#103 =( NAMED_UNIT ( * ) SI_UNIT ( $, .STERADIAN. ) SOLID_ANGLE_UNIT ( ) );
#104 = EDGE_LOOP ( 'NONE', ( #78, #216, #191, #10 ) ) ;
#105 = CIRCLE ( 'NONE', #240, 10.00000000000000000 ) ;
#106 = ORIENTED_EDGE ( 'NONE', *, *, #192, .T. ) ;
#107 = VERTEX_POINT ( 'NONE', #232 ) ;
#108 = CC_DESIGN_PERSON_AND_ORGANIZATION_ASSIGNMENT ( #25, #228, ( #220 ) ) ;
#109 = APPROVAL_ROLE ( '' ) ;
#110 = DIRECTION ( 'NONE',  ( -1.000000000000000000, 0.000000000000000000, 0.000000000000000000 ) ) ;
#111 = ADVANCED_BREP_SHAPE_REPRESENTATION ( '0484', ( #65, #372 ), #57 ) ;
#112 = DIRECTION ( 'NONE',  ( -0.000000000000000000, -0.000000000000000000, -1.000000000000000000 ) ) ;
#113 = CARTESIAN_POINT ( 'NONE',  ( -10.00000000000000000, 0.000000000000000000, 7.000000000000000000 ) ) ;
#114 = CARTESIAN_POINT ( 'NONE',  ( -4.250000000000000000, 0.000000000000000000, 707.0000000000000000 ) ) ;
#115 = AXIS2_PLACEMENT_3D ( 'NONE', #285, #376, #264 ) ;
#116 = UNCERTAINTY_MEASURE_WITH_UNIT (LENGTH_MEASURE( 1.000000000000000082E-05 ), #311, 'distance_accuracy_value', 'NONE');
#117 = APPROVAL_ROLE ( '' ) ;
#118 = FACE_OUTER_BOUND ( 'NONE', #366, .T. ) ;
#119 = AXIS2_PLACEMENT_3D ( 'NONE', #158, #58, #155 ) ;
#120 = EDGE_CURVE ( 'NONE', #256, #243, #124, .T. ) ;
#121 = CC_DESIGN_APPROVAL ( #131, ( #98 ) ) ;
#122 = CARTESIAN_POINT ( 'NONE',  ( 0.000000000000000000, 0.000000000000000000, 7.700000000000040146 ) ) ;
#123 = FACE_OUTER_BOUND ( 'NONE', #167, .T. ) ;
#124 = CIRCLE ( 'NONE', #339, 6.000000000000000888 ) ;
#125 = CARTESIAN_POINT ( 'NONE',  ( 0.000000000000000000, 0.000000000000000000, 707.0000000000000000 ) ) ;
#126 = AXIS2_PLACEMENT_3D ( 'NONE', #19, #317, #345 ) ;
#127 = DIRECTION ( 'NONE',  ( 0.000000000000000000, 0.000000000000000000, 1.000000000000000000 ) ) ;
#128 = DIRECTION ( 'NONE',  ( 1.000000000000000000, 0.000000000000000000, 0.000000000000000000 ) ) ;
#129 = VERTEX_POINT ( 'NONE', #258 ) ;
#130 = DIRECTION ( 'NONE',  ( 1.000000000000000000, 0.000000000000000000, 0.000000000000000000 ) ) ;
#131 = APPROVAL ( #197, 'NEURÈENÝ' ) ;
#132 = AXIS2_PLACEMENT_3D ( 'NONE', #6, #222, #137 ) ;
#133 = EDGE_LOOP ( 'NONE', ( #140, #164 ) ) ;
#134 = CARTESIAN_POINT ( 'NONE',  ( 0.000000000000000000, 0.000000000000000000, 707.0000000000000000 ) ) ;
#135 = VERTEX_POINT ( 'NONE', #226 ) ;
#136 = ORIENTED_EDGE ( 'NONE', *, *, #101, .F. ) ;
#137 = DIRECTION ( 'NONE',  ( 1.000000000000000000, 0.000000000000000000, 0.000000000000000000 ) ) ;
#138 = LOCAL_TIME ( 16, 29, 9.000000000000000000, #173 ) ;
#139 = CC_DESIGN_PERSON_AND_ORGANIZATION_ASSIGNMENT ( #307, #367, ( #85 ) ) ;
#140 = ORIENTED_EDGE ( 'NONE', *, *, #333, .T. ) ;
#141 = ORIENTED_EDGE ( 'NONE', *, *, #233, .F. ) ;
#142 = CARTESIAN_POINT ( 'NONE',  ( 4.250000000000000000, 5.204748896376249713E-16, 0.000000000000000000 ) ) ;
#143 = DATE_AND_TIME ( #230, #361 ) ;
#144 = VECTOR ( 'NONE', #49, 1000.000000000000000 ) ;
#145 = APPROVAL_PERSON_ORGANIZATION ( #321, #131, #109 ) ;
#146 = DIRECTION ( 'NONE',  ( 0.000000000000000000, 0.000000000000000000, 1.000000000000000000 ) ) ;
#147 = APPROVAL_DATE_TIME ( #370, #62 ) ;
#148 = CARTESIAN_POINT ( 'NONE',  ( 6.700000000000001066, 0.000000000000000000, 7.000000000000020428 ) ) ;
#149 = CALENDAR_DATE ( 2022, 8, 7 ) ;
#150 = CC_DESIGN_PERSON_AND_ORGANIZATION_ASSIGNMENT ( #375, #286, ( #98 ) ) ;
#151 = DIRECTION ( 'NONE',  ( -0.000000000000000000, -0.000000000000000000, -1.000000000000000000 ) ) ;
#152 = DIRECTION ( 'NONE',  ( 1.000000000000000000, 0.000000000000000000, 0.000000000000000000 ) ) ;
#153 = AXIS2_PLACEMENT_3D ( 'NONE', #53, #94, #326 ) ;
#154 = CIRCLE ( 'NONE', #100, 6.000000000000000888 ) ;
#155 = DIRECTION ( 'NONE',  ( 1.000000000000000000, 0.000000000000000000, 0.000000000000000000 ) ) ;
#156 = CARTESIAN_POINT ( 'NONE',  ( -6.000000000000000888, 0.000000000000000000, 707.0000000000000000 ) ) ;
#157 = LINE ( 'NONE', #327, #63 ) ;
#158 = CARTESIAN_POINT ( 'NONE',  ( 0.000000000000000000, 0.000000000000000000, 707.0000000000000000 ) ) ;
#159 = CARTESIAN_POINT ( 'NONE',  ( -6.700000000000001066, 8.205133554287267548E-16, 7.700000000000040146 ) ) ;
#160 = EDGE_CURVE ( 'NONE', #306, #32, #80, .T. ) ;
#161 = EDGE_LOOP ( 'NONE', ( #66, #61 ) ) ;
#162 = VECTOR ( 'NONE', #151, 1000.000000000000000 ) ;
#163 = ORIENTED_EDGE ( 'NONE', *, *, #120, .F. ) ;
#164 = ORIENTED_EDGE ( 'NONE', *, *, #175, .T. ) ;
#165 = ORIENTED_EDGE ( 'NONE', *, *, #347, .T. ) ;
#166 = ADVANCED_FACE ( 'NONE', ( #118 ), #40, .F. ) ;
#167 = EDGE_LOOP ( 'NONE', ( #215, #73, #165, #221 ) ) ;
#168 = PERSON_AND_ORGANIZATION ( #17, #325 ) ;
#169 = ORIENTED_EDGE ( 'NONE', *, *, #278, .T. ) ;
#170 = CARTESIAN_POINT ( 'NONE',  ( 0.000000000000000000, 0.000000000000000000, 0.000000000000000000 ) ) ;
#171 = COORDINATED_UNIVERSAL_TIME_OFFSET ( 1, 0, .AHEAD. ) ;
#172 = FACE_OUTER_BOUND ( 'NONE', #43, .T. ) ;
#173 = COORDINATED_UNIVERSAL_TIME_OFFSET ( 1, 0, .AHEAD. ) ;
#174 = DIRECTION ( 'NONE',  ( 0.000000000000000000, 0.000000000000000000, 1.000000000000000000 ) ) ;
#175 = EDGE_CURVE ( 'NONE', #341, #249, #289, .T. ) ;
#176 = PLANE ( 'NONE',  #324 ) ;
#177 = FACE_OUTER_BOUND ( 'NONE', #39, .T. ) ;
#178 = CC_DESIGN_SECURITY_CLASSIFICATION ( #220, ( #72 ) ) ;
#179 = DIRECTION ( 'NONE',  ( 0.000000000000000000, 0.000000000000000000, 1.000000000000000000 ) ) ;
#180 = CARTESIAN_POINT ( 'NONE',  ( 6.000000000000000888, 7.347880794884120722E-16, 707.0000000000000000 ) ) ;
#181 = CARTESIAN_POINT ( 'NONE',  ( 0.000000000000000000, 0.000000000000000000, 707.0000000000000000 ) ) ;
#182 = ORIENTED_EDGE ( 'NONE', *, *, #300, .F. ) ;
#183 = AXIS2_PLACEMENT_3D ( 'NONE', #355, #31, #97 ) ;
#184 = PLANE ( 'NONE',  #21 ) ;
#185 = ORIENTED_EDGE ( 'NONE', *, *, #89, .F. ) ;
#186 = AXIS2_PLACEMENT_3D ( 'NONE', #170, #229, #92 ) ;
#187 = VERTEX_POINT ( 'NONE', #148 ) ;
#188 = LOCAL_TIME ( 16, 29, 9.000000000000000000, #171 ) ;
#189 = VERTEX_POINT ( 'NONE', #374 ) ;
#190 = ORIENTED_EDGE ( 'NONE', *, *, #244, .F. ) ;
#191 = ORIENTED_EDGE ( 'NONE', *, *, #211, .T. ) ;
#192 = EDGE_CURVE ( 'NONE', #249, #363, #54, .T. ) ;
#193 = APPROVAL_ROLE ( '' ) ;
#194 = FACE_OUTER_BOUND ( 'NONE', #281, .T. ) ;
#195 = COORDINATED_UNIVERSAL_TIME_OFFSET ( 1, 0, .AHEAD. ) ;
#196 = DIRECTION ( 'NONE',  ( 0.000000000000000000, 0.000000000000000000, -1.000000000000000000 ) ) ;
#197 = APPROVAL_STATUS ( 'not_yet_approved' ) ;
#198 = CARTESIAN_POINT ( 'NONE',  ( 0.000000000000000000, 0.000000000000000000, 707.0000000000000000 ) ) ;
#199 = DATE_AND_TIME ( #46, #188 ) ;
#200 = AXIS2_PLACEMENT_3D ( 'NONE', #298, #179, #128 ) ;
#201 = DIRECTION ( 'NONE',  ( 1.000000000000000000, 0.000000000000000000, -0.000000000000000000 ) ) ;
#202 = ADVANCED_FACE ( 'NONE', ( #290 ), #27, .T. ) ;
#203 = DIRECTION ( 'NONE',  ( 1.000000000000000000, 0.000000000000000000, -0.000000000000000000 ) ) ;
#204 = CARTESIAN_POINT ( 'NONE',  ( -6.000000000000000888, 0.000000000000000000, 7.700000000000040146 ) ) ;
#205 = CIRCLE ( 'NONE', #186, 4.250000000000000000 ) ;
#206 = CARTESIAN_POINT ( 'NONE',  ( 6.000000000000000888, 7.347880794884120722E-16, 707.0000000000000000 ) ) ;
#207 = AXIS2_PLACEMENT_3D ( 'NONE', #23, #351, #91 ) ;
#208 = CIRCLE ( 'NONE', #132, 6.700000000000001066 ) ;
#209 = DIRECTION ( 'NONE',  ( -1.000000000000000000, 0.000000000000000000, 0.000000000000000000 ) ) ;
#210 = CARTESIAN_POINT ( 'NONE',  ( 0.000000000000000000, 0.000000000000000000, 7.000000000000000000 ) ) ;
#211 = EDGE_CURVE ( 'NONE', #129, #363, #275, .T. ) ;
#212 = CLOSED_SHELL ( 'NONE', ( #328, #166, #271, #202, #15, #342, #93, #55, #41, #310, #293 ) ) ;
#213 = DIRECTION ( 'NONE',  ( 0.000000000000000000, 0.000000000000000000, -1.000000000000000000 ) ) ;
#214 = CIRCLE ( 'NONE', #319, 6.000000000000000888 ) ;
#215 = ORIENTED_EDGE ( 'NONE', *, *, #364, .F. ) ;
#216 = ORIENTED_EDGE ( 'NONE', *, *, #268, .T. ) ;
#217 = APPLICATION_PROTOCOL_DEFINITION ( 'international standard', 'config_control_design', 1994, #337 ) ;
#218 = EDGE_CURVE ( 'NONE', #135, #189, #346, .T. ) ;
#219 = ORIENTED_EDGE ( 'NONE', *, *, #9, .F. ) ;
#220 = SECURITY_CLASSIFICATION ( '', '', #48 ) ;
#221 = ORIENTED_EDGE ( 'NONE', *, *, #68, .F. ) ;
#222 = DIRECTION ( 'NONE',  ( -0.000000000000000000, -0.000000000000000000, -1.000000000000000000 ) ) ;
#223 = VERTEX_POINT ( 'NONE', #204 ) ;
#224 = EDGE_CURVE ( 'NONE', #243, #107, #381, .T. ) ;
#225 = PERSON_AND_ORGANIZATION ( #17, #325 ) ;
#226 = CARTESIAN_POINT ( 'NONE',  ( -4.250000000000000000, 0.000000000000000000, 707.0000000000000000 ) ) ;
#227 = VECTOR ( 'NONE', #96, 1000.000000000000000 ) ;
#228 = PERSON_AND_ORGANIZATION_ROLE ( 'classification_officer' ) ;
#229 = DIRECTION ( 'NONE',  ( -0.000000000000000000, -0.000000000000000000, -1.000000000000000000 ) ) ;
#230 = CALENDAR_DATE ( 2022, 8, 7 ) ;
#231 = FACE_OUTER_BOUND ( 'NONE', #161, .T. ) ;
#232 = CARTESIAN_POINT ( 'NONE',  ( 6.000000000000000888, 7.347880794884120722E-16, 7.700000000000040146 ) ) ;
#233 = EDGE_CURVE ( 'NONE', #363, #129, #360, .T. ) ;
#234 = FACE_BOUND ( 'NONE', #14, .T. ) ;
#235 = DIRECTION ( 'NONE',  ( -0.000000000000000000, -0.000000000000000000, -1.000000000000000000 ) ) ;
#236 = EDGE_CURVE ( 'NONE', #223, #309, #318, .T. ) ;
#237 = CARTESIAN_POINT ( 'NONE',  ( -10.00000000000000000, 0.000000000000000000, 7.000000000000000000 ) ) ;
#238 = AXIS2_PLACEMENT_3D ( 'NONE', #314, #112, #353 ) ;
#239 = FACE_BOUND ( 'NONE', #335, .T. ) ;
#240 = AXIS2_PLACEMENT_3D ( 'NONE', #330, #127, #297 ) ;
#241 = FACE_OUTER_BOUND ( 'NONE', #133, .T. ) ;
#242 = DIRECTION ( 'NONE',  ( 0.000000000000000000, 0.000000000000000000, 1.000000000000000000 ) ) ;
#243 = VERTEX_POINT ( 'NONE', #206 ) ;
#244 = EDGE_CURVE ( 'NONE', #189, #135, #296, .T. ) ;
#245 = MECHANICAL_CONTEXT ( 'NONE', #337, 'mechanical' ) ;
#246 = ORIENTED_EDGE ( 'NONE', *, *, #24, .F. ) ;
#247 = APPROVAL_PERSON_ORGANIZATION ( #168, #62, #193 ) ;
#248 = ORIENTED_EDGE ( 'NONE', *, *, #89, .T. ) ;
#249 = VERTEX_POINT ( 'NONE', #237 ) ;
#250 = CARTESIAN_POINT ( 'NONE',  ( 0.000000000000000000, 0.000000000000000000, 0.000000000000000000 ) ) ;
#251 = AXIS2_PLACEMENT_3D ( 'NONE', #86, #322, #371 ) ;
#252 = EDGE_LOOP ( 'NONE', ( #182, #284, #35, #37 ) ) ;
#253 = CARTESIAN_POINT ( 'NONE',  ( 0.000000000000000000, 0.000000000000000000, 7.700000000000040146 ) ) ;
#254 = DESIGN_CONTEXT ( 'detailed design', #71, 'design' ) ;
#255 = DATE_TIME_ROLE ( 'creation_date' ) ;
#256 = VERTEX_POINT ( 'NONE', #156 ) ;
#257 = DATE_TIME_ROLE ( 'classification_date' ) ;
#258 = CARTESIAN_POINT ( 'NONE',  ( 10.00000000000000000, 1.224646799147353256E-15, 0.000000000000000000 ) ) ;
#259 = AXIS2_PLACEMENT_3D ( 'NONE', #181, #270, #323 ) ;
#260 = CC_DESIGN_APPROVAL ( #263, ( #220 ) ) ;
#261 = APPROVAL_DATE_TIME ( #199, #131 ) ;
#262 = DIRECTION ( 'NONE',  ( 1.000000000000000000, 0.000000000000000000, 0.000000000000000000 ) ) ;
#263 = APPROVAL ( #344, 'NEURÈENÝ' ) ;
#264 = DIRECTION ( 'NONE',  ( 1.000000000000000000, 0.000000000000000000, 0.000000000000000000 ) ) ;
#265 = DIRECTION ( 'NONE',  ( 0.000000000000000000, 0.000000000000000000, 1.000000000000000000 ) ) ;
#266 = CIRCLE ( 'NONE', #115, 6.700000000000001066 ) ;
#267 = FACE_OUTER_BOUND ( 'NONE', #280, .T. ) ;
#268 = EDGE_CURVE ( 'NONE', #341, #129, #357, .T. ) ;
#269 = DIRECTION ( 'NONE',  ( -1.000000000000000000, 1.224646799147353454E-16, 0.000000000000000000 ) ) ;
#270 = DIRECTION ( 'NONE',  ( -0.000000000000000000, -0.000000000000000000, -1.000000000000000000 ) ) ;
#271 = ADVANCED_FACE ( 'NONE', ( #123 ), #380, .T. ) ;
#272 = FACE_OUTER_BOUND ( 'NONE', #252, .T. ) ;
#273 = ORIENTED_EDGE ( 'NONE', *, *, #359, .T. ) ;
#274 = AXIS2_PLACEMENT_3D ( 'NONE', #253, #362, #152 ) ;
#275 = CIRCLE ( 'NONE', #153, 10.00000000000000000 ) ;
#276 = ORIENTED_EDGE ( 'NONE', *, *, #218, .F. ) ;
#277 = APPROVAL_PERSON_ORGANIZATION ( #313, #263, #117 ) ;
#278 = EDGE_CURVE ( 'NONE', #107, #187, #50, .T. ) ;
#279 = ORIENTED_EDGE ( 'NONE', *, *, #9, .T. ) ;
#280 = EDGE_LOOP ( 'NONE', ( #34, #163, #308, #279 ) ) ;
#281 = EDGE_LOOP ( 'NONE', ( #38, #338, #106, #340 ) ) ;
#282 = AXIS2_PLACEMENT_3D ( 'NONE', #125, #56, #209 ) ;
#283 = PERSON_AND_ORGANIZATION ( #17, #325 ) ;
#284 = ORIENTED_EDGE ( 'NONE', *, *, #244, .T. ) ;
#285 = CARTESIAN_POINT ( 'NONE',  ( 0.000000000000000000, 0.000000000000000000, 7.000000000000000000 ) ) ;
#286 = PERSON_AND_ORGANIZATION_ROLE ( 'creator' ) ;
#287 = VECTOR ( 'NONE', #196, 1000.000000000000000 ) ;
#288 = CARTESIAN_POINT ( 'NONE',  ( 0.000000000000000000, 0.000000000000000000, 7.700000000000040146 ) ) ;
#289 = CIRCLE ( 'NONE', #126, 10.00000000000000000 ) ;
#290 = FACE_OUTER_BOUND ( 'NONE', #104, .T. ) ;
#291 = PERSON_AND_ORGANIZATION_ROLE ( 'creator' ) ;
#292 = DIRECTION ( 'NONE',  ( -0.000000000000000000, -0.000000000000000000, -1.000000000000000000 ) ) ;
#293 = ADVANCED_FACE ( 'NONE', ( #272 ), #1, .F. ) ;
#294 = CARTESIAN_POINT ( 'NONE',  ( 0.000000000000000000, 0.000000000000000000, 707.0000000000000000 ) ) ;
#295 = AXIS2_PLACEMENT_3D ( 'NONE', #294, #292, #110 ) ;
#296 = CIRCLE ( 'NONE', #36, 4.250000000000000000 ) ;
#297 = DIRECTION ( 'NONE',  ( 1.000000000000000000, 0.000000000000000000, 0.000000000000000000 ) ) ;
#298 = CARTESIAN_POINT ( 'NONE',  ( 0.000000000000000000, 0.000000000000000000, 0.000000000000000000 ) ) ;
#299 = DIRECTION ( 'NONE',  ( -1.000000000000000000, 0.000000000000000000, 0.000000000000000000 ) ) ;
#300 = EDGE_CURVE ( 'NONE', #189, #32, #157, .T. ) ;
#301 = DIRECTION ( 'NONE',  ( 1.000000000000000000, 0.000000000000000000, 0.000000000000000000 ) ) ;
#302 = LOCAL_TIME ( 16, 29, 9.000000000000000000, #350 ) ;
#303 = DIRECTION ( 'NONE',  ( 1.000000000000000000, 0.000000000000000000, -0.000000000000000000 ) ) ;
#304 = CC_DESIGN_DATE_AND_TIME_ASSIGNMENT ( #18, #257, ( #220 ) ) ;
#305 = ORIENTED_EDGE ( 'NONE', *, *, #347, .F. ) ;
#306 = VERTEX_POINT ( 'NONE', #28 ) ;
#307 = PERSON_AND_ORGANIZATION ( #17, #325 ) ;
#308 = ORIENTED_EDGE ( 'NONE', *, *, #68, .T. ) ;
#309 = VERTEX_POINT ( 'NONE', #30 ) ;
#310 = ADVANCED_FACE ( 'NONE', ( #177 ), #331, .F. ) ;
#311 =( LENGTH_UNIT ( ) NAMED_UNIT ( * ) SI_UNIT ( .MILLI., .METRE. ) );
#312 = ORIENTED_EDGE ( 'NONE', *, *, #24, .T. ) ;
#313 = PERSON_AND_ORGANIZATION ( #17, #325 ) ;
#314 = CARTESIAN_POINT ( 'NONE',  ( 0.000000000000000000, 0.000000000000000000, 7.000000000000000000 ) ) ;
#315 = CARTESIAN_POINT ( 'NONE',  ( 0.000000000000000000, 0.000000000000000000, 0.000000000000000000 ) ) ;
#316 = DATE_AND_TIME ( #373, #138 ) ;
#317 = DIRECTION ( 'NONE',  ( 0.000000000000000000, 0.000000000000000000, 1.000000000000000000 ) ) ;
#318 = CIRCLE ( 'NONE', #82, 0.7000000000000000666 ) ;
#319 = AXIS2_PLACEMENT_3D ( 'NONE', #33, #354, #74 ) ;
#320 = CYLINDRICAL_SURFACE ( 'NONE', #295, 6.000000000000000888 ) ;
#321 = PERSON_AND_ORGANIZATION ( #17, #325 ) ;
#322 = DIRECTION ( 'NONE',  ( -0.000000000000000000, -0.000000000000000000, -1.000000000000000000 ) ) ;
#323 = DIRECTION ( 'NONE',  ( -1.000000000000000000, 0.000000000000000000, 0.000000000000000000 ) ) ;
#324 = AXIS2_PLACEMENT_3D ( 'NONE', #315, #265, #203 ) ;
#325 = ORGANIZATION ( 'NEURÈENÝ', 'NEURÈENÝ', '' ) ;
#326 = DIRECTION ( 'NONE',  ( 1.000000000000000000, 0.000000000000000000, 0.000000000000000000 ) ) ;
#327 = CARTESIAN_POINT ( 'NONE',  ( 4.250000000000000000, 5.204748896376249713E-16, 707.0000000000000000 ) ) ;
#328 = ADVANCED_FACE ( 'NONE', ( #358 ), #99, .F. ) ;
#329 = DIRECTION ( 'NONE',  ( 0.000000000000000000, 0.000000000000000000, 1.000000000000000000 ) ) ;
#330 = CARTESIAN_POINT ( 'NONE',  ( 0.000000000000000000, 0.000000000000000000, 7.000000000000000000 ) ) ;
#331 = TOROIDAL_SURFACE ( 'NONE', #379, 6.700000000000001066, 0.6999999999999999556 ) ;
#332 = CC_DESIGN_APPROVAL ( #62, ( #72 ) ) ;
#333 = EDGE_CURVE ( 'NONE', #249, #341, #105, .T. ) ;
#334 = CARTESIAN_POINT ( 'NONE',  ( -10.00000000000000000, 0.000000000000000000, 0.000000000000000000 ) ) ;
#335 = EDGE_LOOP ( 'NONE', ( #273, #312 ) ) ;
#336 = DIRECTION ( 'NONE',  ( 0.000000000000000000, 0.000000000000000000, 1.000000000000000000 ) ) ;
#337 = APPLICATION_CONTEXT ( 'configuration controlled 3d designs of mechanical parts and assemblies' ) ;
#338 = ORIENTED_EDGE ( 'NONE', *, *, #333, .F. ) ;
#339 = AXIS2_PLACEMENT_3D ( 'NONE', #198, #348, #16 ) ;
#340 = ORIENTED_EDGE ( 'NONE', *, *, #233, .T. ) ;
#341 = VERTEX_POINT ( 'NONE', #64 ) ;
#342 = ADVANCED_FACE ( 'NONE', ( #239, #241 ), #184, .T. ) ;
#343 = ORIENTED_EDGE ( 'NONE', *, *, #236, .F. ) ;
#344 = APPROVAL_STATUS ( 'not_yet_approved' ) ;
#345 = DIRECTION ( 'NONE',  ( 1.000000000000000000, 0.000000000000000000, 0.000000000000000000 ) ) ;
#346 = CIRCLE ( 'NONE', #119, 4.250000000000000000 ) ;
#347 = EDGE_CURVE ( 'NONE', #107, #223, #214, .T. ) ;
#348 = DIRECTION ( 'NONE',  ( 0.000000000000000000, 0.000000000000000000, 1.000000000000000000 ) ) ;
#349 = FACE_BOUND ( 'NONE', #69, .T. ) ;
#350 = COORDINATED_UNIVERSAL_TIME_OFFSET ( 1, 0, .AHEAD. ) ;
#351 = DIRECTION ( 'NONE',  ( -0.000000000000000000, -0.000000000000000000, -1.000000000000000000 ) ) ;
#352 = SHAPE_DEFINITION_REPRESENTATION ( #79, #111 ) ;
#353 = DIRECTION ( 'NONE',  ( -1.000000000000000000, 0.000000000000000000, 0.000000000000000000 ) ) ;
#354 = DIRECTION ( 'NONE',  ( 0.000000000000000000, 0.000000000000000000, 1.000000000000000000 ) ) ;
#355 = CARTESIAN_POINT ( 'NONE',  ( 6.700000000000001066, 0.000000000000000000, 7.700000000000040146 ) ) ;
#356 = DIRECTION ( 'NONE',  ( 1.224646799147353207E-16, 1.000000000000000000, -0.000000000000000000 ) ) ;
#357 = LINE ( 'NONE', #60, #227 ) ;
#358 = FACE_OUTER_BOUND ( 'NONE', #365, .T. ) ;
#359 = EDGE_CURVE ( 'NONE', #187, #309, #208, .T. ) ;
#360 = CIRCLE ( 'NONE', #200, 10.00000000000000000 ) ;
#361 = LOCAL_TIME ( 16, 29, 9.000000000000000000, #81 ) ;
#362 = DIRECTION ( 'NONE',  ( 0.000000000000000000, 0.000000000000000000, 1.000000000000000000 ) ) ;
#363 = VERTEX_POINT ( 'NONE', #334 ) ;
#364 = EDGE_CURVE ( 'NONE', #243, #256, #154, .T. ) ;
#365 = EDGE_LOOP ( 'NONE', ( #5, #13, #248, #136 ) ) ;
#366 = EDGE_LOOP ( 'NONE', ( #219, #8, #102, #368 ) ) ;
#367 = PERSON_AND_ORGANIZATION_ROLE ( 'design_owner' ) ;
#368 = ORIENTED_EDGE ( 'NONE', *, *, #278, .F. ) ;
#369 = CC_DESIGN_DATE_AND_TIME_ASSIGNMENT ( #316, #255, ( #98 ) ) ;
#370 = DATE_AND_TIME ( #22, #84 ) ;
#371 = DIRECTION ( 'NONE',  ( 1.000000000000000000, 0.000000000000000000, 0.000000000000000000 ) ) ;
#372 = AXIS2_PLACEMENT_3D ( 'NONE', #250, #336, #67 ) ;
#373 = CALENDAR_DATE ( 2022, 8, 7 ) ;
#374 = CARTESIAN_POINT ( 'NONE',  ( 4.250000000000000000, 5.204748896376249713E-16, 707.0000000000000000 ) ) ;
#375 = PERSON_AND_ORGANIZATION ( #17, #325 ) ;
#376 = DIRECTION ( 'NONE',  ( -0.000000000000000000, -0.000000000000000000, -1.000000000000000000 ) ) ;
#377 = LINE ( 'NONE', #114, #287 ) ;
#378 = CC_DESIGN_PERSON_AND_ORGANIZATION_ASSIGNMENT ( #283, #87, ( #72 ) ) ;
#379 = AXIS2_PLACEMENT_3D ( 'NONE', #122, #3, #2 ) ;
#380 = CYLINDRICAL_SURFACE ( 'NONE', #259, 6.000000000000000888 ) ;
#381 = LINE ( 'NONE', #180, #12 ) ;
ENDSEC;
END-ISO-10303-21;
