ISO-10303-21;
HEADER;
FILE_DESCRIPTION (( 'STEP AP203' ),
    '1' );
FILE_NAME ('3322.STEP',
    '2022-07-08T15:11:27',
    ( '' ),
    ( '' ),
    'SwSTEP 2.0',
    'SolidWorks 2019',
    '' );
FILE_SCHEMA (( 'CONFIG_CONTROL_DESIGN' ));
ENDSEC;

DATA;
#1 = DIRECTION ( 'NONE',  ( -1.000000000000000000, 0.000000000000000000, 0.000000000000000000 ) ) ;
#2 = ADVANCED_FACE ( 'NONE', ( #48 ), #170, .T. ) ;
#3 = DIRECTION ( 'NONE',  ( 0.000000000000000000, -1.000000000000000000, 0.000000000000000000 ) ) ;
#4 = AXIS2_PLACEMENT_3D ( 'NONE', #286, #176, #229 ) ;
#5 = DIRECTION ( 'NONE',  ( -0.000000000000000000, -0.000000000000000000, -1.000000000000000000 ) ) ;
#6 = PERSON_AND_ORGANIZATION_ROLE ( 'classification_officer' ) ;
#7 = PERSON_AND_ORGANIZATION ( #204, #363 ) ;
#8 = DIRECTION ( 'NONE',  ( 0.000000000000000000, 0.000000000000000000, 1.000000000000000000 ) ) ;
#9 = VECTOR ( 'NONE', #206, 1000.000000000000000 ) ;
#10 = APPROVAL_STATUS ( 'not_yet_approved' ) ;
#11 = ORIENTED_EDGE ( 'NONE', *, *, #358, .T. ) ;
#12 = APPROVAL_ROLE ( '' ) ;
#13 = ORIENTED_EDGE ( 'NONE', *, *, #94, .F. ) ;
#14 = CARTESIAN_POINT ( 'NONE',  ( 0.000000000000000000, 0.000000000000000000, 557.0000000000000000 ) ) ;
#15 = EDGE_CURVE ( 'NONE', #47, #140, #64, .T. ) ;
#16 = VERTEX_POINT ( 'NONE', #261 ) ;
#17 = CIRCLE ( 'NONE', #279, 2.500000000000000000 ) ;
#18 = CC_DESIGN_APPROVAL ( #239, ( #331 ) ) ;
#19 = ORIENTED_EDGE ( 'NONE', *, *, #317, .T. ) ;
#20 = APPROVAL_DATE_TIME ( #85, #368 ) ;
#21 = DIRECTION ( 'NONE',  ( -1.000000000000000000, 0.000000000000000000, 0.000000000000000000 ) ) ;
#22 = EDGE_CURVE ( 'NONE', #211, #238, #150, .T. ) ;
#23 = DIRECTION ( 'NONE',  ( -1.000000000000000000, 0.000000000000000000, 0.000000000000000000 ) ) ;
#24 = CIRCLE ( 'NONE', #241, 0.5000000000000004441 ) ;
#25 = DIRECTION ( 'NONE',  ( -0.000000000000000000, -0.000000000000000000, -1.000000000000000000 ) ) ;
#26 = CARTESIAN_POINT ( 'NONE',  ( 6.000000000000000888, 7.347880794884120722E-16, 557.0000000000000000 ) ) ;
#27 = CARTESIAN_POINT ( 'NONE',  ( 2.500000000000000000, 3.061616997868383141E-16, 557.0000000000000000 ) ) ;
#28 = AXIS2_PLACEMENT_3D ( 'NONE', #326, #355, #58 ) ;
#29 = CARTESIAN_POINT ( 'NONE',  ( 0.000000000000000000, 0.000000000000000000, 557.0000000000000000 ) ) ;
#30 = LOCAL_TIME ( 17, 11, 27.00000000000000000, #136 ) ;
#31 = CYLINDRICAL_SURFACE ( 'NONE', #356, 2.500000000000000000 ) ;
#32 = EDGE_CURVE ( 'NONE', #310, #77, #90, .T. ) ;
#33 = CARTESIAN_POINT ( 'NONE',  ( 10.00000000000000000, 1.224646799147353256E-15, 0.000000000000000000 ) ) ;
#34 = EDGE_CURVE ( 'NONE', #140, #47, #328, .T. ) ;
#35 = DIRECTION ( 'NONE',  ( 0.000000000000000000, 0.000000000000000000, 1.000000000000000000 ) ) ;
#36 = CIRCLE ( 'NONE', #49, 6.000000000000000888 ) ;
#37 = PRODUCT_DEFINITION_SHAPE ( 'NONE', 'NONE',  #331 ) ;
#38 = DIRECTION ( 'NONE',  ( 0.000000000000000000, 0.000000000000000000, 1.000000000000000000 ) ) ;
#39 = ADVANCED_FACE ( 'NONE', ( #178, #121 ), #56, .T. ) ;
#40 = CARTESIAN_POINT ( 'NONE',  ( 0.000000000000000000, 0.000000000000000000, 557.0000000000000000 ) ) ;
#41 = APPROVAL_DATE_TIME ( #198, #327 ) ;
#42 = ORIENTED_EDGE ( 'NONE', *, *, #344, .T. ) ;
#43 = AXIS2_PLACEMENT_3D ( 'NONE', #98, #95, #101 ) ;
#44 =( NAMED_UNIT ( * ) PLANE_ANGLE_UNIT ( ) SI_UNIT ( $, .RADIAN. ) );
#45 = ORIENTED_EDGE ( 'NONE', *, *, #243, .F. ) ;
#46 = PERSON_AND_ORGANIZATION ( #204, #363 ) ;
#47 = VERTEX_POINT ( 'NONE', #26 ) ;
#48 = FACE_OUTER_BOUND ( 'NONE', #257, .T. ) ;
#49 = AXIS2_PLACEMENT_3D ( 'NONE', #269, #60, #63 ) ;
#50 = LOCAL_TIME ( 17, 11, 27.00000000000000000, #105 ) ;
#51 = CARTESIAN_POINT ( 'NONE',  ( -6.000000000000000888, 0.000000000000000000, 557.0000000000000000 ) ) ;
#52 = CARTESIAN_POINT ( 'NONE',  ( 0.000000000000000000, 0.000000000000000000, 7.499999999999951150 ) ) ;
#53 = CARTESIAN_POINT ( 'NONE',  ( 0.000000000000000000, 0.000000000000000000, 0.000000000000000000 ) ) ;
#54 = CC_DESIGN_DATE_AND_TIME_ASSIGNMENT ( #220, #367, ( #65 ) ) ;
#55 = SHAPE_DEFINITION_REPRESENTATION ( #37, #81 ) ;
#56 = PLANE ( 'NONE',  #148 ) ;
#57 = FACE_OUTER_BOUND ( 'NONE', #282, .T. ) ;
#58 = DIRECTION ( 'NONE',  ( 1.000000000000000000, 0.000000000000000000, 0.000000000000000000 ) ) ;
#59 = AXIS2_PLACEMENT_3D ( 'NONE', #40, #163, #109 ) ;
#60 = DIRECTION ( 'NONE',  ( 0.000000000000000000, 0.000000000000000000, 1.000000000000000000 ) ) ;
#61 = DIRECTION ( 'NONE',  ( 0.000000000000000000, 0.000000000000000000, -1.000000000000000000 ) ) ;
#62 = FACE_BOUND ( 'NONE', #334, .T. ) ;
#63 = DIRECTION ( 'NONE',  ( 1.000000000000000000, 0.000000000000000000, 0.000000000000000000 ) ) ;
#64 = CIRCLE ( 'NONE', #112, 6.000000000000000888 ) ;
#65 = SECURITY_CLASSIFICATION ( '', '', #365 ) ;
#66 = CALENDAR_DATE ( 2022, 8, 7 ) ;
#67 = EDGE_LOOP ( 'NONE', ( #96, #129, #284, #199 ) ) ;
#68 = DATE_AND_TIME ( #309, #30 ) ;
#69 = ORIENTED_EDGE ( 'NONE', *, *, #75, .F. ) ;
#70 = PERSON_AND_ORGANIZATION ( #204, #363 ) ;
#71 = ORIENTED_EDGE ( 'NONE', *, *, #243, .T. ) ;
#72 = PRODUCT_DEFINITION_FORMATION_WITH_SPECIFIED_SOURCE ( 'LIBOVOLNÝ', '', #237, .NOT_KNOWN. ) ;
#73 = APPROVAL_DATE_TIME ( #340, #239 ) ;
#74 = EDGE_LOOP ( 'NONE', ( #168, #104 ) ) ;
#75 = EDGE_CURVE ( 'NONE', #193, #16, #314, .T. ) ;
#76 = DIRECTION ( 'NONE',  ( 0.000000000000000000, 0.000000000000000000, 1.000000000000000000 ) ) ;
#77 = VERTEX_POINT ( 'NONE', #372 ) ;
#78 = LINE ( 'NONE', #122, #201 ) ;
#79 = APPLICATION_CONTEXT ( 'configuration controlled 3d designs of mechanical parts and assemblies' ) ;
#80 = AXIS2_PLACEMENT_3D ( 'NONE', #53, #175, #345 ) ;
#81 = ADVANCED_BREP_SHAPE_REPRESENTATION ( '3322', ( #333, #337 ), #83 ) ;
#82 = VECTOR ( 'NONE', #200, 1000.000000000000000 ) ;
#83 =( GEOMETRIC_REPRESENTATION_CONTEXT ( 3 ) GLOBAL_UNCERTAINTY_ASSIGNED_CONTEXT ( ( #302 ) ) GLOBAL_UNIT_ASSIGNED_CONTEXT ( ( #301, #44, #254 ) ) REPRESENTATION_CONTEXT ( 'NONE', 'WORKASPACE' ) );
#84 = DIRECTION ( 'NONE',  ( 0.000000000000000000, 0.000000000000000000, 1.000000000000000000 ) ) ;
#85 = DATE_AND_TIME ( #116, #262 ) ;
#86 = FACE_OUTER_BOUND ( 'NONE', #341, .T. ) ;
#87 = EDGE_CURVE ( 'NONE', #219, #142, #374, .T. ) ;
#88 = DIRECTION ( 'NONE',  ( -0.000000000000000000, -0.000000000000000000, -1.000000000000000000 ) ) ;
#89 = ADVANCED_FACE ( 'NONE', ( #379 ), #233, .F. ) ;
#90 = CIRCLE ( 'NONE', #246, 6.500000000000000888 ) ;
#91 = CC_DESIGN_APPROVAL ( #327, ( #72 ) ) ;
#92 = CARTESIAN_POINT ( 'NONE',  ( 0.000000000000000000, 0.000000000000000000, 7.000000000000000000 ) ) ;
#93 = CARTESIAN_POINT ( 'NONE',  ( -2.500000000000000000, 0.000000000000000000, 0.000000000000000000 ) ) ;
#94 = EDGE_CURVE ( 'NONE', #238, #142, #144, .T. ) ;
#95 = DIRECTION ( 'NONE',  ( 0.000000000000000000, 0.000000000000000000, 1.000000000000000000 ) ) ;
#96 = ORIENTED_EDGE ( 'NONE', *, *, #187, .F. ) ;
#97 = AXIS2_PLACEMENT_3D ( 'NONE', #296, #322, #215 ) ;
#98 = CARTESIAN_POINT ( 'NONE',  ( 0.000000000000000000, 0.000000000000000000, 7.000000000000000000 ) ) ;
#99 = DIRECTION ( 'NONE',  ( -0.000000000000000000, -0.000000000000000000, -1.000000000000000000 ) ) ;
#100 = ADVANCED_FACE ( 'NONE', ( #86 ), #376, .F. ) ;
#101 = DIRECTION ( 'NONE',  ( 1.000000000000000000, 0.000000000000000000, 0.000000000000000000 ) ) ;
#102 = CARTESIAN_POINT ( 'NONE',  ( 0.000000000000000000, 0.000000000000000000, 0.000000000000000000 ) ) ;
#103 = CIRCLE ( 'NONE', #343, 10.00000000000000000 ) ;
#104 = ORIENTED_EDGE ( 'NONE', *, *, #15, .T. ) ;
#105 = COORDINATED_UNIVERSAL_TIME_OFFSET ( 1, 0, .AHEAD. ) ;
#106 = ORIENTED_EDGE ( 'NONE', *, *, #120, .F. ) ;
#107 = PERSON_AND_ORGANIZATION ( #204, #363 ) ;
#108 = EDGE_CURVE ( 'NONE', #16, #308, #350, .T. ) ;
#109 = DIRECTION ( 'NONE',  ( -1.000000000000000000, 0.000000000000000000, 0.000000000000000000 ) ) ;
#110 = COORDINATED_UNIVERSAL_TIME_OFFSET ( 1, 0, .AHEAD. ) ;
#111 = ORIENTED_EDGE ( 'NONE', *, *, #32, .T. ) ;
#112 = AXIS2_PLACEMENT_3D ( 'NONE', #278, #8, #259 ) ;
#113 = ADVANCED_FACE ( 'NONE', ( #57 ), #177, .F. ) ;
#114 = PERSON_AND_ORGANIZATION ( #204, #363 ) ;
#115 = ORIENTED_EDGE ( 'NONE', *, *, #358, .F. ) ;
#116 = CALENDAR_DATE ( 2022, 8, 7 ) ;
#117 = VERTEX_POINT ( 'NONE', #227 ) ;
#118 = CARTESIAN_POINT ( 'NONE',  ( 0.000000000000000000, 0.000000000000000000, 7.000000000000000000 ) ) ;
#119 = CIRCLE ( 'NONE', #43, 10.00000000000000000 ) ;
#120 = EDGE_CURVE ( 'NONE', #161, #117, #313, .T. ) ;
#121 = FACE_OUTER_BOUND ( 'NONE', #224, .T. ) ;
#122 = CARTESIAN_POINT ( 'NONE',  ( 6.000000000000000888, 7.347880794884120722E-16, 557.0000000000000000 ) ) ;
#123 = COORDINATED_UNIVERSAL_TIME_OFFSET ( 1, 0, .AHEAD. ) ;
#124 = CARTESIAN_POINT ( 'NONE',  ( -6.000000000000000888, 0.000000000000000000, 557.0000000000000000 ) ) ;
#125 = EDGE_CURVE ( 'NONE', #140, #117, #289, .T. ) ;
#126 = AXIS2_PLACEMENT_3D ( 'NONE', #185, #99, #321 ) ;
#127 = CYLINDRICAL_SURFACE ( 'NONE', #288, 6.000000000000000888 ) ;
#128 = FACE_BOUND ( 'NONE', #145, .T. ) ;
#129 = ORIENTED_EDGE ( 'NONE', *, *, #275, .T. ) ;
#130 = CARTESIAN_POINT ( 'NONE',  ( 6.500000000000000888, 0.000000000000000000, 7.499999999999951150 ) ) ;
#131 = VECTOR ( 'NONE', #283, 1000.000000000000000 ) ;
#132 = DIRECTION ( 'NONE',  ( 0.000000000000000000, 0.000000000000000000, -1.000000000000000000 ) ) ;
#133 = CARTESIAN_POINT ( 'NONE',  ( 0.000000000000000000, 0.000000000000000000, 7.000000000000000000 ) ) ;
#134 = APPROVAL_STATUS ( 'not_yet_approved' ) ;
#135 = EDGE_CURVE ( 'NONE', #47, #161, #78, .T. ) ;
#136 = COORDINATED_UNIVERSAL_TIME_OFFSET ( 1, 0, .AHEAD. ) ;
#137 = AXIS2_PLACEMENT_3D ( 'NONE', #29, #38, #214 ) ;
#138 = ORIENTED_EDGE ( 'NONE', *, *, #221, .T. ) ;
#139 = PERSON_AND_ORGANIZATION ( #204, #363 ) ;
#140 = VERTEX_POINT ( 'NONE', #51 ) ;
#141 = PERSON_AND_ORGANIZATION_ROLE ( 'creator' ) ;
#142 = VERTEX_POINT ( 'NONE', #292 ) ;
#143 = ORIENTED_EDGE ( 'NONE', *, *, #108, .F. ) ;
#144 = CIRCLE ( 'NONE', #80, 10.00000000000000000 ) ;
#145 = EDGE_LOOP ( 'NONE', ( #332, #381 ) ) ;
#146 = DIRECTION ( 'NONE',  ( 1.000000000000000000, 0.000000000000000000, 0.000000000000000000 ) ) ;
#147 = CARTESIAN_POINT ( 'NONE',  ( 0.000000000000000000, 0.000000000000000000, 0.000000000000000000 ) ) ;
#148 = AXIS2_PLACEMENT_3D ( 'NONE', #118, #228, #315 ) ;
#149 = APPROVAL_PERSON_ORGANIZATION ( #7, #239, #12 ) ;
#150 = LINE ( 'NONE', #264, #82 ) ;
#151 = DIRECTION ( 'NONE',  ( 0.000000000000000000, 0.000000000000000000, 1.000000000000000000 ) ) ;
#152 = DIRECTION ( 'NONE',  ( 0.000000000000000000, 0.000000000000000000, -1.000000000000000000 ) ) ;
#153 = AXIS2_PLACEMENT_3D ( 'NONE', #375, #348, #349 ) ;
#154 = ORIENTED_EDGE ( 'NONE', *, *, #272, .T. ) ;
#155 = CARTESIAN_POINT ( 'NONE',  ( 0.000000000000000000, 0.000000000000000000, 557.0000000000000000 ) ) ;
#156 = ADVANCED_FACE ( 'NONE', ( #232 ), #351, .T. ) ;
#157 = CARTESIAN_POINT ( 'NONE',  ( 0.000000000000000000, 0.000000000000000000, 0.000000000000000000 ) ) ;
#158 = DIRECTION ( 'NONE',  ( -1.000000000000000000, 1.224646799147351482E-16, 0.000000000000000000 ) ) ;
#159 = ORIENTED_EDGE ( 'NONE', *, *, #87, .F. ) ;
#160 = PLANE ( 'NONE',  #267 ) ;
#161 = VERTEX_POINT ( 'NONE', #208 ) ;
#162 = MECHANICAL_CONTEXT ( 'NONE', #79, 'mechanical' ) ;
#163 = DIRECTION ( 'NONE',  ( -0.000000000000000000, -0.000000000000000000, -1.000000000000000000 ) ) ;
#164 = CLOSED_SHELL ( 'NONE', ( #335, #89, #303, #183, #156, #39, #263, #2, #256, #113, #100 ) ) ;
#165 = ORIENTED_EDGE ( 'NONE', *, *, #275, .F. ) ;
#166 = ORIENTED_EDGE ( 'NONE', *, *, #22, .F. ) ;
#167 = CARTESIAN_POINT ( 'NONE',  ( -2.500000000000000000, 0.000000000000000000, 557.0000000000000000 ) ) ;
#168 = ORIENTED_EDGE ( 'NONE', *, *, #34, .T. ) ;
#169 = PERSON_AND_ORGANIZATION ( #204, #363 ) ;
#170 = CYLINDRICAL_SURFACE ( 'NONE', #59, 6.000000000000000888 ) ;
#171 = AXIS2_PLACEMENT_3D ( 'NONE', #287, #152, #23 ) ;
#172 = APPROVAL_PERSON_ORGANIZATION ( #114, #327, #281 ) ;
#173 = PERSON_AND_ORGANIZATION ( #204, #363 ) ;
#174 = DIRECTION ( 'NONE',  ( -0.000000000000000000, -0.000000000000000000, -1.000000000000000000 ) ) ;
#175 = DIRECTION ( 'NONE',  ( 0.000000000000000000, 0.000000000000000000, 1.000000000000000000 ) ) ;
#176 = DIRECTION ( 'NONE',  ( 0.000000000000000000, 0.000000000000000000, 1.000000000000000000 ) ) ;
#177 = TOROIDAL_SURFACE ( 'NONE', #4, 6.500000000000000888, 0.5000000000000000000 ) ;
#178 = FACE_BOUND ( 'NONE', #191, .T. ) ;
#179 = DIRECTION ( 'NONE',  ( 1.000000000000000000, 0.000000000000000000, 0.000000000000000000 ) ) ;
#180 = EDGE_LOOP ( 'NONE', ( #294, #364, #371, #285 ) ) ;
#181 = CIRCLE ( 'NONE', #28, 2.500000000000000000 ) ;
#182 = FACE_OUTER_BOUND ( 'NONE', #361, .T. ) ;
#183 = ADVANCED_FACE ( 'NONE', ( #380 ), #357, .T. ) ;
#184 = CARTESIAN_POINT ( 'NONE',  ( 0.000000000000000000, 0.000000000000000000, 7.000000000000000000 ) ) ;
#185 = CARTESIAN_POINT ( 'NONE',  ( 0.000000000000000000, 0.000000000000000000, 7.000000000000000000 ) ) ;
#186 = CIRCLE ( 'NONE', #336, 6.500000000000000888 ) ;
#187 = EDGE_CURVE ( 'NONE', #117, #161, #36, .T. ) ;
#188 = CARTESIAN_POINT ( 'NONE',  ( 0.000000000000000000, 0.000000000000000000, 0.000000000000000000 ) ) ;
#189 = ORIENTED_EDGE ( 'NONE', *, *, #268, .F. ) ;
#190 = CARTESIAN_POINT ( 'NONE',  ( -2.500000000000000000, 0.000000000000000000, 557.0000000000000000 ) ) ;
#191 = EDGE_LOOP ( 'NONE', ( #111, #154 ) ) ;
#192 = CALENDAR_DATE ( 2022, 8, 7 ) ;
#193 = VERTEX_POINT ( 'NONE', #213 ) ;
#194 = VECTOR ( 'NONE', #319, 1000.000000000000000 ) ;
#195 = ORIENTED_EDGE ( 'NONE', *, *, #268, .T. ) ;
#196 = PERSON_AND_ORGANIZATION_ROLE ( 'creator' ) ;
#197 = ORIENTED_EDGE ( 'NONE', *, *, #377, .T. ) ;
#198 = DATE_AND_TIME ( #192, #50 ) ;
#199 = ORIENTED_EDGE ( 'NONE', *, *, #344, .F. ) ;
#200 = DIRECTION ( 'NONE',  ( -0.000000000000000000, -0.000000000000000000, -1.000000000000000000 ) ) ;
#201 = VECTOR ( 'NONE', #88, 1000.000000000000000 ) ;
#202 = PRODUCT_RELATED_PRODUCT_CATEGORY ( 'detail', '', ( #237 ) ) ;
#203 = DIRECTION ( 'NONE',  ( -0.000000000000000000, -0.000000000000000000, -1.000000000000000000 ) ) ;
#204 = PERSON ( 'NEURÈENÝ', 'NEURÈENÝ', 'NEURÈENÝ', ('NEURÈENÝ'), ('NEURÈENÝ'), ('NEURÈENÝ') ) ;
#205 = CARTESIAN_POINT ( 'NONE',  ( 0.000000000000000000, 0.000000000000000000, 7.000000000000000000 ) ) ;
#206 = DIRECTION ( 'NONE',  ( -0.000000000000000000, -0.000000000000000000, -1.000000000000000000 ) ) ;
#207 = AXIS2_PLACEMENT_3D ( 'NONE', #14, #277, #311 ) ;
#208 = CARTESIAN_POINT ( 'NONE',  ( 6.000000000000000888, 7.347880794884120722E-16, 7.499999999999951150 ) ) ;
#209 = APPLICATION_CONTEXT ( 'configuration controlled 3d designs of mechanical parts and assemblies' ) ;
#210 = PLANE ( 'NONE',  #137 ) ;
#211 = VERTEX_POINT ( 'NONE', #352 ) ;
#212 = CC_DESIGN_SECURITY_CLASSIFICATION ( #65, ( #72 ) ) ;
#213 = CARTESIAN_POINT ( 'NONE',  ( 2.500000000000000000, 3.061616997868383141E-16, 557.0000000000000000 ) ) ;
#214 = DIRECTION ( 'NONE',  ( 1.000000000000000000, 0.000000000000000000, -0.000000000000000000 ) ) ;
#215 = DIRECTION ( 'NONE',  ( 1.000000000000000000, 0.000000000000000000, 0.000000000000000000 ) ) ;
#216 = CC_DESIGN_DATE_AND_TIME_ASSIGNMENT ( #68, #248, ( #331 ) ) ;
#217 = AXIS2_PLACEMENT_3D ( 'NONE', #92, #174, #21 ) ;
#218 = DIRECTION ( 'NONE',  ( 1.000000000000000000, 0.000000000000000000, 0.000000000000000000 ) ) ;
#219 = VERTEX_POINT ( 'NONE', #274 ) ;
#220 = DATE_AND_TIME ( #307, #306 ) ;
#221 = EDGE_CURVE ( 'NONE', #193, #370, #181, .T. ) ;
#222 = EDGE_LOOP ( 'NONE', ( #189, #330, #249, #159 ) ) ;
#223 = CIRCLE ( 'NONE', #207, 2.500000000000000000 ) ;
#224 = EDGE_LOOP ( 'NONE', ( #19, #195 ) ) ;
#225 = APPLICATION_PROTOCOL_DEFINITION ( 'international standard', 'config_control_design', 1994, #209 ) ;
#226 = ORIENTED_EDGE ( 'NONE', *, *, #325, .T. ) ;
#227 = CARTESIAN_POINT ( 'NONE',  ( -6.000000000000000888, 0.000000000000000000, 7.499999999999951150 ) ) ;
#228 = DIRECTION ( 'NONE',  ( 0.000000000000000000, 0.000000000000000000, 1.000000000000000000 ) ) ;
#229 = DIRECTION ( 'NONE',  ( 1.000000000000000000, 0.000000000000000000, 0.000000000000000000 ) ) ;
#230 = DIRECTION ( 'NONE',  ( 1.000000000000000000, 0.000000000000000000, 0.000000000000000000 ) ) ;
#231 = CC_DESIGN_PERSON_AND_ORGANIZATION_ASSIGNMENT ( #107, #6, ( #65 ) ) ;
#232 = FACE_OUTER_BOUND ( 'NONE', #280, .T. ) ;
#233 = TOROIDAL_SURFACE ( 'NONE', #298, 6.500000000000000888, 0.5000000000000000000 ) ;
#234 = CC_DESIGN_APPROVAL ( #368, ( #65 ) ) ;
#235 = DIRECTION ( 'NONE',  ( -0.000000000000000000, -0.000000000000000000, -1.000000000000000000 ) ) ;
#236 = DIRECTION ( 'NONE',  ( 1.000000000000000000, 0.000000000000000000, 0.000000000000000000 ) ) ;
#237 = PRODUCT ( '3322', '3322', '', ( #162 ) ) ;
#238 = VERTEX_POINT ( 'NONE', #33 ) ;
#239 = APPROVAL ( #10, 'NEURÈENÝ' ) ;
#240 = FACE_OUTER_BOUND ( 'NONE', #251, .T. ) ;
#241 = AXIS2_PLACEMENT_3D ( 'NONE', #130, #3, #132 ) ;
#242 = LINE ( 'NONE', #167, #131 ) ;
#243 = EDGE_CURVE ( 'NONE', #308, #16, #17, .T. ) ;
#244 = DIRECTION ( 'NONE',  ( -1.000000000000000000, 0.000000000000000000, 0.000000000000000000 ) ) ;
#245 = APPLICATION_PROTOCOL_DEFINITION ( 'international standard', 'config_control_design', 1994, #79 ) ;
#246 = AXIS2_PLACEMENT_3D ( 'NONE', #205, #203, #146 ) ;
#247 = AXIS2_PLACEMENT_3D ( 'NONE', #353, #293, #158 ) ;
#248 = DATE_TIME_ROLE ( 'creation_date' ) ;
#249 = ORIENTED_EDGE ( 'NONE', *, *, #94, .T. ) ;
#250 = PERSON_AND_ORGANIZATION_ROLE ( 'design_supplier' ) ;
#251 = EDGE_LOOP ( 'NONE', ( #197, #300, #304, #115 ) ) ;
#252 = CC_DESIGN_PERSON_AND_ORGANIZATION_ASSIGNMENT ( #139, #250, ( #72 ) ) ;
#253 = ORIENTED_EDGE ( 'NONE', *, *, #125, .T. ) ;
#254 =( NAMED_UNIT ( * ) SI_UNIT ( $, .STERADIAN. ) SOLID_ANGLE_UNIT ( ) );
#255 = ORIENTED_EDGE ( 'NONE', *, *, #87, .T. ) ;
#256 = ADVANCED_FACE ( 'NONE', ( #128, #297 ), #210, .T. ) ;
#257 = EDGE_LOOP ( 'NONE', ( #312, #366, #253, #339 ) ) ;
#258 = CC_DESIGN_PERSON_AND_ORGANIZATION_ASSIGNMENT ( #169, #196, ( #331 ) ) ;
#259 = DIRECTION ( 'NONE',  ( 1.000000000000000000, 0.000000000000000000, 0.000000000000000000 ) ) ;
#260 = CIRCLE ( 'NONE', #97, 10.00000000000000000 ) ;
#261 = CARTESIAN_POINT ( 'NONE',  ( 2.500000000000000000, 3.061616997868383141E-16, 0.000000000000000000 ) ) ;
#262 = LOCAL_TIME ( 17, 11, 27.00000000000000000, #123 ) ;
#263 = ADVANCED_FACE ( 'NONE', ( #62, #182 ), #160, .F. ) ;
#264 = CARTESIAN_POINT ( 'NONE',  ( 10.00000000000000000, 1.224646799147353256E-15, 7.000000000000000000 ) ) ;
#265 = DIRECTION ( 'NONE',  ( 1.000000000000000000, 0.000000000000000000, 0.000000000000000000 ) ) ;
#266 = CARTESIAN_POINT ( 'NONE',  ( -10.00000000000000000, 0.000000000000000000, 7.000000000000000000 ) ) ;
#267 = AXIS2_PLACEMENT_3D ( 'NONE', #157, #35, #324 ) ;
#268 = EDGE_CURVE ( 'NONE', #211, #219, #103, .T. ) ;
#269 = CARTESIAN_POINT ( 'NONE',  ( 0.000000000000000000, 0.000000000000000000, 7.499999999999951150 ) ) ;
#270 = CC_DESIGN_PERSON_AND_ORGANIZATION_ASSIGNMENT ( #46, #141, ( #72 ) ) ;
#271 = CARTESIAN_POINT ( 'NONE',  ( 0.000000000000000000, 0.000000000000000000, 557.0000000000000000 ) ) ;
#272 = EDGE_CURVE ( 'NONE', #77, #310, #186, .T. ) ;
#273 = FACE_OUTER_BOUND ( 'NONE', #180, .T. ) ;
#274 = CARTESIAN_POINT ( 'NONE',  ( -10.00000000000000000, 0.000000000000000000, 7.000000000000000000 ) ) ;
#275 = EDGE_CURVE ( 'NONE', #117, #77, #318, .T. ) ;
#276 = DIRECTION ( 'NONE',  ( 0.000000000000000000, 0.000000000000000000, 1.000000000000000000 ) ) ;
#277 = DIRECTION ( 'NONE',  ( 0.000000000000000000, 0.000000000000000000, 1.000000000000000000 ) ) ;
#278 = CARTESIAN_POINT ( 'NONE',  ( 0.000000000000000000, 0.000000000000000000, 557.0000000000000000 ) ) ;
#279 = AXIS2_PLACEMENT_3D ( 'NONE', #188, #299, #295 ) ;
#280 = EDGE_LOOP ( 'NONE', ( #166, #369, #255, #226 ) ) ;
#281 = APPROVAL_ROLE ( '' ) ;
#282 = EDGE_LOOP ( 'NONE', ( #165, #106, #42, #305 ) ) ;
#283 = DIRECTION ( 'NONE',  ( 0.000000000000000000, 0.000000000000000000, -1.000000000000000000 ) ) ;
#284 = ORIENTED_EDGE ( 'NONE', *, *, #32, .F. ) ;
#285 = ORIENTED_EDGE ( 'NONE', *, *, #125, .F. ) ;
#286 = CARTESIAN_POINT ( 'NONE',  ( 0.000000000000000000, 0.000000000000000000, 7.499999999999951150 ) ) ;
#287 = CARTESIAN_POINT ( 'NONE',  ( 0.000000000000000000, 0.000000000000000000, 557.0000000000000000 ) ) ;
#288 = AXIS2_PLACEMENT_3D ( 'NONE', #155, #235, #244 ) ;
#289 = LINE ( 'NONE', #124, #362 ) ;
#290 = APPROVAL_PERSON_ORGANIZATION ( #173, #368, #346 ) ;
#291 = APPROVAL_STATUS ( 'not_yet_approved' ) ;
#292 = CARTESIAN_POINT ( 'NONE',  ( -10.00000000000000000, 0.000000000000000000, 0.000000000000000000 ) ) ;
#293 = DIRECTION ( 'NONE',  ( 1.224646799147353207E-16, 1.000000000000000000, -0.000000000000000000 ) ) ;
#294 = ORIENTED_EDGE ( 'NONE', *, *, #15, .F. ) ;
#295 = DIRECTION ( 'NONE',  ( 1.000000000000000000, 0.000000000000000000, 0.000000000000000000 ) ) ;
#296 = CARTESIAN_POINT ( 'NONE',  ( 0.000000000000000000, 0.000000000000000000, 0.000000000000000000 ) ) ;
#297 = FACE_OUTER_BOUND ( 'NONE', #74, .T. ) ;
#298 = AXIS2_PLACEMENT_3D ( 'NONE', #52, #151, #230 ) ;
#299 = DIRECTION ( 'NONE',  ( -0.000000000000000000, -0.000000000000000000, -1.000000000000000000 ) ) ;
#300 = ORIENTED_EDGE ( 'NONE', *, *, #75, .T. ) ;
#301 =( LENGTH_UNIT ( ) NAMED_UNIT ( * ) SI_UNIT ( .MILLI., .METRE. ) );
#302 = UNCERTAINTY_MEASURE_WITH_UNIT (LENGTH_MEASURE( 1.000000000000000082E-05 ), #301, 'distance_accuracy_value', 'NONE');
#303 = ADVANCED_FACE ( 'NONE', ( #273 ), #127, .T. ) ;
#304 = ORIENTED_EDGE ( 'NONE', *, *, #108, .T. ) ;
#305 = ORIENTED_EDGE ( 'NONE', *, *, #272, .F. ) ;
#306 = LOCAL_TIME ( 17, 11, 27.00000000000000000, #110 ) ;
#307 = CALENDAR_DATE ( 2022, 8, 7 ) ;
#308 = VERTEX_POINT ( 'NONE', #93 ) ;
#309 = CALENDAR_DATE ( 2022, 8, 7 ) ;
#310 = VERTEX_POINT ( 'NONE', #359 ) ;
#311 = DIRECTION ( 'NONE',  ( 1.000000000000000000, 0.000000000000000000, 0.000000000000000000 ) ) ;
#312 = ORIENTED_EDGE ( 'NONE', *, *, #135, .F. ) ;
#313 = CIRCLE ( 'NONE', #153, 6.000000000000000888 ) ;
#314 = LINE ( 'NONE', #27, #194 ) ;
#315 = DIRECTION ( 'NONE',  ( 1.000000000000000000, 0.000000000000000000, -0.000000000000000000 ) ) ;
#316 = CARTESIAN_POINT ( 'NONE',  ( 0.000000000000000000, 0.000000000000000000, 557.0000000000000000 ) ) ;
#317 = EDGE_CURVE ( 'NONE', #219, #211, #119, .T. ) ;
#318 = CIRCLE ( 'NONE', #247, 0.5000000000000004441 ) ;
#319 = DIRECTION ( 'NONE',  ( 0.000000000000000000, 0.000000000000000000, -1.000000000000000000 ) ) ;
#320 = DIRECTION ( 'NONE',  ( -0.000000000000000000, -0.000000000000000000, -1.000000000000000000 ) ) ;
#321 = DIRECTION ( 'NONE',  ( -1.000000000000000000, 0.000000000000000000, 0.000000000000000000 ) ) ;
#322 = DIRECTION ( 'NONE',  ( 0.000000000000000000, 0.000000000000000000, 1.000000000000000000 ) ) ;
#323 = LOCAL_TIME ( 17, 11, 27.00000000000000000, #329 ) ;
#324 = DIRECTION ( 'NONE',  ( 1.000000000000000000, 0.000000000000000000, -0.000000000000000000 ) ) ;
#325 = EDGE_CURVE ( 'NONE', #142, #238, #260, .T. ) ;
#326 = CARTESIAN_POINT ( 'NONE',  ( 0.000000000000000000, 0.000000000000000000, 557.0000000000000000 ) ) ;
#327 = APPROVAL ( #134, 'NEURÈENÝ' ) ;
#328 = CIRCLE ( 'NONE', #378, 6.000000000000000888 ) ;
#329 = COORDINATED_UNIVERSAL_TIME_OFFSET ( 1, 0, .AHEAD. ) ;
#330 = ORIENTED_EDGE ( 'NONE', *, *, #22, .T. ) ;
#331 = PRODUCT_DEFINITION ( 'NEZNÁMÝ', '', #72, #360 ) ;
#332 = ORIENTED_EDGE ( 'NONE', *, *, #377, .F. ) ;
#333 = MANIFOLD_SOLID_BREP ( 'Odebrat vysunutím3', #164 ) ;
#334 = EDGE_LOOP ( 'NONE', ( #45, #143 ) ) ;
#335 = ADVANCED_FACE ( 'NONE', ( #240 ), #31, .F. ) ;
#336 = AXIS2_PLACEMENT_3D ( 'NONE', #133, #5, #236 ) ;
#337 = AXIS2_PLACEMENT_3D ( 'NONE', #102, #76, #218 ) ;
#338 = PERSON_AND_ORGANIZATION_ROLE ( 'design_owner' ) ;
#339 = ORIENTED_EDGE ( 'NONE', *, *, #187, .T. ) ;
#340 = DATE_AND_TIME ( #66, #323 ) ;
#341 = EDGE_LOOP ( 'NONE', ( #69, #138, #11, #71 ) ) ;
#342 = DIRECTION ( 'NONE',  ( 1.000000000000000000, 0.000000000000000000, 0.000000000000000000 ) ) ;
#343 = AXIS2_PLACEMENT_3D ( 'NONE', #184, #276, #179 ) ;
#344 = EDGE_CURVE ( 'NONE', #161, #310, #24, .T. ) ;
#345 = DIRECTION ( 'NONE',  ( 1.000000000000000000, 0.000000000000000000, 0.000000000000000000 ) ) ;
#346 = APPROVAL_ROLE ( '' ) ;
#347 = CC_DESIGN_PERSON_AND_ORGANIZATION_ASSIGNMENT ( #70, #338, ( #237 ) ) ;
#348 = DIRECTION ( 'NONE',  ( 0.000000000000000000, 0.000000000000000000, 1.000000000000000000 ) ) ;
#349 = DIRECTION ( 'NONE',  ( 1.000000000000000000, 0.000000000000000000, 0.000000000000000000 ) ) ;
#350 = CIRCLE ( 'NONE', #373, 2.500000000000000000 ) ;
#351 = CYLINDRICAL_SURFACE ( 'NONE', #217, 10.00000000000000000 ) ;
#352 = CARTESIAN_POINT ( 'NONE',  ( 10.00000000000000000, 1.224646799147353256E-15, 7.000000000000000000 ) ) ;
#353 = CARTESIAN_POINT ( 'NONE',  ( -6.500000000000000888, 7.960204194457796463E-16, 7.499999999999951150 ) ) ;
#354 = ORIENTED_EDGE ( 'NONE', *, *, #325, .F. ) ;
#355 = DIRECTION ( 'NONE',  ( 0.000000000000000000, 0.000000000000000000, 1.000000000000000000 ) ) ;
#356 = AXIS2_PLACEMENT_3D ( 'NONE', #271, #61, #1 ) ;
#357 = CYLINDRICAL_SURFACE ( 'NONE', #126, 10.00000000000000000 ) ;
#358 = EDGE_CURVE ( 'NONE', #370, #308, #242, .T. ) ;
#359 = CARTESIAN_POINT ( 'NONE',  ( 6.500000000000000888, 0.000000000000000000, 6.999999999999975131 ) ) ;
#360 = DESIGN_CONTEXT ( 'detailed design', #209, 'design' ) ;
#361 = EDGE_LOOP ( 'NONE', ( #354, #13 ) ) ;
#362 = VECTOR ( 'NONE', #25, 1000.000000000000000 ) ;
#363 = ORGANIZATION ( 'NEURÈENÝ', 'NEURÈENÝ', '' ) ;
#364 = ORIENTED_EDGE ( 'NONE', *, *, #135, .T. ) ;
#365 = SECURITY_CLASSIFICATION_LEVEL ( 'unclassified' ) ;
#366 = ORIENTED_EDGE ( 'NONE', *, *, #34, .F. ) ;
#367 = DATE_TIME_ROLE ( 'classification_date' ) ;
#368 = APPROVAL ( #291, 'NEURÈENÝ' ) ;
#369 = ORIENTED_EDGE ( 'NONE', *, *, #317, .F. ) ;
#370 = VERTEX_POINT ( 'NONE', #190 ) ;
#371 = ORIENTED_EDGE ( 'NONE', *, *, #120, .T. ) ;
#372 = CARTESIAN_POINT ( 'NONE',  ( -6.500000000000000888, 7.960204194457796463E-16, 6.999999999999975131 ) ) ;
#373 = AXIS2_PLACEMENT_3D ( 'NONE', #147, #320, #265 ) ;
#374 = LINE ( 'NONE', #266, #9 ) ;
#375 = CARTESIAN_POINT ( 'NONE',  ( 0.000000000000000000, 0.000000000000000000, 7.499999999999951150 ) ) ;
#376 = CYLINDRICAL_SURFACE ( 'NONE', #171, 2.500000000000000000 ) ;
#377 = EDGE_CURVE ( 'NONE', #370, #193, #223, .T. ) ;
#378 = AXIS2_PLACEMENT_3D ( 'NONE', #316, #84, #342 ) ;
#379 = FACE_OUTER_BOUND ( 'NONE', #67, .T. ) ;
#380 = FACE_OUTER_BOUND ( 'NONE', #222, .T. ) ;
#381 = ORIENTED_EDGE ( 'NONE', *, *, #221, .F. ) ;
ENDSEC;
END-ISO-10303-21;
