ISO-10303-21;
HEADER;
FILE_DESCRIPTION (( 'STEP AP203' ),
    '1' );
FILE_NAME ('0ce1.STEP',
    '2022-07-08T15:45:42',
    ( '' ),
    ( '' ),
    'SwSTEP 2.0',
    'SolidWorks 2019',
    '' );
FILE_SCHEMA (( 'CONFIG_CONTROL_DESIGN' ));
ENDSEC;

DATA;
#1 = APPROVAL_ROLE ( '' ) ;
#2 = EDGE_CURVE ( 'NONE', #281, #221, #145, .T. ) ;
#3 = DIRECTION ( 'NONE',  ( 0.000000000000000000, 0.000000000000000000, 1.000000000000000000 ) ) ;
#4 = AXIS2_PLACEMENT_3D ( 'NONE', #356, #182, #209 ) ;
#5 = CIRCLE ( 'NONE', #122, 2.799999999999999822 ) ;
#6 = DIRECTION ( 'NONE',  ( -0.000000000000000000, -0.000000000000000000, -1.000000000000000000 ) ) ;
#7 = CARTESIAN_POINT ( 'NONE',  ( 5.000000000000000000, 6.123233995736766282E-16, 3.000000000000000000 ) ) ;
#8 = DIRECTION ( 'NONE',  ( 1.000000000000000000, 0.000000000000000000, -0.000000000000000000 ) ) ;
#9 = LINE ( 'NONE', #158, #260 ) ;
#10 = LOCAL_TIME ( 17, 45, 42.00000000000000000, #289 ) ;
#11 = ORIENTED_EDGE ( 'NONE', *, *, #177, .F. ) ;
#12 = LINE ( 'NONE', #132, #87 ) ;
#13 = ORIENTED_EDGE ( 'NONE', *, *, #108, .F. ) ;
#14 = EDGE_CURVE ( 'NONE', #21, #194, #319, .T. ) ;
#15 = DIRECTION ( 'NONE',  ( 0.000000000000000000, 0.000000000000000000, 1.000000000000000000 ) ) ;
#16 = ORIENTED_EDGE ( 'NONE', *, *, #251, .T. ) ;
#17 = AXIS2_PLACEMENT_3D ( 'NONE', #296, #323, #61 ) ;
#18 = ORIENTED_EDGE ( 'NONE', *, *, #343, .T. ) ;
#19 = ORIENTED_EDGE ( 'NONE', *, *, #108, .T. ) ;
#20 = FACE_OUTER_BOUND ( 'NONE', #74, .T. ) ;
#21 = VERTEX_POINT ( 'NONE', #81 ) ;
#22 = VECTOR ( 'NONE', #346, 1000.000000000000000 ) ;
#23 = APPLICATION_PROTOCOL_DEFINITION ( 'international standard', 'config_control_design', 1994, #211 ) ;
#24 = CARTESIAN_POINT ( 'NONE',  ( 0.000000000000000000, 0.000000000000000000, 0.000000000000000000 ) ) ;
#25 = EDGE_CURVE ( 'NONE', #109, #46, #258, .T. ) ;
#26 = ORIENTED_EDGE ( 'NONE', *, *, #285, .F. ) ;
#27 = AXIS2_PLACEMENT_3D ( 'NONE', #168, #79, #232 ) ;
#28 = DIRECTION ( 'NONE',  ( -1.000000000000000000, 0.000000000000000000, 0.000000000000000000 ) ) ;
#29 = PERSON_AND_ORGANIZATION ( #167, #173 ) ;
#30 = DIRECTION ( 'NONE',  ( -1.000000000000000000, 0.000000000000000000, 0.000000000000000000 ) ) ;
#31 = EDGE_CURVE ( 'NONE', #367, #216, #302, .T. ) ;
#32 = CARTESIAN_POINT ( 'NONE',  ( -2.500000000000000000, 0.000000000000000000, 3.299999999999997158 ) ) ;
#33 = CARTESIAN_POINT ( 'NONE',  ( 1.500000000000000222, 1.836970198721030181E-16, 153.0000000000000000 ) ) ;
#34 = CYLINDRICAL_SURFACE ( 'NONE', #202, 2.500000000000000000 ) ;
#35 = DATE_AND_TIME ( #327, #60 ) ;
#36 = CC_DESIGN_PERSON_AND_ORGANIZATION_ASSIGNMENT ( #255, #59, ( #131 ) ) ;
#37 = DIRECTION ( 'NONE',  ( -1.000000000000000000, 0.000000000000000000, 0.000000000000000000 ) ) ;
#38 = CARTESIAN_POINT ( 'NONE',  ( 0.000000000000000000, 0.000000000000000000, 3.000000000000000000 ) ) ;
#39 = ORIENTED_EDGE ( 'NONE', *, *, #285, .T. ) ;
#40 = ORIENTED_EDGE ( 'NONE', *, *, #14, .T. ) ;
#41 = ADVANCED_FACE ( 'NONE', ( #318 ), #98, .F. ) ;
#42 = ORIENTED_EDGE ( 'NONE', *, *, #203, .T. ) ;
#43 = ORIENTED_EDGE ( 'NONE', *, *, #97, .F. ) ;
#44 = EDGE_LOOP ( 'NONE', ( #89, #362, #246, #334 ) ) ;
#45 = LOCAL_TIME ( 17, 45, 42.00000000000000000, #354 ) ;
#46 = VERTEX_POINT ( 'NONE', #200 ) ;
#47 = PRODUCT_DEFINITION_SHAPE ( 'NONE', 'NONE',  #91 ) ;
#48 = CARTESIAN_POINT ( 'NONE',  ( 0.000000000000000000, 0.000000000000000000, 153.0000000000000000 ) ) ;
#49 = DIRECTION ( 'NONE',  ( 0.000000000000000000, 0.000000000000000000, 1.000000000000000000 ) ) ;
#50 = AXIS2_PLACEMENT_3D ( 'NONE', #179, #222, #110 ) ;
#51 = CARTESIAN_POINT ( 'NONE',  ( -2.799999999999999822, 3.429011037612588783E-16, 3.299999999999997158 ) ) ;
#52 = EDGE_CURVE ( 'NONE', #194, #138, #104, .T. ) ;
#53 = APPROVAL_PERSON_ORGANIZATION ( #294, #309, #317 ) ;
#54 = CYLINDRICAL_SURFACE ( 'NONE', #72, 5.000000000000000000 ) ;
#55 = COORDINATED_UNIVERSAL_TIME_OFFSET ( 1, 0, .AHEAD. ) ;
#56 = CARTESIAN_POINT ( 'NONE',  ( 0.000000000000000000, 0.000000000000000000, 3.299999999999997158 ) ) ;
#57 = CC_DESIGN_DATE_AND_TIME_ASSIGNMENT ( #379, #118, ( #91 ) ) ;
#58 = CARTESIAN_POINT ( 'NONE',  ( -5.000000000000000000, 0.000000000000000000, 3.000000000000000000 ) ) ;
#59 = PERSON_AND_ORGANIZATION_ROLE ( 'design_owner' ) ;
#60 = LOCAL_TIME ( 17, 45, 42.00000000000000000, #273 ) ;
#61 = DIRECTION ( 'NONE',  ( 1.000000000000000000, 0.000000000000000000, 0.000000000000000000 ) ) ;
#62 = APPROVAL_STATUS ( 'not_yet_approved' ) ;
#63 = DIRECTION ( 'NONE',  ( -0.000000000000000000, -0.000000000000000000, -1.000000000000000000 ) ) ;
#64 = CARTESIAN_POINT ( 'NONE',  ( 0.000000000000000000, 0.000000000000000000, 153.0000000000000000 ) ) ;
#65 = DIRECTION ( 'NONE',  ( 1.000000000000000000, 0.000000000000000000, 0.000000000000000000 ) ) ;
#66 = FACE_OUTER_BOUND ( 'NONE', #106, .T. ) ;
#67 = ORIENTED_EDGE ( 'NONE', *, *, #244, .T. ) ;
#68 = ADVANCED_FACE ( 'NONE', ( #20 ), #284, .T. ) ;
#69 = VERTEX_POINT ( 'NONE', #198 ) ;
#70 = APPLICATION_CONTEXT ( 'configuration controlled 3d designs of mechanical parts and assemblies' ) ;
#71 = DIRECTION ( 'NONE',  ( -0.000000000000000000, -0.000000000000000000, -1.000000000000000000 ) ) ;
#72 = AXIS2_PLACEMENT_3D ( 'NONE', #257, #375, #30 ) ;
#73 = EDGE_LOOP ( 'NONE', ( #191, #43 ) ) ;
#74 = EDGE_LOOP ( 'NONE', ( #13, #133, #276, #189 ) ) ;
#75 = CIRCLE ( 'NONE', #127, 2.500000000000000000 ) ;
#76 = ORIENTED_EDGE ( 'NONE', *, *, #251, .F. ) ;
#77 = APPROVAL ( #183, 'NEURÈENÝ' ) ;
#78 = DIRECTION ( 'NONE',  ( 0.000000000000000000, 0.000000000000000000, 1.000000000000000000 ) ) ;
#79 = DIRECTION ( 'NONE',  ( 0.000000000000000000, 0.000000000000000000, 1.000000000000000000 ) ) ;
#80 = AXIS2_PLACEMENT_3D ( 'NONE', #56, #78, #369 ) ;
#81 = CARTESIAN_POINT ( 'NONE',  ( 2.500000000000000000, 3.061616997868383141E-16, 3.299999999999997158 ) ) ;
#82 = CIRCLE ( 'NONE', #358, 1.500000000000000222 ) ;
#83 = ADVANCED_FACE ( 'NONE', ( #349 ), #196, .F. ) ;
#84 = ADVANCED_BREP_SHAPE_REPRESENTATION ( '0ce1', ( #148, #154 ), #100 ) ;
#85 = ORIENTED_EDGE ( 'NONE', *, *, #152, .F. ) ;
#86 = AXIS2_PLACEMENT_3D ( 'NONE', #24, #49, #170 ) ;
#87 = VECTOR ( 'NONE', #270, 1000.000000000000000 ) ;
#88 = COORDINATED_UNIVERSAL_TIME_OFFSET ( 1, 0, .AHEAD. ) ;
#89 = ORIENTED_EDGE ( 'NONE', *, *, #102, .F. ) ;
#90 = CALENDAR_DATE ( 2022, 8, 7 ) ;
#91 = PRODUCT_DEFINITION ( 'NEZNÁMÝ', '', #210, #223 ) ;
#92 = APPROVAL_DATE_TIME ( #292, #272 ) ;
#93 = DIRECTION ( 'NONE',  ( -0.000000000000000000, -0.000000000000000000, -1.000000000000000000 ) ) ;
#94 = CALENDAR_DATE ( 2022, 8, 7 ) ;
#95 = FACE_OUTER_BOUND ( 'NONE', #164, .T. ) ;
#96 = DIRECTION ( 'NONE',  ( 0.000000000000000000, 0.000000000000000000, 1.000000000000000000 ) ) ;
#97 = EDGE_CURVE ( 'NONE', #69, #163, #82, .T. ) ;
#98 = TOROIDAL_SURFACE ( 'NONE', #50, 2.799999999999999822, 0.2999999999999999889 ) ;
#99 = DIRECTION ( 'NONE',  ( 0.000000000000000000, 0.000000000000000000, 1.000000000000000000 ) ) ;
#100 =( GEOMETRIC_REPRESENTATION_CONTEXT ( 3 ) GLOBAL_UNCERTAINTY_ASSIGNED_CONTEXT ( ( #214 ) ) GLOBAL_UNIT_ASSIGNED_CONTEXT ( ( #333, #275, #101 ) ) REPRESENTATION_CONTEXT ( 'NONE', 'WORKASPACE' ) );
#101 =( NAMED_UNIT ( * ) SI_UNIT ( $, .STERADIAN. ) SOLID_ANGLE_UNIT ( ) );
#102 = EDGE_CURVE ( 'NONE', #194, #21, #75, .T. ) ;
#103 = VERTEX_POINT ( 'NONE', #316 ) ;
#104 = CIRCLE ( 'NONE', #308, 0.2999999999999999334 ) ;
#105 = CARTESIAN_POINT ( 'NONE',  ( 5.000000000000000000, 6.123233995736766282E-16, 0.000000000000000000 ) ) ;
#106 = EDGE_LOOP ( 'NONE', ( #11, #159, #18, #130 ) ) ;
#107 = ORIENTED_EDGE ( 'NONE', *, *, #31, .F. ) ;
#108 = EDGE_CURVE ( 'NONE', #304, #103, #178, .T. ) ;
#109 = VERTEX_POINT ( 'NONE', #228 ) ;
#110 = DIRECTION ( 'NONE',  ( 1.000000000000000000, 0.000000000000000000, 0.000000000000000000 ) ) ;
#111 = CC_DESIGN_SECURITY_CLASSIFICATION ( #366, ( #210 ) ) ;
#112 = CYLINDRICAL_SURFACE ( 'NONE', #231, 1.500000000000000222 ) ;
#113 = DIRECTION ( 'NONE',  ( -0.000000000000000000, -0.000000000000000000, -1.000000000000000000 ) ) ;
#114 = PERSON_AND_ORGANIZATION ( #167, #173 ) ;
#115 = DIRECTION ( 'NONE',  ( 0.000000000000000000, 0.000000000000000000, 1.000000000000000000 ) ) ;
#116 = ORIENTED_EDGE ( 'NONE', *, *, #325, .T. ) ;
#117 = CIRCLE ( 'NONE', #329, 1.500000000000000222 ) ;
#118 = DATE_TIME_ROLE ( 'creation_date' ) ;
#119 = PERSON_AND_ORGANIZATION ( #167, #173 ) ;
#120 = DIRECTION ( 'NONE',  ( 1.000000000000000000, 0.000000000000000000, 0.000000000000000000 ) ) ;
#121 = VECTOR ( 'NONE', #93, 1000.000000000000000 ) ;
#122 = AXIS2_PLACEMENT_3D ( 'NONE', #38, #134, #313 ) ;
#123 = CC_DESIGN_PERSON_AND_ORGANIZATION_ASSIGNMENT ( #174, #207, ( #91 ) ) ;
#124 = FACE_BOUND ( 'NONE', #307, .T. ) ;
#125 = PERSON_AND_ORGANIZATION ( #167, #173 ) ;
#126 = CARTESIAN_POINT ( 'NONE',  ( 2.799999999999999822, 0.000000000000000000, 2.999999999999998668 ) ) ;
#127 = AXIS2_PLACEMENT_3D ( 'NONE', #380, #115, #172 ) ;
#128 = CYLINDRICAL_SURFACE ( 'NONE', #265, 2.500000000000000000 ) ;
#129 = EDGE_CURVE ( 'NONE', #216, #367, #190, .T. ) ;
#130 = ORIENTED_EDGE ( 'NONE', *, *, #102, .T. ) ;
#131 = PRODUCT ( '0ce1', '0ce1', '', ( #345 ) ) ;
#132 = CARTESIAN_POINT ( 'NONE',  ( -1.500000000000000222, 0.000000000000000000, 153.0000000000000000 ) ) ;
#133 = ORIENTED_EDGE ( 'NONE', *, *, #152, .T. ) ;
#134 = DIRECTION ( 'NONE',  ( -0.000000000000000000, -0.000000000000000000, -1.000000000000000000 ) ) ;
#135 = ORIENTED_EDGE ( 'NONE', *, *, #97, .T. ) ;
#136 = CC_DESIGN_PERSON_AND_ORGANIZATION_ASSIGNMENT ( #119, #237, ( #366 ) ) ;
#137 = CC_DESIGN_APPROVAL ( #309, ( #91 ) ) ;
#138 = VERTEX_POINT ( 'NONE', #311 ) ;
#139 = ORIENTED_EDGE ( 'NONE', *, *, #217, .F. ) ;
#140 = AXIS2_PLACEMENT_3D ( 'NONE', #175, #205, #314 ) ;
#141 = DIRECTION ( 'NONE',  ( 0.000000000000000000, 0.000000000000000000, 1.000000000000000000 ) ) ;
#142 = EDGE_LOOP ( 'NONE', ( #39, #16, #135, #220 ) ) ;
#143 = APPROVAL_PERSON_ORGANIZATION ( #125, #77, #301 ) ;
#144 = FACE_OUTER_BOUND ( 'NONE', #271, .T. ) ;
#145 = CIRCLE ( 'NONE', #27, 2.500000000000000000 ) ;
#146 = DIRECTION ( 'NONE',  ( 1.000000000000000000, 0.000000000000000000, 0.000000000000000000 ) ) ;
#147 = CARTESIAN_POINT ( 'NONE',  ( 0.000000000000000000, 0.000000000000000000, 3.000000000000000000 ) ) ;
#148 = MANIFOLD_SOLID_BREP ( 'Odebrat vysunutím3', #374 ) ;
#149 = PERSON_AND_ORGANIZATION_ROLE ( 'design_supplier' ) ;
#150 = APPROVAL_DATE_TIME ( #176, #309 ) ;
#151 = LINE ( 'NONE', #58, #219 ) ;
#152 = EDGE_CURVE ( 'NONE', #304, #367, #254, .T. ) ;
#153 = CARTESIAN_POINT ( 'NONE',  ( 0.000000000000000000, 0.000000000000000000, 0.000000000000000000 ) ) ;
#154 = AXIS2_PLACEMENT_3D ( 'NONE', #199, #253, #226 ) ;
#155 = DIRECTION ( 'NONE',  ( 1.000000000000000000, 0.000000000000000000, -0.000000000000000000 ) ) ;
#156 = FACE_BOUND ( 'NONE', #274, .T. ) ;
#157 = ADVANCED_FACE ( 'NONE', ( #144 ), #54, .T. ) ;
#158 = CARTESIAN_POINT ( 'NONE',  ( -2.500000000000000000, 0.000000000000000000, 153.0000000000000000 ) ) ;
#159 = ORIENTED_EDGE ( 'NONE', *, *, #2, .F. ) ;
#160 = DATE_TIME_ROLE ( 'classification_date' ) ;
#161 = CARTESIAN_POINT ( 'NONE',  ( 0.000000000000000000, 0.000000000000000000, 153.0000000000000000 ) ) ;
#162 = EDGE_LOOP ( 'NONE', ( #278, #365, #40, #303 ) ) ;
#163 = VERTEX_POINT ( 'NONE', #212 ) ;
#164 = EDGE_LOOP ( 'NONE', ( #193, #107 ) ) ;
#165 = VECTOR ( 'NONE', #238, 1000.000000000000000 ) ;
#166 = EDGE_LOOP ( 'NONE', ( #306, #339 ) ) ;
#167 = PERSON ( 'NEURÈENÝ', 'NEURÈENÝ', 'NEURÈENÝ', ('NEURÈENÝ'), ('NEURÈENÝ'), ('NEURÈENÝ') ) ;
#168 = CARTESIAN_POINT ( 'NONE',  ( 0.000000000000000000, 0.000000000000000000, 153.0000000000000000 ) ) ;
#169 = EDGE_CURVE ( 'NONE', #21, #310, #287, .T. ) ;
#170 = DIRECTION ( 'NONE',  ( 1.000000000000000000, 0.000000000000000000, 0.000000000000000000 ) ) ;
#171 = TOROIDAL_SURFACE ( 'NONE', #4, 2.799999999999999822, 0.2999999999999999889 ) ;
#172 = DIRECTION ( 'NONE',  ( 1.000000000000000000, 0.000000000000000000, 0.000000000000000000 ) ) ;
#173 = ORGANIZATION ( 'NEURÈENÝ', 'NEURÈENÝ', '' ) ;
#174 = PERSON_AND_ORGANIZATION ( #167, #173 ) ;
#175 = CARTESIAN_POINT ( 'NONE',  ( 0.000000000000000000, 0.000000000000000000, 0.000000000000000000 ) ) ;
#176 = DATE_AND_TIME ( #235, #370 ) ;
#177 = EDGE_CURVE ( 'NONE', #221, #21, #236, .T. ) ;
#178 = CIRCLE ( 'NONE', #283, 5.000000000000000000 ) ;
#179 = CARTESIAN_POINT ( 'NONE',  ( 0.000000000000000000, 0.000000000000000000, 3.299999999999997158 ) ) ;
#180 = CARTESIAN_POINT ( 'NONE',  ( 0.000000000000000000, 0.000000000000000000, 0.000000000000000000 ) ) ;
#181 = CARTESIAN_POINT ( 'NONE',  ( 2.500000000000000000, 3.061616997868383141E-16, 153.0000000000000000 ) ) ;
#182 = DIRECTION ( 'NONE',  ( 0.000000000000000000, 0.000000000000000000, 1.000000000000000000 ) ) ;
#183 = APPROVAL_STATUS ( 'not_yet_approved' ) ;
#184 = DIRECTION ( 'NONE',  ( 0.000000000000000000, 0.000000000000000000, 1.000000000000000000 ) ) ;
#185 = AXIS2_PLACEMENT_3D ( 'NONE', #324, #262, #381 ) ;
#186 = AXIS2_PLACEMENT_3D ( 'NONE', #161, #15, #8 ) ;
#187 = CARTESIAN_POINT ( 'NONE',  ( 0.000000000000000000, 0.000000000000000000, 3.000000000000000000 ) ) ;
#188 = ORIENTED_EDGE ( 'NONE', *, *, #256, .T. ) ;
#189 = ORIENTED_EDGE ( 'NONE', *, *, #203, .F. ) ;
#190 = CIRCLE ( 'NONE', #86, 5.000000000000000000 ) ;
#191 = ORIENTED_EDGE ( 'NONE', *, *, #244, .F. ) ;
#192 = ADVANCED_FACE ( 'NONE', ( #321, #95 ), #355, .F. ) ;
#193 = ORIENTED_EDGE ( 'NONE', *, *, #129, .F. ) ;
#194 = VERTEX_POINT ( 'NONE', #32 ) ;
#195 = ADVANCED_FACE ( 'NONE', ( #206 ), #171, .F. ) ;
#196 = CYLINDRICAL_SURFACE ( 'NONE', #295, 1.500000000000000222 ) ;
#197 = PLANE ( 'NONE',  #186 ) ;
#198 = CARTESIAN_POINT ( 'NONE',  ( 1.500000000000000222, 1.836970198721030181E-16, 0.000000000000000000 ) ) ;
#199 = CARTESIAN_POINT ( 'NONE',  ( 0.000000000000000000, 0.000000000000000000, 0.000000000000000000 ) ) ;
#200 = CARTESIAN_POINT ( 'NONE',  ( -1.500000000000000222, 0.000000000000000000, 153.0000000000000000 ) ) ;
#201 = CARTESIAN_POINT ( 'NONE',  ( 0.000000000000000000, 0.000000000000000000, 3.000000000000000000 ) ) ;
#202 = AXIS2_PLACEMENT_3D ( 'NONE', #267, #300, #37 ) ;
#203 = EDGE_CURVE ( 'NONE', #103, #216, #151, .T. ) ;
#204 = CALENDAR_DATE ( 2022, 8, 7 ) ;
#205 = DIRECTION ( 'NONE',  ( 0.000000000000000000, 0.000000000000000000, 1.000000000000000000 ) ) ;
#206 = FACE_OUTER_BOUND ( 'NONE', #44, .T. ) ;
#207 = PERSON_AND_ORGANIZATION_ROLE ( 'creator' ) ;
#208 = PRODUCT_RELATED_PRODUCT_CATEGORY ( 'detail', '', ( #131 ) ) ;
#209 = DIRECTION ( 'NONE',  ( 1.000000000000000000, 0.000000000000000000, 0.000000000000000000 ) ) ;
#210 = PRODUCT_DEFINITION_FORMATION_WITH_SPECIFIED_SOURCE ( 'LIBOVOLNÝ', '', #131, .NOT_KNOWN. ) ;
#211 = APPLICATION_CONTEXT ( 'configuration controlled 3d designs of mechanical parts and assemblies' ) ;
#212 = CARTESIAN_POINT ( 'NONE',  ( -1.500000000000000222, 0.000000000000000000, 0.000000000000000000 ) ) ;
#213 = DIRECTION ( 'NONE',  ( 1.000000000000000000, 0.000000000000000000, -0.000000000000000000 ) ) ;
#214 = UNCERTAINTY_MEASURE_WITH_UNIT (LENGTH_MEASURE( 1.000000000000000082E-05 ), #333, 'distance_accuracy_value', 'NONE');
#215 = AXIS2_PLACEMENT_3D ( 'NONE', #264, #6, #65 ) ;
#216 = VERTEX_POINT ( 'NONE', #268 ) ;
#217 = EDGE_CURVE ( 'NONE', #103, #304, #299, .T. ) ;
#218 = ORIENTED_EDGE ( 'NONE', *, *, #256, .F. ) ;
#219 = VECTOR ( 'NONE', #63, 1000.000000000000000 ) ;
#220 = ORIENTED_EDGE ( 'NONE', *, *, #325, .F. ) ;
#221 = VERTEX_POINT ( 'NONE', #181 ) ;
#222 = DIRECTION ( 'NONE',  ( 0.000000000000000000, 0.000000000000000000, 1.000000000000000000 ) ) ;
#223 = DESIGN_CONTEXT ( 'detailed design', #211, 'design' ) ;
#224 = CC_DESIGN_APPROVAL ( #272, ( #210 ) ) ;
#225 = ORIENTED_EDGE ( 'NONE', *, *, #25, .F. ) ;
#226 = DIRECTION ( 'NONE',  ( 1.000000000000000000, 0.000000000000000000, 0.000000000000000000 ) ) ;
#227 = CARTESIAN_POINT ( 'NONE',  ( 5.000000000000000000, 6.123233995736766282E-16, 3.000000000000000000 ) ) ;
#228 = CARTESIAN_POINT ( 'NONE',  ( 1.500000000000000222, 1.836970198721030181E-16, 153.0000000000000000 ) ) ;
#229 = CC_DESIGN_PERSON_AND_ORGANIZATION_ASSIGNMENT ( #29, #373, ( #210 ) ) ;
#230 = CIRCLE ( 'NONE', #279, 2.500000000000000000 ) ;
#231 = AXIS2_PLACEMENT_3D ( 'NONE', #48, #331, #245 ) ;
#232 = DIRECTION ( 'NONE',  ( 1.000000000000000000, 0.000000000000000000, 0.000000000000000000 ) ) ;
#233 = PERSON_AND_ORGANIZATION ( #167, #173 ) ;
#234 = FACE_OUTER_BOUND ( 'NONE', #368, .T. ) ;
#235 = CALENDAR_DATE ( 2022, 8, 7 ) ;
#236 = LINE ( 'NONE', #353, #121 ) ;
#237 = PERSON_AND_ORGANIZATION_ROLE ( 'classification_officer' ) ;
#238 = DIRECTION ( 'NONE',  ( 0.000000000000000000, 0.000000000000000000, -1.000000000000000000 ) ) ;
#239 = PLANE ( 'NONE',  #259 ) ;
#240 = FACE_OUTER_BOUND ( 'NONE', #166, .T. ) ;
#241 = EDGE_CURVE ( 'NONE', #221, #281, #230, .T. ) ;
#242 = SHAPE_DEFINITION_REPRESENTATION ( #47, #84 ) ;
#243 = EDGE_LOOP ( 'NONE', ( #332, #261, #249, #218 ) ) ;
#244 = EDGE_CURVE ( 'NONE', #163, #69, #117, .T. ) ;
#245 = DIRECTION ( 'NONE',  ( -1.000000000000000000, 0.000000000000000000, 0.000000000000000000 ) ) ;
#246 = ORIENTED_EDGE ( 'NONE', *, *, #360, .F. ) ;
#247 = ORIENTED_EDGE ( 'NONE', *, *, #129, .T. ) ;
#248 = CC_DESIGN_APPROVAL ( #77, ( #366 ) ) ;
#249 = ORIENTED_EDGE ( 'NONE', *, *, #169, .T. ) ;
#250 = EDGE_LOOP ( 'NONE', ( #76, #338, #116, #67 ) ) ;
#251 = EDGE_CURVE ( 'NONE', #109, #69, #328, .T. ) ;
#252 = CARTESIAN_POINT ( 'NONE',  ( 0.000000000000000000, 0.000000000000000000, 0.000000000000000000 ) ) ;
#253 = DIRECTION ( 'NONE',  ( 0.000000000000000000, 0.000000000000000000, 1.000000000000000000 ) ) ;
#254 = LINE ( 'NONE', #227, #22 ) ;
#255 = PERSON_AND_ORGANIZATION ( #167, #173 ) ;
#256 = EDGE_CURVE ( 'NONE', #138, #310, #378, .T. ) ;
#257 = CARTESIAN_POINT ( 'NONE',  ( 0.000000000000000000, 0.000000000000000000, 3.000000000000000000 ) ) ;
#258 = CIRCLE ( 'NONE', #277, 1.500000000000000222 ) ;
#259 = AXIS2_PLACEMENT_3D ( 'NONE', #187, #96, #213 ) ;
#260 = VECTOR ( 'NONE', #371, 1000.000000000000000 ) ;
#261 = ORIENTED_EDGE ( 'NONE', *, *, #14, .F. ) ;
#262 = DIRECTION ( 'NONE',  ( 0.000000000000000000, -1.000000000000000000, 0.000000000000000000 ) ) ;
#263 = CARTESIAN_POINT ( 'NONE',  ( 0.000000000000000000, 0.000000000000000000, 153.0000000000000000 ) ) ;
#264 = CARTESIAN_POINT ( 'NONE',  ( 0.000000000000000000, 0.000000000000000000, 3.000000000000000000 ) ) ;
#265 = AXIS2_PLACEMENT_3D ( 'NONE', #335, #71, #342 ) ;
#266 = CC_DESIGN_PERSON_AND_ORGANIZATION_ASSIGNMENT ( #114, #149, ( #210 ) ) ;
#267 = CARTESIAN_POINT ( 'NONE',  ( 0.000000000000000000, 0.000000000000000000, 153.0000000000000000 ) ) ;
#268 = CARTESIAN_POINT ( 'NONE',  ( -5.000000000000000000, 0.000000000000000000, 0.000000000000000000 ) ) ;
#269 = AXIS2_PLACEMENT_3D ( 'NONE', #147, #376, #372 ) ;
#270 = DIRECTION ( 'NONE',  ( 0.000000000000000000, 0.000000000000000000, -1.000000000000000000 ) ) ;
#271 = EDGE_LOOP ( 'NONE', ( #85, #139, #42, #247 ) ) ;
#272 = APPROVAL ( #351, 'NEURÈENÝ' ) ;
#273 = COORDINATED_UNIVERSAL_TIME_OFFSET ( 1, 0, .AHEAD. ) ;
#274 = EDGE_LOOP ( 'NONE', ( #26, #225 ) ) ;
#275 =( NAMED_UNIT ( * ) PLANE_ANGLE_UNIT ( ) SI_UNIT ( $, .RADIAN. ) );
#276 = ORIENTED_EDGE ( 'NONE', *, *, #31, .T. ) ;
#277 = AXIS2_PLACEMENT_3D ( 'NONE', #344, #141, #146 ) ;
#278 = ORIENTED_EDGE ( 'NONE', *, *, #241, .F. ) ;
#279 = AXIS2_PLACEMENT_3D ( 'NONE', #263, #3, #120 ) ;
#280 = ADVANCED_FACE ( 'NONE', ( #124, #234 ), #239, .T. ) ;
#281 = VERTEX_POINT ( 'NONE', #326 ) ;
#282 = DIRECTION ( 'NONE',  ( 1.224646799147353207E-16, 1.000000000000000000, -0.000000000000000000 ) ) ;
#283 = AXIS2_PLACEMENT_3D ( 'NONE', #201, #288, #340 ) ;
#284 = CYLINDRICAL_SURFACE ( 'NONE', #269, 5.000000000000000000 ) ;
#285 = EDGE_CURVE ( 'NONE', #46, #109, #315, .T. ) ;
#286 = DATE_AND_TIME ( #94, #45 ) ;
#287 = CIRCLE ( 'NONE', #185, 0.2999999999999999334 ) ;
#288 = DIRECTION ( 'NONE',  ( 0.000000000000000000, 0.000000000000000000, 1.000000000000000000 ) ) ;
#289 = COORDINATED_UNIVERSAL_TIME_OFFSET ( 1, 0, .AHEAD. ) ;
#290 = CARTESIAN_POINT ( 'NONE',  ( 0.000000000000000000, 0.000000000000000000, 153.0000000000000000 ) ) ;
#291 = DIRECTION ( 'NONE',  ( -1.000000000000000000, 1.224646799147353207E-16, 0.000000000000000000 ) ) ;
#292 = DATE_AND_TIME ( #90, #10 ) ;
#293 = DIRECTION ( 'NONE',  ( -0.000000000000000000, -0.000000000000000000, -1.000000000000000000 ) ) ;
#294 = PERSON_AND_ORGANIZATION ( #167, #173 ) ;
#295 = AXIS2_PLACEMENT_3D ( 'NONE', #290, #347, #28 ) ;
#296 = CARTESIAN_POINT ( 'NONE',  ( 0.000000000000000000, 0.000000000000000000, 3.000000000000000000 ) ) ;
#297 = ADVANCED_FACE ( 'NONE', ( #352 ), #34, .T. ) ;
#298 = DIRECTION ( 'NONE',  ( 1.000000000000000000, 0.000000000000000000, 0.000000000000000000 ) ) ;
#299 = CIRCLE ( 'NONE', #17, 5.000000000000000000 ) ;
#300 = DIRECTION ( 'NONE',  ( -0.000000000000000000, -0.000000000000000000, -1.000000000000000000 ) ) ;
#301 = APPROVAL_ROLE ( '' ) ;
#302 = CIRCLE ( 'NONE', #140, 5.000000000000000000 ) ;
#303 = ORIENTED_EDGE ( 'NONE', *, *, #343, .F. ) ;
#304 = VERTEX_POINT ( 'NONE', #7 ) ;
#305 = FACE_OUTER_BOUND ( 'NONE', #250, .T. ) ;
#306 = ORIENTED_EDGE ( 'NONE', *, *, #2, .T. ) ;
#307 = EDGE_LOOP ( 'NONE', ( #336, #188 ) ) ;
#308 = AXIS2_PLACEMENT_3D ( 'NONE', #51, #282, #291 ) ;
#309 = APPROVAL ( #62, 'NEURÈENÝ' ) ;
#310 = VERTEX_POINT ( 'NONE', #126 ) ;
#311 = CARTESIAN_POINT ( 'NONE',  ( -2.799999999999999822, 3.429011037612589276E-16, 2.999999999999998668 ) ) ;
#312 = DIRECTION ( 'NONE',  ( 1.000000000000000000, 0.000000000000000000, 0.000000000000000000 ) ) ;
#313 = DIRECTION ( 'NONE',  ( 1.000000000000000000, 0.000000000000000000, 0.000000000000000000 ) ) ;
#314 = DIRECTION ( 'NONE',  ( 1.000000000000000000, 0.000000000000000000, 0.000000000000000000 ) ) ;
#315 = CIRCLE ( 'NONE', #341, 1.500000000000000222 ) ;
#316 = CARTESIAN_POINT ( 'NONE',  ( -5.000000000000000000, 0.000000000000000000, 3.000000000000000000 ) ) ;
#317 = APPROVAL_ROLE ( '' ) ;
#318 = FACE_OUTER_BOUND ( 'NONE', #243, .T. ) ;
#319 = CIRCLE ( 'NONE', #80, 2.500000000000000000 ) ;
#320 = ADVANCED_FACE ( 'NONE', ( #156, #240 ), #197, .T. ) ;
#321 = FACE_BOUND ( 'NONE', #73, .T. ) ;
#322 = SECURITY_CLASSIFICATION_LEVEL ( 'unclassified' ) ;
#323 = DIRECTION ( 'NONE',  ( 0.000000000000000000, 0.000000000000000000, 1.000000000000000000 ) ) ;
#324 = CARTESIAN_POINT ( 'NONE',  ( 2.799999999999999822, 0.000000000000000000, 3.299999999999997158 ) ) ;
#325 = EDGE_CURVE ( 'NONE', #46, #163, #12, .T. ) ;
#326 = CARTESIAN_POINT ( 'NONE',  ( -2.500000000000000000, 0.000000000000000000, 153.0000000000000000 ) ) ;
#327 = CALENDAR_DATE ( 2022, 8, 7 ) ;
#328 = LINE ( 'NONE', #33, #165 ) ;
#329 = AXIS2_PLACEMENT_3D ( 'NONE', #180, #293, #359 ) ;
#330 = LOCAL_TIME ( 17, 45, 42.00000000000000000, #88 ) ;
#331 = DIRECTION ( 'NONE',  ( 0.000000000000000000, 0.000000000000000000, -1.000000000000000000 ) ) ;
#332 = ORIENTED_EDGE ( 'NONE', *, *, #52, .F. ) ;
#333 =( LENGTH_UNIT ( ) NAMED_UNIT ( * ) SI_UNIT ( .MILLI., .METRE. ) );
#334 = ORIENTED_EDGE ( 'NONE', *, *, #169, .F. ) ;
#335 = CARTESIAN_POINT ( 'NONE',  ( 0.000000000000000000, 0.000000000000000000, 153.0000000000000000 ) ) ;
#336 = ORIENTED_EDGE ( 'NONE', *, *, #360, .T. ) ;
#337 = AXIS2_PLACEMENT_3D ( 'NONE', #153, #99, #155 ) ;
#338 = ORIENTED_EDGE ( 'NONE', *, *, #25, .T. ) ;
#339 = ORIENTED_EDGE ( 'NONE', *, *, #241, .T. ) ;
#340 = DIRECTION ( 'NONE',  ( 1.000000000000000000, 0.000000000000000000, 0.000000000000000000 ) ) ;
#341 = AXIS2_PLACEMENT_3D ( 'NONE', #64, #184, #298 ) ;
#342 = DIRECTION ( 'NONE',  ( -1.000000000000000000, 0.000000000000000000, 0.000000000000000000 ) ) ;
#343 = EDGE_CURVE ( 'NONE', #281, #194, #9, .T. ) ;
#344 = CARTESIAN_POINT ( 'NONE',  ( 0.000000000000000000, 0.000000000000000000, 153.0000000000000000 ) ) ;
#345 = MECHANICAL_CONTEXT ( 'NONE', #70, 'mechanical' ) ;
#346 = DIRECTION ( 'NONE',  ( -0.000000000000000000, -0.000000000000000000, -1.000000000000000000 ) ) ;
#347 = DIRECTION ( 'NONE',  ( 0.000000000000000000, 0.000000000000000000, -1.000000000000000000 ) ) ;
#348 = APPROVAL_PERSON_ORGANIZATION ( #233, #272, #1 ) ;
#349 = FACE_OUTER_BOUND ( 'NONE', #142, .T. ) ;
#350 = CC_DESIGN_DATE_AND_TIME_ASSIGNMENT ( #286, #160, ( #366 ) ) ;
#351 = APPROVAL_STATUS ( 'not_yet_approved' ) ;
#352 = FACE_OUTER_BOUND ( 'NONE', #162, .T. ) ;
#353 = CARTESIAN_POINT ( 'NONE',  ( 2.500000000000000000, 3.061616997868383141E-16, 153.0000000000000000 ) ) ;
#354 = COORDINATED_UNIVERSAL_TIME_OFFSET ( 1, 0, .AHEAD. ) ;
#355 = PLANE ( 'NONE',  #337 ) ;
#356 = CARTESIAN_POINT ( 'NONE',  ( 0.000000000000000000, 0.000000000000000000, 3.299999999999997158 ) ) ;
#357 = APPROVAL_DATE_TIME ( #35, #77 ) ;
#358 = AXIS2_PLACEMENT_3D ( 'NONE', #252, #113, #312 ) ;
#359 = DIRECTION ( 'NONE',  ( 1.000000000000000000, 0.000000000000000000, 0.000000000000000000 ) ) ;
#360 = EDGE_CURVE ( 'NONE', #310, #138, #5, .T. ) ;
#361 = APPLICATION_PROTOCOL_DEFINITION ( 'international standard', 'config_control_design', 1994, #70 ) ;
#362 = ORIENTED_EDGE ( 'NONE', *, *, #52, .T. ) ;
#363 = ORIENTED_EDGE ( 'NONE', *, *, #217, .T. ) ;
#364 = ADVANCED_FACE ( 'NONE', ( #305 ), #112, .F. ) ;
#365 = ORIENTED_EDGE ( 'NONE', *, *, #177, .T. ) ;
#366 = SECURITY_CLASSIFICATION ( '', '', #322 ) ;
#367 = VERTEX_POINT ( 'NONE', #105 ) ;
#368 = EDGE_LOOP ( 'NONE', ( #363, #19 ) ) ;
#369 = DIRECTION ( 'NONE',  ( 1.000000000000000000, 0.000000000000000000, 0.000000000000000000 ) ) ;
#370 = LOCAL_TIME ( 17, 45, 42.00000000000000000, #55 ) ;
#371 = DIRECTION ( 'NONE',  ( -0.000000000000000000, -0.000000000000000000, -1.000000000000000000 ) ) ;
#372 = DIRECTION ( 'NONE',  ( -1.000000000000000000, 0.000000000000000000, 0.000000000000000000 ) ) ;
#373 = PERSON_AND_ORGANIZATION_ROLE ( 'creator' ) ;
#374 = CLOSED_SHELL ( 'NONE', ( #83, #195, #297, #68, #157, #280, #192, #377, #320, #41, #364 ) ) ;
#375 = DIRECTION ( 'NONE',  ( -0.000000000000000000, -0.000000000000000000, -1.000000000000000000 ) ) ;
#376 = DIRECTION ( 'NONE',  ( -0.000000000000000000, -0.000000000000000000, -1.000000000000000000 ) ) ;
#377 = ADVANCED_FACE ( 'NONE', ( #66 ), #128, .T. ) ;
#378 = CIRCLE ( 'NONE', #215, 2.799999999999999822 ) ;
#379 = DATE_AND_TIME ( #204, #330 ) ;
#380 = CARTESIAN_POINT ( 'NONE',  ( 0.000000000000000000, 0.000000000000000000, 3.299999999999997158 ) ) ;
#381 = DIRECTION ( 'NONE',  ( 0.000000000000000000, 0.000000000000000000, -1.000000000000000000 ) ) ;
ENDSEC;
END-ISO-10303-21;
