ISO-10303-21;
HEADER;
FILE_DESCRIPTION (( 'STEP AP203' ),
    '1' );
FILE_NAME ('f76d.STEP',
    '2022-07-08T15:26:47',
    ( '' ),
    ( '' ),
    'SwSTEP 2.0',
    'SolidWorks 2019',
    '' );
FILE_SCHEMA (( 'CONFIG_CONTROL_DESIGN' ));
ENDSEC;

DATA;
#1 = CARTESIAN_POINT ( 'NONE',  ( 0.000000000000000000, 0.000000000000000000, 5.000000000000000000 ) ) ;
#2 = ORIENTED_EDGE ( 'NONE', *, *, #17, .T. ) ;
#3 = CARTESIAN_POINT ( 'NONE',  ( 0.000000000000000000, 0.000000000000000000, 405.0000000000000000 ) ) ;
#4 = COORDINATED_UNIVERSAL_TIME_OFFSET ( 1, 0, .AHEAD. ) ;
#5 = CYLINDRICAL_SURFACE ( 'NONE', #125, 4.000000000000000000 ) ;
#6 = ORIENTED_EDGE ( 'NONE', *, *, #361, .T. ) ;
#7 = CYLINDRICAL_SURFACE ( 'NONE', #88, 7.000000000000000000 ) ;
#8 = ORIENTED_EDGE ( 'NONE', *, *, #218, .T. ) ;
#9 = EDGE_CURVE ( 'NONE', #77, #206, #190, .T. ) ;
#10 = CARTESIAN_POINT ( 'NONE',  ( 0.000000000000000000, 0.000000000000000000, 5.000000000000000000 ) ) ;
#11 = ORIENTED_EDGE ( 'NONE', *, *, #9, .T. ) ;
#12 = DIRECTION ( 'NONE',  ( 1.000000000000000000, 0.000000000000000000, 0.000000000000000000 ) ) ;
#13 = AXIS2_PLACEMENT_3D ( 'NONE', #95, #248, #215 ) ;
#14 = PERSON ( 'NEURÈENÝ', 'NEURÈENÝ', 'NEURÈENÝ', ('NEURÈENÝ'), ('NEURÈENÝ'), ('NEURÈENÝ') ) ;
#15 = CARTESIAN_POINT ( 'NONE',  ( 7.000000000000000000, 8.572527594031473190E-16, 0.000000000000000000 ) ) ;
#16 = AXIS2_PLACEMENT_3D ( 'NONE', #304, #367, #152 ) ;
#17 = EDGE_CURVE ( 'NONE', #180, #269, #74, .T. ) ;
#18 = ADVANCED_FACE ( 'NONE', ( #377 ), #202, .T. ) ;
#19 = ORIENTED_EDGE ( 'NONE', *, *, #230, .F. ) ;
#20 = DIRECTION ( 'NONE',  ( -1.000000000000000000, 0.000000000000000000, 0.000000000000000000 ) ) ;
#21 = COORDINATED_UNIVERSAL_TIME_OFFSET ( 1, 0, .AHEAD. ) ;
#22 = DIRECTION ( 'NONE',  ( -0.000000000000000000, -0.000000000000000000, -1.000000000000000000 ) ) ;
#23 = VECTOR ( 'NONE', #22, 1000.000000000000000 ) ;
#24 = CALENDAR_DATE ( 2022, 8, 7 ) ;
#25 = CIRCLE ( 'NONE', #237, 7.000000000000000000 ) ;
#26 = DIRECTION ( 'NONE',  ( -1.000000000000000000, 0.000000000000000000, 0.000000000000000000 ) ) ;
#27 = EDGE_CURVE ( 'NONE', #292, #106, #305, .T. ) ;
#28 = DIRECTION ( 'NONE',  ( 0.000000000000000000, 0.000000000000000000, 1.000000000000000000 ) ) ;
#29 = EDGE_LOOP ( 'NONE', ( #316, #11, #210, #340 ) ) ;
#30 = LOCAL_TIME ( 17, 26, 47.00000000000000000, #282 ) ;
#31 = DIRECTION ( 'NONE',  ( 0.000000000000000000, 0.000000000000000000, 1.000000000000000000 ) ) ;
#32 = ORIENTED_EDGE ( 'NONE', *, *, #246, .T. ) ;
#33 = DIRECTION ( 'NONE',  ( 1.224646799147353207E-16, 1.000000000000000000, -0.000000000000000000 ) ) ;
#34 = DIRECTION ( 'NONE',  ( 1.000000000000000000, 0.000000000000000000, 0.000000000000000000 ) ) ;
#35 = EDGE_LOOP ( 'NONE', ( #290, #249, #326, #320 ) ) ;
#36 = CARTESIAN_POINT ( 'NONE',  ( 2.100000000000000089, 2.571758278209441957E-16, 0.000000000000000000 ) ) ;
#37 = CIRCLE ( 'NONE', #222, 7.000000000000000000 ) ;
#38 = CC_DESIGN_PERSON_AND_ORGANIZATION_ASSIGNMENT ( #46, #278, ( #102 ) ) ;
#39 = SHAPE_DEFINITION_REPRESENTATION ( #196, #359 ) ;
#40 = DIRECTION ( 'NONE',  ( -0.000000000000000000, -0.000000000000000000, -1.000000000000000000 ) ) ;
#41 = EDGE_LOOP ( 'NONE', ( #92, #251, #369, #150 ) ) ;
#42 = FACE_BOUND ( 'NONE', #334, .T. ) ;
#43 = EDGE_CURVE ( 'NONE', #269, #180, #25, .T. ) ;
#44 =( NAMED_UNIT ( * ) PLANE_ANGLE_UNIT ( ) SI_UNIT ( $, .RADIAN. ) );
#45 = EDGE_LOOP ( 'NONE', ( #147, #295 ) ) ;
#46 = PERSON_AND_ORGANIZATION ( #14, #224 ) ;
#47 = DIRECTION ( 'NONE',  ( 0.000000000000000000, 0.000000000000000000, -1.000000000000000000 ) ) ;
#48 = ADVANCED_FACE ( 'NONE', ( #129 ), #312, .T. ) ;
#49 = CALENDAR_DATE ( 2022, 8, 7 ) ;
#50 = DIRECTION ( 'NONE',  ( 1.000000000000000000, 0.000000000000000000, 0.000000000000000000 ) ) ;
#51 = APPLICATION_PROTOCOL_DEFINITION ( 'international standard', 'config_control_design', 1994, #153 ) ;
#52 = CARTESIAN_POINT ( 'NONE',  ( 0.000000000000000000, 0.000000000000000000, 5.000000000000000000 ) ) ;
#53 = EDGE_LOOP ( 'NONE', ( #198, #19 ) ) ;
#54 = CARTESIAN_POINT ( 'NONE',  ( 0.000000000000000000, 0.000000000000000000, 405.0000000000000000 ) ) ;
#55 = ORIENTED_EDGE ( 'NONE', *, *, #361, .F. ) ;
#56 = COORDINATED_UNIVERSAL_TIME_OFFSET ( 1, 0, .AHEAD. ) ;
#57 = DIRECTION ( 'NONE',  ( -0.000000000000000000, -0.000000000000000000, -1.000000000000000000 ) ) ;
#58 = APPROVAL ( #343, 'NEURÈENÝ' ) ;
#59 = DIRECTION ( 'NONE',  ( -1.000000000000000000, 0.000000000000000000, 0.000000000000000000 ) ) ;
#60 = ORIENTED_EDGE ( 'NONE', *, *, #117, .F. ) ;
#61 = DIRECTION ( 'NONE',  ( 1.000000000000000000, 0.000000000000000000, -0.000000000000000000 ) ) ;
#62 = PERSON_AND_ORGANIZATION_ROLE ( 'classification_officer' ) ;
#63 = CARTESIAN_POINT ( 'NONE',  ( 0.000000000000000000, 0.000000000000000000, 405.0000000000000000 ) ) ;
#64 = ADVANCED_FACE ( 'NONE', ( #286 ), #118, .F. ) ;
#65 = ORIENTED_EDGE ( 'NONE', *, *, #17, .F. ) ;
#66 = LOCAL_TIME ( 17, 26, 47.00000000000000000, #21 ) ;
#67 = ORIENTED_EDGE ( 'NONE', *, *, #241, .F. ) ;
#68 = DIRECTION ( 'NONE',  ( 0.000000000000000000, 0.000000000000000000, 1.000000000000000000 ) ) ;
#69 = EDGE_LOOP ( 'NONE', ( #332, #203, #174, #323 ) ) ;
#70 = ADVANCED_FACE ( 'NONE', ( #223 ), #80, .F. ) ;
#71 = EDGE_CURVE ( 'NONE', #219, #164, #283, .T. ) ;
#72 = CC_DESIGN_DATE_AND_TIME_ASSIGNMENT ( #165, #265, ( #185 ) ) ;
#73 = CARTESIAN_POINT ( 'NONE',  ( 7.000000000000000000, 8.572527594031473190E-16, 5.000000000000000000 ) ) ;
#74 = CIRCLE ( 'NONE', #258, 7.000000000000000000 ) ;
#75 = CARTESIAN_POINT ( 'NONE',  ( 0.000000000000000000, 0.000000000000000000, 5.500000000000005329 ) ) ;
#76 = APPLICATION_PROTOCOL_DEFINITION ( 'international standard', 'config_control_design', 1994, #221 ) ;
#77 = VERTEX_POINT ( 'NONE', #195 ) ;
#78 = DATE_AND_TIME ( #24, #309 ) ;
#79 = CARTESIAN_POINT ( 'NONE',  ( -2.100000000000000089, 0.000000000000000000, 405.0000000000000000 ) ) ;
#80 = CYLINDRICAL_SURFACE ( 'NONE', #244, 2.100000000000000089 ) ;
#81 = LINE ( 'NONE', #109, #170 ) ;
#82 = PERSON_AND_ORGANIZATION_ROLE ( 'creator' ) ;
#83 = EDGE_CURVE ( 'NONE', #77, #219, #353, .T. ) ;
#84 = CC_DESIGN_PERSON_AND_ORGANIZATION_ASSIGNMENT ( #317, #163, ( #289 ) ) ;
#85 = ORIENTED_EDGE ( 'NONE', *, *, #117, .T. ) ;
#86 = CYLINDRICAL_SURFACE ( 'NONE', #145, 2.100000000000000089 ) ;
#87 = CARTESIAN_POINT ( 'NONE',  ( 0.000000000000000000, 0.000000000000000000, 0.000000000000000000 ) ) ;
#88 = AXIS2_PLACEMENT_3D ( 'NONE', #299, #40, #148 ) ;
#89 = ORIENTED_EDGE ( 'NONE', *, *, #161, .F. ) ;
#90 = DIRECTION ( 'NONE',  ( -0.000000000000000000, -0.000000000000000000, -1.000000000000000000 ) ) ;
#91 = APPROVAL_PERSON_ORGANIZATION ( #375, #58, #104 ) ;
#92 = ORIENTED_EDGE ( 'NONE', *, *, #270, .F. ) ;
#93 =( LENGTH_UNIT ( ) NAMED_UNIT ( * ) SI_UNIT ( .MILLI., .METRE. ) );
#94 = ADVANCED_FACE ( 'NONE', ( #259, #138 ), #157, .F. ) ;
#95 = CARTESIAN_POINT ( 'NONE',  ( 0.000000000000000000, 0.000000000000000000, 0.000000000000000000 ) ) ;
#96 = EDGE_CURVE ( 'NONE', #172, #189, #81, .T. ) ;
#97 = AXIS2_PLACEMENT_3D ( 'NONE', #171, #33, #262 ) ;
#98 = ORIENTED_EDGE ( 'NONE', *, *, #43, .T. ) ;
#99 = COORDINATED_UNIVERSAL_TIME_OFFSET ( 1, 0, .AHEAD. ) ;
#100 = ORIENTED_EDGE ( 'NONE', *, *, #284, .T. ) ;
#101 = SECURITY_CLASSIFICATION_LEVEL ( 'unclassified' ) ;
#102 = PRODUCT ( 'f76d', 'f76d', '', ( #133 ) ) ;
#103 = CARTESIAN_POINT ( 'NONE',  ( 0.000000000000000000, 0.000000000000000000, 5.500000000000005329 ) ) ;
#104 = APPROVAL_ROLE ( '' ) ;
#105 = DIRECTION ( 'NONE',  ( -0.000000000000000000, -0.000000000000000000, -1.000000000000000000 ) ) ;
#106 = VERTEX_POINT ( 'NONE', #137 ) ;
#107 = CARTESIAN_POINT ( 'NONE',  ( 0.000000000000000000, 0.000000000000000000, 405.0000000000000000 ) ) ;
#108 = CC_DESIGN_PERSON_AND_ORGANIZATION_ASSIGNMENT ( #313, #82, ( #250 ) ) ;
#109 = CARTESIAN_POINT ( 'NONE',  ( -4.000000000000000000, 0.000000000000000000, 405.0000000000000000 ) ) ;
#110 = CALENDAR_DATE ( 2022, 8, 7 ) ;
#111 = FACE_OUTER_BOUND ( 'NONE', #168, .T. ) ;
#112 = CALENDAR_DATE ( 2022, 8, 7 ) ;
#113 = DIRECTION ( 'NONE',  ( 0.000000000000000000, 0.000000000000000000, 1.000000000000000000 ) ) ;
#114 = AXIS2_PLACEMENT_3D ( 'NONE', #331, #90, #34 ) ;
#115 = CC_DESIGN_APPROVAL ( #58, ( #289 ) ) ;
#116 = DIRECTION ( 'NONE',  ( 1.000000000000000000, 0.000000000000000000, 0.000000000000000000 ) ) ;
#117 = EDGE_CURVE ( 'NONE', #208, #172, #302, .T. ) ;
#118 = TOROIDAL_SURFACE ( 'NONE', #238, 4.500000000000000888, 0.5000000000000000000 ) ;
#119 = AXIS2_PLACEMENT_3D ( 'NONE', #274, #68, #335 ) ;
#120 = CARTESIAN_POINT ( 'NONE',  ( 0.000000000000000000, 0.000000000000000000, 5.000000000000000000 ) ) ;
#121 = CC_DESIGN_SECURITY_CLASSIFICATION ( #185, ( #289 ) ) ;
#122 = DESIGN_CONTEXT ( 'detailed design', #153, 'design' ) ;
#123 = LINE ( 'NONE', #73, #266 ) ;
#124 = FACE_OUTER_BOUND ( 'NONE', #300, .T. ) ;
#125 = AXIS2_PLACEMENT_3D ( 'NONE', #322, #360, #166 ) ;
#126 = DIRECTION ( 'NONE',  ( 0.000000000000000000, 0.000000000000000000, 1.000000000000000000 ) ) ;
#127 = EDGE_LOOP ( 'NONE', ( #65, #32, #6, #381 ) ) ;
#128 = EDGE_CURVE ( 'NONE', #269, #272, #159, .T. ) ;
#129 = FACE_OUTER_BOUND ( 'NONE', #127, .T. ) ;
#130 = CARTESIAN_POINT ( 'NONE',  ( -4.500000000000000888, 5.510910596163088569E-16, 5.000000000000002665 ) ) ;
#131 =( GEOMETRIC_REPRESENTATION_CONTEXT ( 3 ) GLOBAL_UNCERTAINTY_ASSIGNED_CONTEXT ( ( #267 ) ) GLOBAL_UNIT_ASSIGNED_CONTEXT ( ( #93, #44, #245 ) ) REPRESENTATION_CONTEXT ( 'NONE', 'WORKASPACE' ) );
#132 = CIRCLE ( 'NONE', #97, 0.5000000000000004441 ) ;
#133 = MECHANICAL_CONTEXT ( 'NONE', #221, 'mechanical' ) ;
#134 = DIRECTION ( 'NONE',  ( -1.000000000000000000, 0.000000000000000000, 0.000000000000000000 ) ) ;
#135 = AXIS2_PLACEMENT_3D ( 'NONE', #54, #229, #134 ) ;
#136 = APPROVAL_DATE_TIME ( #78, #58 ) ;
#137 = CARTESIAN_POINT ( 'NONE',  ( 4.500000000000000888, 0.000000000000000000, 5.000000000000002665 ) ) ;
#138 = FACE_OUTER_BOUND ( 'NONE', #217, .T. ) ;
#139 = VERTEX_POINT ( 'NONE', #130 ) ;
#140 = DIRECTION ( 'NONE',  ( 1.000000000000000000, 0.000000000000000000, 0.000000000000000000 ) ) ;
#141 = ORIENTED_EDGE ( 'NONE', *, *, #270, .T. ) ;
#142 = CARTESIAN_POINT ( 'NONE',  ( 0.000000000000000000, 0.000000000000000000, 405.0000000000000000 ) ) ;
#143 = PRODUCT_RELATED_PRODUCT_CATEGORY ( 'detail', '', ( #102 ) ) ;
#144 = DIRECTION ( 'NONE',  ( 0.000000000000000000, 0.000000000000000000, -1.000000000000000000 ) ) ;
#145 = AXIS2_PLACEMENT_3D ( 'NONE', #63, #296, #59 ) ;
#146 = LOCAL_TIME ( 17, 26, 47.00000000000000000, #56 ) ;
#147 = ORIENTED_EDGE ( 'NONE', *, *, #232, .F. ) ;
#148 = DIRECTION ( 'NONE',  ( -1.000000000000000000, 0.000000000000000000, 0.000000000000000000 ) ) ;
#149 = DIRECTION ( 'NONE',  ( 1.000000000000000000, 0.000000000000000000, 0.000000000000000000 ) ) ;
#150 = ORIENTED_EDGE ( 'NONE', *, *, #27, .F. ) ;
#151 = CIRCLE ( 'NONE', #204, 2.100000000000000089 ) ;
#152 = DIRECTION ( 'NONE',  ( 1.000000000000000000, 0.000000000000000000, 0.000000000000000000 ) ) ;
#153 = APPLICATION_CONTEXT ( 'configuration controlled 3d designs of mechanical parts and assemblies' ) ;
#154 = DIRECTION ( 'NONE',  ( 1.000000000000000000, 0.000000000000000000, 0.000000000000000000 ) ) ;
#155 = CARTESIAN_POINT ( 'NONE',  ( 0.000000000000000000, 0.000000000000000000, 5.500000000000005329 ) ) ;
#156 = CALENDAR_DATE ( 2022, 8, 7 ) ;
#157 = PLANE ( 'NONE',  #330 ) ;
#158 = CARTESIAN_POINT ( 'NONE',  ( 0.000000000000000000, 0.000000000000000000, 0.000000000000000000 ) ) ;
#159 = LINE ( 'NONE', #279, #23 ) ;
#160 = PERSON_AND_ORGANIZATION ( #14, #224 ) ;
#161 = EDGE_CURVE ( 'NONE', #208, #292, #281, .T. ) ;
#162 = CARTESIAN_POINT ( 'NONE',  ( 0.000000000000000000, 0.000000000000000000, 0.000000000000000000 ) ) ;
#163 = PERSON_AND_ORGANIZATION_ROLE ( 'creator' ) ;
#164 = VERTEX_POINT ( 'NONE', #233 ) ;
#165 = DATE_AND_TIME ( #110, #191 ) ;
#166 = DIRECTION ( 'NONE',  ( -1.000000000000000000, 0.000000000000000000, 0.000000000000000000 ) ) ;
#167 = AXIS2_PLACEMENT_3D ( 'NONE', #75, #365, #275 ) ;
#168 = EDGE_LOOP ( 'NONE', ( #60, #260, #364, #231 ) ) ;
#169 = CC_DESIGN_APPROVAL ( #243, ( #185 ) ) ;
#170 = VECTOR ( 'NONE', #345, 1000.000000000000000 ) ;
#171 = CARTESIAN_POINT ( 'NONE',  ( -4.500000000000000888, 5.510910596163089556E-16, 5.500000000000005329 ) ) ;
#172 = VERTEX_POINT ( 'NONE', #355 ) ;
#173 = CARTESIAN_POINT ( 'NONE',  ( 7.000000000000000000, 8.572527594031473190E-16, 5.000000000000000000 ) ) ;
#174 = ORIENTED_EDGE ( 'NONE', *, *, #27, .T. ) ;
#175 = CIRCLE ( 'NONE', #114, 2.100000000000000089 ) ;
#176 = CARTESIAN_POINT ( 'NONE',  ( 0.000000000000000000, 0.000000000000000000, 405.0000000000000000 ) ) ;
#177 = APPROVAL ( #373, 'NEURÈENÝ' ) ;
#178 = CARTESIAN_POINT ( 'NONE',  ( 0.000000000000000000, 0.000000000000000000, 5.000000000000000000 ) ) ;
#179 = DIRECTION ( 'NONE',  ( -0.000000000000000000, -0.000000000000000000, -1.000000000000000000 ) ) ;
#180 = VERTEX_POINT ( 'NONE', #173 ) ;
#181 = CARTESIAN_POINT ( 'NONE',  ( 4.000000000000000000, 4.898587196589412829E-16, 5.500000000000005329 ) ) ;
#182 = ADVANCED_FACE ( 'NONE', ( #352, #327 ), #325, .T. ) ;
#183 = AXIS2_PLACEMENT_3D ( 'NONE', #349, #28, #199 ) ;
#184 = MANIFOLD_SOLID_BREP ( 'Odebrat vysunutím3', #376 ) ;
#185 = SECURITY_CLASSIFICATION ( '', '', #101 ) ;
#186 = CIRCLE ( 'NONE', #371, 4.500000000000000888 ) ;
#187 = DIRECTION ( 'NONE',  ( -0.000000000000000000, -0.000000000000000000, -1.000000000000000000 ) ) ;
#188 = DIRECTION ( 'NONE',  ( 0.000000000000000000, 0.000000000000000000, 1.000000000000000000 ) ) ;
#189 = VERTEX_POINT ( 'NONE', #363 ) ;
#190 = LINE ( 'NONE', #310, #207 ) ;
#191 = LOCAL_TIME ( 17, 26, 47.00000000000000000, #4 ) ;
#192 = ADVANCED_FACE ( 'NONE', ( #319 ), #86, .F. ) ;
#193 = PERSON_AND_ORGANIZATION ( #14, #224 ) ;
#194 = DIRECTION ( 'NONE',  ( 0.000000000000000000, 0.000000000000000000, 1.000000000000000000 ) ) ;
#195 = CARTESIAN_POINT ( 'NONE',  ( 2.100000000000000089, 2.571758278209441957E-16, 405.0000000000000000 ) ) ;
#196 = PRODUCT_DEFINITION_SHAPE ( 'NONE', 'NONE',  #250 ) ;
#197 = AXIS2_PLACEMENT_3D ( 'NONE', #176, #31, #140 ) ;
#198 = ORIENTED_EDGE ( 'NONE', *, *, #235, .F. ) ;
#199 = DIRECTION ( 'NONE',  ( 1.000000000000000000, 0.000000000000000000, 0.000000000000000000 ) ) ;
#200 = ORIENTED_EDGE ( 'NONE', *, *, #128, .T. ) ;
#201 = APPROVAL_STATUS ( 'not_yet_approved' ) ;
#202 = CYLINDRICAL_SURFACE ( 'NONE', #135, 4.000000000000000000 ) ;
#203 = ORIENTED_EDGE ( 'NONE', *, *, #264, .F. ) ;
#204 = AXIS2_PLACEMENT_3D ( 'NONE', #87, #288, #209 ) ;
#205 = CC_DESIGN_APPROVAL ( #177, ( #250 ) ) ;
#206 = VERTEX_POINT ( 'NONE', #36 ) ;
#207 = VECTOR ( 'NONE', #144, 1000.000000000000000 ) ;
#208 = VERTEX_POINT ( 'NONE', #239 ) ;
#209 = DIRECTION ( 'NONE',  ( 1.000000000000000000, 0.000000000000000000, 0.000000000000000000 ) ) ;
#210 = ORIENTED_EDGE ( 'NONE', *, *, #230, .T. ) ;
#211 = CARTESIAN_POINT ( 'NONE',  ( 0.000000000000000000, 0.000000000000000000, 0.000000000000000000 ) ) ;
#212 = ORIENTED_EDGE ( 'NONE', *, *, #246, .F. ) ;
#213 = EDGE_CURVE ( 'NONE', #189, #139, #132, .T. ) ;
#214 = AXIS2_PLACEMENT_3D ( 'NONE', #142, #240, #61 ) ;
#215 = DIRECTION ( 'NONE',  ( 1.000000000000000000, 0.000000000000000000, 0.000000000000000000 ) ) ;
#216 = CARTESIAN_POINT ( 'NONE',  ( -7.000000000000000000, 0.000000000000000000, 0.000000000000000000 ) ) ;
#217 = EDGE_LOOP ( 'NONE', ( #350, #55 ) ) ;
#218 = EDGE_CURVE ( 'NONE', #106, #139, #273, .T. ) ;
#219 = VERTEX_POINT ( 'NONE', #263 ) ;
#220 = CC_DESIGN_DATE_AND_TIME_ASSIGNMENT ( #252, #370, ( #250 ) ) ;
#221 = APPLICATION_CONTEXT ( 'configuration controlled 3d designs of mechanical parts and assemblies' ) ;
#222 = AXIS2_PLACEMENT_3D ( 'NONE', #211, #188, #336 ) ;
#223 = FACE_OUTER_BOUND ( 'NONE', #29, .T. ) ;
#224 = ORGANIZATION ( 'NEURÈENÝ', 'NEURÈENÝ', '' ) ;
#225 = ADVANCED_FACE ( 'NONE', ( #111 ), #5, .T. ) ;
#226 = APPROVAL_ROLE ( '' ) ;
#227 = DIRECTION ( 'NONE',  ( 1.000000000000000000, 0.000000000000000000, 0.000000000000000000 ) ) ;
#228 = DIRECTION ( 'NONE',  ( 0.000000000000000000, 0.000000000000000000, 1.000000000000000000 ) ) ;
#229 = DIRECTION ( 'NONE',  ( -0.000000000000000000, -0.000000000000000000, -1.000000000000000000 ) ) ;
#230 = EDGE_CURVE ( 'NONE', #206, #164, #175, .T. ) ;
#231 = ORIENTED_EDGE ( 'NONE', *, *, #96, .F. ) ;
#232 = EDGE_CURVE ( 'NONE', #219, #77, #347, .T. ) ;
#233 = CARTESIAN_POINT ( 'NONE',  ( -2.100000000000000089, 0.000000000000000000, 0.000000000000000000 ) ) ;
#234 = DATE_AND_TIME ( #112, #146 ) ;
#235 = EDGE_CURVE ( 'NONE', #164, #206, #151, .T. ) ;
#236 = AXIS2_PLACEMENT_3D ( 'NONE', #107, #194, #50 ) ;
#237 = AXIS2_PLACEMENT_3D ( 'NONE', #1, #277, #227 ) ;
#238 = AXIS2_PLACEMENT_3D ( 'NONE', #103, #253, #318 ) ;
#239 = CARTESIAN_POINT ( 'NONE',  ( 4.000000000000000000, 4.898587196589412829E-16, 405.0000000000000000 ) ) ;
#240 = DIRECTION ( 'NONE',  ( 0.000000000000000000, 0.000000000000000000, 1.000000000000000000 ) ) ;
#241 = EDGE_CURVE ( 'NONE', #172, #208, #256, .T. ) ;
#242 = ADVANCED_FACE ( 'NONE', ( #293 ), #7, .T. ) ;
#243 = APPROVAL ( #201, 'NEURÈENÝ' ) ;
#244 = AXIS2_PLACEMENT_3D ( 'NONE', #342, #311, #26 ) ;
#245 =( NAMED_UNIT ( * ) SI_UNIT ( $, .STERADIAN. ) SOLID_ANGLE_UNIT ( ) );
#246 = EDGE_CURVE ( 'NONE', #180, #271, #123, .T. ) ;
#247 = TOROIDAL_SURFACE ( 'NONE', #254, 4.500000000000000888, 0.5000000000000000000 ) ;
#248 = DIRECTION ( 'NONE',  ( 0.000000000000000000, 0.000000000000000000, 1.000000000000000000 ) ) ;
#249 = ORIENTED_EDGE ( 'NONE', *, *, #83, .T. ) ;
#250 = PRODUCT_DEFINITION ( 'NEZNÁMÝ', '', #289, #122 ) ;
#251 = ORIENTED_EDGE ( 'NONE', *, *, #213, .T. ) ;
#252 = DATE_AND_TIME ( #156, #66 ) ;
#253 = DIRECTION ( 'NONE',  ( 0.000000000000000000, 0.000000000000000000, 1.000000000000000000 ) ) ;
#254 = AXIS2_PLACEMENT_3D ( 'NONE', #155, #126, #149 ) ;
#255 = DIRECTION ( 'NONE',  ( 0.000000000000000000, 0.000000000000000000, 1.000000000000000000 ) ) ;
#256 = CIRCLE ( 'NONE', #197, 4.000000000000000000 ) ;
#257 = PERSON_AND_ORGANIZATION ( #14, #224 ) ;
#258 = AXIS2_PLACEMENT_3D ( 'NONE', #178, #298, #344 ) ;
#259 = FACE_BOUND ( 'NONE', #53, .T. ) ;
#260 = ORIENTED_EDGE ( 'NONE', *, *, #161, .T. ) ;
#261 = CC_DESIGN_PERSON_AND_ORGANIZATION_ASSIGNMENT ( #160, #62, ( #185 ) ) ;
#262 = DIRECTION ( 'NONE',  ( -1.000000000000000000, 1.224646799147351482E-16, 0.000000000000000000 ) ) ;
#263 = CARTESIAN_POINT ( 'NONE',  ( -2.100000000000000089, 0.000000000000000000, 405.0000000000000000 ) ) ;
#264 = EDGE_CURVE ( 'NONE', #292, #189, #337, .T. ) ;
#265 = DATE_TIME_ROLE ( 'classification_date' ) ;
#266 = VECTOR ( 'NONE', #187, 1000.000000000000000 ) ;
#267 = UNCERTAINTY_MEASURE_WITH_UNIT (LENGTH_MEASURE( 1.000000000000000082E-05 ), #93, 'distance_accuracy_value', 'NONE');
#268 = DIRECTION ( 'NONE',  ( -0.000000000000000000, -0.000000000000000000, -1.000000000000000000 ) ) ;
#269 = VERTEX_POINT ( 'NONE', #368 ) ;
#270 = EDGE_CURVE ( 'NONE', #189, #292, #314, .T. ) ;
#271 = VERTEX_POINT ( 'NONE', #15 ) ;
#272 = VERTEX_POINT ( 'NONE', #216 ) ;
#273 = CIRCLE ( 'NONE', #280, 4.500000000000000888 ) ;
#274 = CARTESIAN_POINT ( 'NONE',  ( 0.000000000000000000, 0.000000000000000000, 5.000000000000000000 ) ) ;
#275 = DIRECTION ( 'NONE',  ( 1.000000000000000000, 0.000000000000000000, 0.000000000000000000 ) ) ;
#276 = ORIENTED_EDGE ( 'NONE', *, *, #241, .T. ) ;
#277 = DIRECTION ( 'NONE',  ( 0.000000000000000000, 0.000000000000000000, 1.000000000000000000 ) ) ;
#278 = PERSON_AND_ORGANIZATION_ROLE ( 'design_owner' ) ;
#279 = CARTESIAN_POINT ( 'NONE',  ( -7.000000000000000000, 0.000000000000000000, 5.000000000000000000 ) ) ;
#280 = AXIS2_PLACEMENT_3D ( 'NONE', #10, #57, #116 ) ;
#281 = LINE ( 'NONE', #291, #324 ) ;
#282 = COORDINATED_UNIVERSAL_TIME_OFFSET ( 1, 0, .AHEAD. ) ;
#283 = LINE ( 'NONE', #79, #306 ) ;
#284 = EDGE_CURVE ( 'NONE', #139, #106, #186, .T. ) ;
#285 = PERSON_AND_ORGANIZATION_ROLE ( 'design_supplier' ) ;
#286 = FACE_OUTER_BOUND ( 'NONE', #41, .T. ) ;
#287 = EDGE_LOOP ( 'NONE', ( #276, #85 ) ) ;
#288 = DIRECTION ( 'NONE',  ( -0.000000000000000000, -0.000000000000000000, -1.000000000000000000 ) ) ;
#289 = PRODUCT_DEFINITION_FORMATION_WITH_SPECIFIED_SOURCE ( 'LIBOVOLNÝ', '', #102, .NOT_KNOWN. ) ;
#290 = ORIENTED_EDGE ( 'NONE', *, *, #9, .F. ) ;
#291 = CARTESIAN_POINT ( 'NONE',  ( 4.000000000000000000, 4.898587196589412829E-16, 405.0000000000000000 ) ) ;
#292 = VERTEX_POINT ( 'NONE', #181 ) ;
#293 = FACE_OUTER_BOUND ( 'NONE', #362, .T. ) ;
#294 = ADVANCED_FACE ( 'NONE', ( #42, #124 ), #301, .T. ) ;
#295 = ORIENTED_EDGE ( 'NONE', *, *, #83, .F. ) ;
#296 = DIRECTION ( 'NONE',  ( 0.000000000000000000, 0.000000000000000000, -1.000000000000000000 ) ) ;
#297 = AXIS2_PLACEMENT_3D ( 'NONE', #158, #228, #379 ) ;
#298 = DIRECTION ( 'NONE',  ( 0.000000000000000000, 0.000000000000000000, 1.000000000000000000 ) ) ;
#299 = CARTESIAN_POINT ( 'NONE',  ( 0.000000000000000000, 0.000000000000000000, 5.000000000000000000 ) ) ;
#300 = EDGE_LOOP ( 'NONE', ( #98, #2 ) ) ;
#301 = PLANE ( 'NONE',  #119 ) ;
#302 = CIRCLE ( 'NONE', #236, 4.000000000000000000 ) ;
#303 = APPROVAL_PERSON_ORGANIZATION ( #351, #243, #329 ) ;
#304 = CARTESIAN_POINT ( 'NONE',  ( 0.000000000000000000, 0.000000000000000000, 5.500000000000005329 ) ) ;
#305 = CIRCLE ( 'NONE', #358, 0.5000000000000004441 ) ;
#306 = VECTOR ( 'NONE', #47, 1000.000000000000000 ) ;
#307 = FACE_OUTER_BOUND ( 'NONE', #69, .T. ) ;
#308 = ORIENTED_EDGE ( 'NONE', *, *, #96, .T. ) ;
#309 = LOCAL_TIME ( 17, 26, 47.00000000000000000, #99 ) ;
#310 = CARTESIAN_POINT ( 'NONE',  ( 2.100000000000000089, 2.571758278209441957E-16, 405.0000000000000000 ) ) ;
#311 = DIRECTION ( 'NONE',  ( 0.000000000000000000, 0.000000000000000000, -1.000000000000000000 ) ) ;
#312 = CYLINDRICAL_SURFACE ( 'NONE', #338, 7.000000000000000000 ) ;
#313 = PERSON_AND_ORGANIZATION ( #14, #224 ) ;
#314 = CIRCLE ( 'NONE', #167, 4.000000000000000000 ) ;
#315 = CARTESIAN_POINT ( 'NONE',  ( 4.500000000000000888, 0.000000000000000000, 5.500000000000005329 ) ) ;
#316 = ORIENTED_EDGE ( 'NONE', *, *, #232, .T. ) ;
#317 = PERSON_AND_ORGANIZATION ( #14, #224 ) ;
#318 = DIRECTION ( 'NONE',  ( 1.000000000000000000, 0.000000000000000000, 0.000000000000000000 ) ) ;
#319 = FACE_OUTER_BOUND ( 'NONE', #35, .T. ) ;
#320 = ORIENTED_EDGE ( 'NONE', *, *, #235, .T. ) ;
#321 = EDGE_CURVE ( 'NONE', #272, #271, #366, .T. ) ;
#322 = CARTESIAN_POINT ( 'NONE',  ( 0.000000000000000000, 0.000000000000000000, 405.0000000000000000 ) ) ;
#323 = ORIENTED_EDGE ( 'NONE', *, *, #284, .F. ) ;
#324 = VECTOR ( 'NONE', #268, 1000.000000000000000 ) ;
#325 = PLANE ( 'NONE',  #214 ) ;
#326 = ORIENTED_EDGE ( 'NONE', *, *, #71, .T. ) ;
#327 = FACE_OUTER_BOUND ( 'NONE', #287, .T. ) ;
#328 = ORIENTED_EDGE ( 'NONE', *, *, #43, .F. ) ;
#329 = APPROVAL_ROLE ( '' ) ;
#330 = AXIS2_PLACEMENT_3D ( 'NONE', #162, #255, #380 ) ;
#331 = CARTESIAN_POINT ( 'NONE',  ( 0.000000000000000000, 0.000000000000000000, 0.000000000000000000 ) ) ;
#332 = ORIENTED_EDGE ( 'NONE', *, *, #213, .F. ) ;
#333 = CC_DESIGN_PERSON_AND_ORGANIZATION_ASSIGNMENT ( #193, #285, ( #289 ) ) ;
#334 = EDGE_LOOP ( 'NONE', ( #8, #100 ) ) ;
#335 = DIRECTION ( 'NONE',  ( 1.000000000000000000, 0.000000000000000000, -0.000000000000000000 ) ) ;
#336 = DIRECTION ( 'NONE',  ( 1.000000000000000000, 0.000000000000000000, 0.000000000000000000 ) ) ;
#337 = CIRCLE ( 'NONE', #16, 4.000000000000000000 ) ;
#338 = AXIS2_PLACEMENT_3D ( 'NONE', #52, #105, #20 ) ;
#339 = EDGE_LOOP ( 'NONE', ( #89, #67, #308, #141 ) ) ;
#340 = ORIENTED_EDGE ( 'NONE', *, *, #71, .F. ) ;
#341 = DATE_AND_TIME ( #49, #30 ) ;
#342 = CARTESIAN_POINT ( 'NONE',  ( 0.000000000000000000, 0.000000000000000000, 405.0000000000000000 ) ) ;
#343 = APPROVAL_STATUS ( 'not_yet_approved' ) ;
#344 = DIRECTION ( 'NONE',  ( 1.000000000000000000, 0.000000000000000000, 0.000000000000000000 ) ) ;
#345 = DIRECTION ( 'NONE',  ( -0.000000000000000000, -0.000000000000000000, -1.000000000000000000 ) ) ;
#346 = APPROVAL_DATE_TIME ( #341, #177 ) ;
#347 = CIRCLE ( 'NONE', #357, 2.100000000000000089 ) ;
#348 = DIRECTION ( 'NONE',  ( 0.000000000000000000, -1.000000000000000000, 0.000000000000000000 ) ) ;
#349 = CARTESIAN_POINT ( 'NONE',  ( 0.000000000000000000, 0.000000000000000000, 405.0000000000000000 ) ) ;
#350 = ORIENTED_EDGE ( 'NONE', *, *, #321, .F. ) ;
#351 = PERSON_AND_ORGANIZATION ( #14, #224 ) ;
#352 = FACE_BOUND ( 'NONE', #45, .T. ) ;
#353 = CIRCLE ( 'NONE', #183, 2.100000000000000089 ) ;
#354 = APPROVAL_DATE_TIME ( #234, #243 ) ;
#355 = CARTESIAN_POINT ( 'NONE',  ( -4.000000000000000000, 0.000000000000000000, 405.0000000000000000 ) ) ;
#356 = ORIENTED_EDGE ( 'NONE', *, *, #321, .T. ) ;
#357 = AXIS2_PLACEMENT_3D ( 'NONE', #3, #113, #12 ) ;
#358 = AXIS2_PLACEMENT_3D ( 'NONE', #315, #348, #374 ) ;
#359 = ADVANCED_BREP_SHAPE_REPRESENTATION ( 'f76d', ( #184, #297 ), #131 ) ;
#360 = DIRECTION ( 'NONE',  ( -0.000000000000000000, -0.000000000000000000, -1.000000000000000000 ) ) ;
#361 = EDGE_CURVE ( 'NONE', #271, #272, #37, .T. ) ;
#362 = EDGE_LOOP ( 'NONE', ( #212, #328, #200, #356 ) ) ;
#363 = CARTESIAN_POINT ( 'NONE',  ( -4.000000000000000000, 0.000000000000000000, 5.500000000000005329 ) ) ;
#364 = ORIENTED_EDGE ( 'NONE', *, *, #264, .T. ) ;
#365 = DIRECTION ( 'NONE',  ( 0.000000000000000000, 0.000000000000000000, 1.000000000000000000 ) ) ;
#366 = CIRCLE ( 'NONE', #13, 7.000000000000000000 ) ;
#367 = DIRECTION ( 'NONE',  ( 0.000000000000000000, 0.000000000000000000, 1.000000000000000000 ) ) ;
#368 = CARTESIAN_POINT ( 'NONE',  ( -7.000000000000000000, 0.000000000000000000, 5.000000000000000000 ) ) ;
#369 = ORIENTED_EDGE ( 'NONE', *, *, #218, .F. ) ;
#370 = DATE_TIME_ROLE ( 'creation_date' ) ;
#371 = AXIS2_PLACEMENT_3D ( 'NONE', #120, #179, #154 ) ;
#372 = APPROVAL_PERSON_ORGANIZATION ( #257, #177, #226 ) ;
#373 = APPROVAL_STATUS ( 'not_yet_approved' ) ;
#374 = DIRECTION ( 'NONE',  ( 0.000000000000000000, 0.000000000000000000, -1.000000000000000000 ) ) ;
#375 = PERSON_AND_ORGANIZATION ( #14, #224 ) ;
#376 = CLOSED_SHELL ( 'NONE', ( #70, #64, #225, #48, #242, #294, #94, #18, #182, #378, #192 ) ) ;
#377 = FACE_OUTER_BOUND ( 'NONE', #339, .T. ) ;
#378 = ADVANCED_FACE ( 'NONE', ( #307 ), #247, .F. ) ;
#379 = DIRECTION ( 'NONE',  ( 1.000000000000000000, 0.000000000000000000, 0.000000000000000000 ) ) ;
#380 = DIRECTION ( 'NONE',  ( 1.000000000000000000, 0.000000000000000000, -0.000000000000000000 ) ) ;
#381 = ORIENTED_EDGE ( 'NONE', *, *, #128, .F. ) ;
ENDSEC;
END-ISO-10303-21;
