ISO-10303-21;
HEADER;
FILE_DESCRIPTION (( 'STEP AP203' ),
    '1' );
FILE_NAME ('3c13.STEP',
    '2022-07-08T15:04:06',
    ( '' ),
    ( '' ),
    'SwSTEP 2.0',
    'SolidWorks 2019',
    '' );
FILE_SCHEMA (( 'CONFIG_CONTROL_DESIGN' ));
ENDSEC;

DATA;
#1 = DIRECTION ( 'NONE',  ( 0.000000000000000000, 0.000000000000000000, -1.000000000000000000 ) ) ;
#2 = EDGE_LOOP ( 'NONE', ( #167, #163 ) ) ;
#3 = CARTESIAN_POINT ( 'NONE',  ( 0.000000000000000000, 0.000000000000000000, 5.500000000000005329 ) ) ;
#4 = ORGANIZATION ( 'NEURÈENÝ', 'NEURÈENÝ', '' ) ;
#5 = DIRECTION ( 'NONE',  ( -1.000000000000000000, 0.000000000000000000, 0.000000000000000000 ) ) ;
#6 = EDGE_LOOP ( 'NONE', ( #262, #113 ) ) ;
#7 = VERTEX_POINT ( 'NONE', #173 ) ;
#8 = DIRECTION ( 'NONE',  ( 0.000000000000000000, 0.000000000000000000, -1.000000000000000000 ) ) ;
#9 = ORIENTED_EDGE ( 'NONE', *, *, #343, .T. ) ;
#10 = DIRECTION ( 'NONE',  ( -0.000000000000000000, -0.000000000000000000, -1.000000000000000000 ) ) ;
#11 = VERTEX_POINT ( 'NONE', #148 ) ;
#12 = LOCAL_TIME ( 17, 4, 6.000000000000000000, #296 ) ;
#13 = DIRECTION ( 'NONE',  ( -1.000000000000000000, 0.000000000000000000, 0.000000000000000000 ) ) ;
#14 = ORIENTED_EDGE ( 'NONE', *, *, #85, .F. ) ;
#15 = EDGE_CURVE ( 'NONE', #142, #16, #53, .T. ) ;
#16 = VERTEX_POINT ( 'NONE', #116 ) ;
#17 = EDGE_CURVE ( 'NONE', #186, #44, #240, .T. ) ;
#18 = AXIS2_PLACEMENT_3D ( 'NONE', #188, #308, #35 ) ;
#19 = CIRCLE ( 'NONE', #18, 0.5000000000000004441 ) ;
#20 = CC_DESIGN_PERSON_AND_ORGANIZATION_ASSIGNMENT ( #151, #152, ( #282 ) ) ;
#21 = FACE_OUTER_BOUND ( 'NONE', #289, .T. ) ;
#22 = PERSON_AND_ORGANIZATION ( #324, #4 ) ;
#23 = FACE_OUTER_BOUND ( 'NONE', #2, .T. ) ;
#24 = ADVANCED_FACE ( 'NONE', ( #40 ), #360, .T. ) ;
#25 = SECURITY_CLASSIFICATION_LEVEL ( 'unclassified' ) ;
#26 = AXIS2_PLACEMENT_3D ( 'NONE', #171, #192, #309 ) ;
#27 = AXIS2_PLACEMENT_3D ( 'NONE', #374, #119, #241 ) ;
#28 = COORDINATED_UNIVERSAL_TIME_OFFSET ( 1, 0, .AHEAD. ) ;
#29 = DIRECTION ( 'NONE',  ( 0.000000000000000000, 0.000000000000000000, 1.000000000000000000 ) ) ;
#30 = EDGE_CURVE ( 'NONE', #7, #264, #50, .T. ) ;
#31 = DIRECTION ( 'NONE',  ( 0.000000000000000000, 0.000000000000000000, -1.000000000000000000 ) ) ;
#32 = ADVANCED_FACE ( 'NONE', ( #134 ), #358, .F. ) ;
#33 = AXIS2_PLACEMENT_3D ( 'NONE', #109, #233, #314 ) ;
#34 = PRODUCT ( '3c13', '3c13', '', ( #319 ) ) ;
#35 = DIRECTION ( 'NONE',  ( -1.000000000000000000, 1.224646799147351482E-16, 0.000000000000000000 ) ) ;
#36 = DIRECTION ( 'NONE',  ( 0.000000000000000000, 0.000000000000000000, 1.000000000000000000 ) ) ;
#37 = ADVANCED_FACE ( 'NONE', ( #370, #21 ), #205, .T. ) ;
#38 = ORIENTED_EDGE ( 'NONE', *, *, #90, .T. ) ;
#39 = DIRECTION ( 'NONE',  ( 0.000000000000000000, 0.000000000000000000, 1.000000000000000000 ) ) ;
#40 = FACE_OUTER_BOUND ( 'NONE', #195, .T. ) ;
#41 = LOCAL_TIME ( 17, 4, 6.000000000000000000, #273 ) ;
#42 =( LENGTH_UNIT ( ) NAMED_UNIT ( * ) SI_UNIT ( .MILLI., .METRE. ) );
#43 = CARTESIAN_POINT ( 'NONE',  ( 0.000000000000000000, 0.000000000000000000, 505.0000000000000000 ) ) ;
#44 = VERTEX_POINT ( 'NONE', #118 ) ;
#45 = EDGE_CURVE ( 'NONE', #16, #142, #204, .T. ) ;
#46 = FACE_OUTER_BOUND ( 'NONE', #227, .T. ) ;
#47 = ORIENTED_EDGE ( 'NONE', *, *, #248, .T. ) ;
#48 = AXIS2_PLACEMENT_3D ( 'NONE', #133, #312, #189 ) ;
#49 = EDGE_LOOP ( 'NONE', ( #366, #78 ) ) ;
#50 = CIRCLE ( 'NONE', #313, 2.750000000000000000 ) ;
#51 = CC_DESIGN_PERSON_AND_ORGANIZATION_ASSIGNMENT ( #176, #243, ( #272 ) ) ;
#52 = AXIS2_PLACEMENT_3D ( 'NONE', #230, #169, #143 ) ;
#53 = CIRCLE ( 'NONE', #206, 5.500000000000000000 ) ;
#54 = APPLICATION_PROTOCOL_DEFINITION ( 'international standard', 'config_control_design', 1994, #274 ) ;
#55 = ADVANCED_FACE ( 'NONE', ( #84, #23 ), #127, .T. ) ;
#56 = PERSON_AND_ORGANIZATION ( #324, #4 ) ;
#57 = CIRCLE ( 'NONE', #221, 2.750000000000000000 ) ;
#58 = PERSON_AND_ORGANIZATION_ROLE ( 'design_owner' ) ;
#59 = EDGE_CURVE ( 'NONE', #315, #11, #258, .T. ) ;
#60 = CARTESIAN_POINT ( 'NONE',  ( 5.000000000000000000, 6.123233995736766282E-16, 505.0000000000000000 ) ) ;
#61 = LINE ( 'NONE', #63, #217 ) ;
#62 = LOCAL_TIME ( 17, 4, 6.000000000000000000, #323 ) ;
#63 = CARTESIAN_POINT ( 'NONE',  ( -8.000000000000000000, 0.000000000000000000, 5.000000000000000000 ) ) ;
#64 = VERTEX_POINT ( 'NONE', #359 ) ;
#65 = EDGE_CURVE ( 'NONE', #172, #361, #299, .T. ) ;
#66 = CARTESIAN_POINT ( 'NONE',  ( 0.000000000000000000, 0.000000000000000000, 5.500000000000005329 ) ) ;
#67 = CARTESIAN_POINT ( 'NONE',  ( -5.000000000000000000, 0.000000000000000000, 5.500000000000005329 ) ) ;
#68 = FACE_OUTER_BOUND ( 'NONE', #137, .T. ) ;
#69 = ORIENTED_EDGE ( 'NONE', *, *, #45, .T. ) ;
#70 = DIRECTION ( 'NONE',  ( 1.000000000000000000, 0.000000000000000000, 0.000000000000000000 ) ) ;
#71 = ORIENTED_EDGE ( 'NONE', *, *, #208, .T. ) ;
#72 = CARTESIAN_POINT ( 'NONE',  ( 0.000000000000000000, 0.000000000000000000, 0.000000000000000000 ) ) ;
#73 = ORIENTED_EDGE ( 'NONE', *, *, #65, .T. ) ;
#74 = ORIENTED_EDGE ( 'NONE', *, *, #85, .T. ) ;
#75 = DIRECTION ( 'NONE',  ( 1.000000000000000000, 0.000000000000000000, 0.000000000000000000 ) ) ;
#76 = VERTEX_POINT ( 'NONE', #94 ) ;
#77 = APPLICATION_CONTEXT ( 'configuration controlled 3d designs of mechanical parts and assemblies' ) ;
#78 = ORIENTED_EDGE ( 'NONE', *, *, #65, .F. ) ;
#79 = AXIS2_PLACEMENT_3D ( 'NONE', #265, #196, #70 ) ;
#80 = CARTESIAN_POINT ( 'NONE',  ( 5.000000000000000000, 6.123233995736766282E-16, 505.0000000000000000 ) ) ;
#81 = AXIS2_PLACEMENT_3D ( 'NONE', #357, #36, #131 ) ;
#82 = DIRECTION ( 'NONE',  ( 1.000000000000000000, 0.000000000000000000, -0.000000000000000000 ) ) ;
#83 = TOROIDAL_SURFACE ( 'NONE', #126, 5.500000000000000000, 0.5000000000000000000 ) ;
#84 = FACE_BOUND ( 'NONE', #115, .T. ) ;
#85 = EDGE_CURVE ( 'NONE', #259, #11, #61, .T. ) ;
#86 = APPROVAL_DATE_TIME ( #378, #124 ) ;
#87 = APPROVAL_ROLE ( '' ) ;
#88 = DATE_AND_TIME ( #178, #12 ) ;
#89 = CC_DESIGN_APPROVAL ( #101, ( #282 ) ) ;
#90 = EDGE_CURVE ( 'NONE', #44, #285, #150, .T. ) ;
#91 = CALENDAR_DATE ( 2022, 8, 7 ) ;
#92 = CARTESIAN_POINT ( 'NONE',  ( 5.500000000000000000, 0.000000000000000000, 5.000000000000002665 ) ) ;
#93 = AXIS2_PLACEMENT_3D ( 'NONE', #284, #190, #164 ) ;
#94 = CARTESIAN_POINT ( 'NONE',  ( 8.000000000000000000, 9.797174393178825657E-16, 5.000000000000000000 ) ) ;
#95 = DIRECTION ( 'NONE',  ( -0.000000000000000000, -0.000000000000000000, -1.000000000000000000 ) ) ;
#96 = EDGE_LOOP ( 'NONE', ( #168, #336, #38, #317 ) ) ;
#97 = CC_DESIGN_APPROVAL ( #124, ( #272 ) ) ;
#98 = DIRECTION ( 'NONE',  ( 0.000000000000000000, 0.000000000000000000, 1.000000000000000000 ) ) ;
#99 = EDGE_LOOP ( 'NONE', ( #229, #338 ) ) ;
#100 = CARTESIAN_POINT ( 'NONE',  ( 0.000000000000000000, 0.000000000000000000, 505.0000000000000000 ) ) ;
#101 = APPROVAL ( #320, 'NEURÈENÝ' ) ;
#102 = AXIS2_PLACEMENT_3D ( 'NONE', #269, #373, #82 ) ;
#103 = FACE_OUTER_BOUND ( 'NONE', #96, .T. ) ;
#104 = DIRECTION ( 'NONE',  ( -1.000000000000000000, 0.000000000000000000, 0.000000000000000000 ) ) ;
#105 = DIRECTION ( 'NONE',  ( -0.000000000000000000, -0.000000000000000000, -1.000000000000000000 ) ) ;
#106 = ADVANCED_FACE ( 'NONE', ( #103 ), #305, .T. ) ;
#107 = ORIENTED_EDGE ( 'NONE', *, *, #30, .T. ) ;
#108 = ADVANCED_BREP_SHAPE_REPRESENTATION ( '3c13', ( #238, #297 ), #346 ) ;
#109 = CARTESIAN_POINT ( 'NONE',  ( 0.000000000000000000, 0.000000000000000000, 5.000000000000000000 ) ) ;
#110 = ADVANCED_FACE ( 'NONE', ( #325, #304 ), #253, .F. ) ;
#111 = VECTOR ( 'NONE', #31, 1000.000000000000000 ) ;
#112 =( NAMED_UNIT ( * ) PLANE_ANGLE_UNIT ( ) SI_UNIT ( $, .RADIAN. ) );
#113 = ORIENTED_EDGE ( 'NONE', *, *, #59, .F. ) ;
#114 = ORIENTED_EDGE ( 'NONE', *, *, #235, .T. ) ;
#115 = EDGE_LOOP ( 'NONE', ( #365, #69 ) ) ;
#116 = CARTESIAN_POINT ( 'NONE',  ( -5.500000000000000000, 6.735557395310442023E-16, 5.000000000000002665 ) ) ;
#117 = AXIS2_PLACEMENT_3D ( 'NONE', #260, #10, #104 ) ;
#118 = CARTESIAN_POINT ( 'NONE',  ( 5.000000000000000000, 6.123233995736766282E-16, 5.500000000000005329 ) ) ;
#119 = DIRECTION ( 'NONE',  ( -0.000000000000000000, -0.000000000000000000, -1.000000000000000000 ) ) ;
#120 = PERSON_AND_ORGANIZATION ( #324, #4 ) ;
#121 = LOCAL_TIME ( 17, 4, 6.000000000000000000, #28 ) ;
#122 = DATE_AND_TIME ( #376, #321 ) ;
#123 = DATE_TIME_ROLE ( 'creation_date' ) ;
#124 = APPROVAL ( #207, 'NEURÈENÝ' ) ;
#125 = COORDINATED_UNIVERSAL_TIME_OFFSET ( 1, 0, .AHEAD. ) ;
#126 = AXIS2_PLACEMENT_3D ( 'NONE', #3, #256, #263 ) ;
#127 = PLANE ( 'NONE',  #286 ) ;
#128 = DIRECTION ( 'NONE',  ( 1.000000000000000000, 0.000000000000000000, 0.000000000000000000 ) ) ;
#129 = CARTESIAN_POINT ( 'NONE',  ( -2.750000000000000000, 0.000000000000000000, 505.0000000000000000 ) ) ;
#130 = EDGE_CURVE ( 'NONE', #64, #186, #255, .T. ) ;
#131 = DIRECTION ( 'NONE',  ( 1.000000000000000000, 0.000000000000000000, 0.000000000000000000 ) ) ;
#132 = EDGE_LOOP ( 'NONE', ( #287, #254, #199, #14 ) ) ;
#133 = CARTESIAN_POINT ( 'NONE',  ( 0.000000000000000000, 0.000000000000000000, 5.000000000000000000 ) ) ;
#134 = FACE_OUTER_BOUND ( 'NONE', #234, .T. ) ;
#135 = AXIS2_PLACEMENT_3D ( 'NONE', #181, #158, #161 ) ;
#136 = CARTESIAN_POINT ( 'NONE',  ( 2.750000000000000000, 3.367778697655221012E-16, 505.0000000000000000 ) ) ;
#137 = EDGE_LOOP ( 'NONE', ( #202, #220, #342, #331 ) ) ;
#138 = CARTESIAN_POINT ( 'NONE',  ( -2.750000000000000000, 0.000000000000000000, 0.000000000000000000 ) ) ;
#139 = ORIENTED_EDGE ( 'NONE', *, *, #160, .T. ) ;
#140 = EDGE_CURVE ( 'NONE', #172, #7, #326, .T. ) ;
#141 = DIRECTION ( 'NONE',  ( 0.000000000000000000, -1.000000000000000000, 0.000000000000000000 ) ) ;
#142 = VERTEX_POINT ( 'NONE', #92 ) ;
#143 = DIRECTION ( 'NONE',  ( 1.000000000000000000, 0.000000000000000000, 0.000000000000000000 ) ) ;
#144 = DIRECTION ( 'NONE',  ( 0.000000000000000000, 0.000000000000000000, 1.000000000000000000 ) ) ;
#145 = ORIENTED_EDGE ( 'NONE', *, *, #17, .F. ) ;
#146 = ORIENTED_EDGE ( 'NONE', *, *, #140, .T. ) ;
#147 = EDGE_CURVE ( 'NONE', #285, #44, #327, .T. ) ;
#148 = CARTESIAN_POINT ( 'NONE',  ( -8.000000000000000000, 0.000000000000000000, 0.000000000000000000 ) ) ;
#149 = EDGE_CURVE ( 'NONE', #285, #16, #19, .T. ) ;
#150 = CIRCLE ( 'NONE', #187, 5.000000000000000000 ) ;
#151 = PERSON_AND_ORGANIZATION ( #324, #4 ) ;
#152 = PERSON_AND_ORGANIZATION_ROLE ( 'classification_officer' ) ;
#153 = AXIS2_PLACEMENT_3D ( 'NONE', #182, #301, #5 ) ;
#154 = APPLICATION_PROTOCOL_DEFINITION ( 'international standard', 'config_control_design', 1994, #77 ) ;
#155 = PERSON_AND_ORGANIZATION_ROLE ( 'creator' ) ;
#156 = DIRECTION ( 'NONE',  ( 1.000000000000000000, 0.000000000000000000, -0.000000000000000000 ) ) ;
#157 = CARTESIAN_POINT ( 'NONE',  ( 0.000000000000000000, 0.000000000000000000, 0.000000000000000000 ) ) ;
#158 = DIRECTION ( 'NONE',  ( 0.000000000000000000, 0.000000000000000000, 1.000000000000000000 ) ) ;
#159 = AXIS2_PLACEMENT_3D ( 'NONE', #328, #380, #330 ) ;
#160 = EDGE_CURVE ( 'NONE', #64, #285, #215, .T. ) ;
#161 = DIRECTION ( 'NONE',  ( 1.000000000000000000, 0.000000000000000000, 0.000000000000000000 ) ) ;
#162 = DIRECTION ( 'NONE',  ( -0.000000000000000000, -0.000000000000000000, -1.000000000000000000 ) ) ;
#163 = ORIENTED_EDGE ( 'NONE', *, *, #335, .T. ) ;
#164 = DIRECTION ( 'NONE',  ( -1.000000000000000000, 0.000000000000000000, 0.000000000000000000 ) ) ;
#165 = CARTESIAN_POINT ( 'NONE',  ( 2.750000000000000000, 3.367778697655221012E-16, 505.0000000000000000 ) ) ;
#166 = CARTESIAN_POINT ( 'NONE',  ( 8.000000000000000000, 9.797174393178825657E-16, 0.000000000000000000 ) ) ;
#167 = ORIENTED_EDGE ( 'NONE', *, *, #270, .T. ) ;
#168 = ORIENTED_EDGE ( 'NONE', *, *, #352, .F. ) ;
#169 = DIRECTION ( 'NONE',  ( 0.000000000000000000, 0.000000000000000000, 1.000000000000000000 ) ) ;
#170 = ORIENTED_EDGE ( 'NONE', *, *, #140, .F. ) ;
#171 = CARTESIAN_POINT ( 'NONE',  ( 0.000000000000000000, 0.000000000000000000, 5.000000000000000000 ) ) ;
#172 = VERTEX_POINT ( 'NONE', #165 ) ;
#173 = CARTESIAN_POINT ( 'NONE',  ( 2.750000000000000000, 3.367778697655221012E-16, 0.000000000000000000 ) ) ;
#174 = EDGE_CURVE ( 'NONE', #76, #315, #281, .T. ) ;
#175 = PERSON_AND_ORGANIZATION_ROLE ( 'design_supplier' ) ;
#176 = PERSON_AND_ORGANIZATION ( #324, #4 ) ;
#177 = DIRECTION ( 'NONE',  ( -1.000000000000000000, 0.000000000000000000, 0.000000000000000000 ) ) ;
#178 = CALENDAR_DATE ( 2022, 8, 7 ) ;
#179 = DESIGN_CONTEXT ( 'detailed design', #77, 'design' ) ;
#180 = DIRECTION ( 'NONE',  ( 1.000000000000000000, 0.000000000000000000, 0.000000000000000000 ) ) ;
#181 = CARTESIAN_POINT ( 'NONE',  ( 0.000000000000000000, 0.000000000000000000, 5.500000000000005329 ) ) ;
#182 = CARTESIAN_POINT ( 'NONE',  ( 0.000000000000000000, 0.000000000000000000, 505.0000000000000000 ) ) ;
#183 = ADVANCED_FACE ( 'NONE', ( #68 ), #231, .F. ) ;
#184 = APPROVAL_PERSON_ORGANIZATION ( #349, #124, #87 ) ;
#185 = CARTESIAN_POINT ( 'NONE',  ( 0.000000000000000000, 0.000000000000000000, 5.500000000000005329 ) ) ;
#186 = VERTEX_POINT ( 'NONE', #60 ) ;
#187 = AXIS2_PLACEMENT_3D ( 'NONE', #185, #98, #226 ) ;
#188 = CARTESIAN_POINT ( 'NONE',  ( -5.500000000000000000, 6.735557395310442023E-16, 5.500000000000005329 ) ) ;
#189 = DIRECTION ( 'NONE',  ( 1.000000000000000000, 0.000000000000000000, 0.000000000000000000 ) ) ;
#190 = DIRECTION ( 'NONE',  ( -0.000000000000000000, -0.000000000000000000, -1.000000000000000000 ) ) ;
#191 = ORIENTED_EDGE ( 'NONE', *, *, #352, .T. ) ;
#192 = DIRECTION ( 'NONE',  ( -0.000000000000000000, -0.000000000000000000, -1.000000000000000000 ) ) ;
#193 = CIRCLE ( 'NONE', #310, 0.5000000000000004441 ) ;
#194 = CIRCLE ( 'NONE', #33, 8.000000000000000000 ) ;
#195 = EDGE_LOOP ( 'NONE', ( #145, #367, #139, #266 ) ) ;
#196 = DIRECTION ( 'NONE',  ( -0.000000000000000000, -0.000000000000000000, -1.000000000000000000 ) ) ;
#197 = ORIENTED_EDGE ( 'NONE', *, *, #147, .F. ) ;
#198 = DIRECTION ( 'NONE',  ( 0.000000000000000000, 0.000000000000000000, -1.000000000000000000 ) ) ;
#199 = ORIENTED_EDGE ( 'NONE', *, *, #59, .T. ) ;
#200 = AXIS2_PLACEMENT_3D ( 'NONE', #66, #353, #128 ) ;
#201 = CC_DESIGN_PERSON_AND_ORGANIZATION_ASSIGNMENT ( #295, #155, ( #316 ) ) ;
#202 = ORIENTED_EDGE ( 'NONE', *, *, #149, .F. ) ;
#203 = EDGE_LOOP ( 'NONE', ( #292, #236, #74, #114 ) ) ;
#204 = CIRCLE ( 'NONE', #27, 5.500000000000000000 ) ;
#205 = PLANE ( 'NONE',  #102 ) ;
#206 = AXIS2_PLACEMENT_3D ( 'NONE', #344, #267, #368 ) ;
#207 = APPROVAL_STATUS ( 'not_yet_approved' ) ;
#208 = EDGE_CURVE ( 'NONE', #361, #264, #354, .T. ) ;
#209 = CALENDAR_DATE ( 2022, 8, 7 ) ;
#210 = DIRECTION ( 'NONE',  ( 0.000000000000000000, 0.000000000000000000, 1.000000000000000000 ) ) ;
#211 = CIRCLE ( 'NONE', #303, 8.000000000000000000 ) ;
#212 = UNCERTAINTY_MEASURE_WITH_UNIT (LENGTH_MEASURE( 1.000000000000000082E-05 ), #42, 'distance_accuracy_value', 'NONE');
#213 = ADVANCED_FACE ( 'NONE', ( #277 ), #251, .T. ) ;
#214 = SHAPE_DEFINITION_REPRESENTATION ( #355, #108 ) ;
#215 = LINE ( 'NONE', #333, #239 ) ;
#216 = PRODUCT_RELATED_PRODUCT_CATEGORY ( 'detail', '', ( #34 ) ) ;
#217 = VECTOR ( 'NONE', #95, 1000.000000000000000 ) ;
#218 = CARTESIAN_POINT ( 'NONE',  ( 0.000000000000000000, 0.000000000000000000, 505.0000000000000000 ) ) ;
#219 = DIRECTION ( 'NONE',  ( 0.000000000000000000, 0.000000000000000000, 1.000000000000000000 ) ) ;
#220 = ORIENTED_EDGE ( 'NONE', *, *, #90, .F. ) ;
#221 = AXIS2_PLACEMENT_3D ( 'NONE', #43, #39, #75 ) ;
#222 = CARTESIAN_POINT ( 'NONE',  ( 0.000000000000000000, 0.000000000000000000, 0.000000000000000000 ) ) ;
#223 =( NAMED_UNIT ( * ) SI_UNIT ( $, .STERADIAN. ) SOLID_ANGLE_UNIT ( ) );
#224 = CLOSED_SHELL ( 'NONE', ( #345, #371, #106, #261, #213, #55, #110, #24, #37, #183, #32 ) ) ;
#225 = DIRECTION ( 'NONE',  ( 0.000000000000000000, 0.000000000000000000, -1.000000000000000000 ) ) ;
#226 = DIRECTION ( 'NONE',  ( 1.000000000000000000, 0.000000000000000000, 0.000000000000000000 ) ) ;
#227 = EDGE_LOOP ( 'NONE', ( #197, #306, #340, #232 ) ) ;
#228 = CARTESIAN_POINT ( 'NONE',  ( 0.000000000000000000, 0.000000000000000000, 0.000000000000000000 ) ) ;
#229 = ORIENTED_EDGE ( 'NONE', *, *, #248, .F. ) ;
#230 = CARTESIAN_POINT ( 'NONE',  ( 0.000000000000000000, 0.000000000000000000, 505.0000000000000000 ) ) ;
#231 = TOROIDAL_SURFACE ( 'NONE', #135, 5.500000000000000000, 0.5000000000000000000 ) ;
#232 = ORIENTED_EDGE ( 'NONE', *, *, #246, .F. ) ;
#233 = DIRECTION ( 'NONE',  ( 0.000000000000000000, 0.000000000000000000, 1.000000000000000000 ) ) ;
#234 = EDGE_LOOP ( 'NONE', ( #170, #73, #71, #47 ) ) ;
#235 = EDGE_CURVE ( 'NONE', #11, #315, #211, .T. ) ;
#236 = ORIENTED_EDGE ( 'NONE', *, *, #270, .F. ) ;
#237 = EDGE_LOOP ( 'NONE', ( #9, #146, #107, #341 ) ) ;
#238 = MANIFOLD_SOLID_BREP ( 'Odebrat vysunutím3', #224 ) ;
#239 = VECTOR ( 'NONE', #162, 1000.000000000000000 ) ;
#240 = LINE ( 'NONE', #80, #347 ) ;
#241 = DIRECTION ( 'NONE',  ( 1.000000000000000000, 0.000000000000000000, 0.000000000000000000 ) ) ;
#242 = APPROVAL_PERSON_ORGANIZATION ( #120, #348, #300 ) ;
#243 = PERSON_AND_ORGANIZATION_ROLE ( 'creator' ) ;
#244 = DATE_TIME_ROLE ( 'classification_date' ) ;
#245 = APPROVAL_DATE_TIME ( #271, #348 ) ;
#246 = EDGE_CURVE ( 'NONE', #44, #142, #193, .T. ) ;
#247 = CALENDAR_DATE ( 2022, 8, 7 ) ;
#248 = EDGE_CURVE ( 'NONE', #264, #7, #363, .T. ) ;
#249 = CC_DESIGN_PERSON_AND_ORGANIZATION_ASSIGNMENT ( #22, #58, ( #34 ) ) ;
#250 = DIRECTION ( 'NONE',  ( -0.000000000000000000, -0.000000000000000000, -1.000000000000000000 ) ) ;
#251 = CYLINDRICAL_SURFACE ( 'NONE', #26, 8.000000000000000000 ) ;
#252 = CC_DESIGN_SECURITY_CLASSIFICATION ( #282, ( #316 ) ) ;
#253 = PLANE ( 'NONE',  #350 ) ;
#254 = ORIENTED_EDGE ( 'NONE', *, *, #174, .T. ) ;
#255 = CIRCLE ( 'NONE', #159, 5.000000000000000000 ) ;
#256 = DIRECTION ( 'NONE',  ( 0.000000000000000000, 0.000000000000000000, 1.000000000000000000 ) ) ;
#257 = CARTESIAN_POINT ( 'NONE',  ( 8.000000000000000000, 9.797174393178825657E-16, 5.000000000000000000 ) ) ;
#258 = CIRCLE ( 'NONE', #81, 8.000000000000000000 ) ;
#259 = VERTEX_POINT ( 'NONE', #288 ) ;
#260 = CARTESIAN_POINT ( 'NONE',  ( 0.000000000000000000, 0.000000000000000000, 5.000000000000000000 ) ) ;
#261 = ADVANCED_FACE ( 'NONE', ( #339 ), #290, .T. ) ;
#262 = ORIENTED_EDGE ( 'NONE', *, *, #235, .F. ) ;
#263 = DIRECTION ( 'NONE',  ( 1.000000000000000000, 0.000000000000000000, 0.000000000000000000 ) ) ;
#264 = VERTEX_POINT ( 'NONE', #138 ) ;
#265 = CARTESIAN_POINT ( 'NONE',  ( 0.000000000000000000, 0.000000000000000000, 0.000000000000000000 ) ) ;
#266 = ORIENTED_EDGE ( 'NONE', *, *, #147, .T. ) ;
#267 = DIRECTION ( 'NONE',  ( -0.000000000000000000, -0.000000000000000000, -1.000000000000000000 ) ) ;
#268 = CC_DESIGN_DATE_AND_TIME_ASSIGNMENT ( #122, #244, ( #282 ) ) ;
#269 = CARTESIAN_POINT ( 'NONE',  ( 0.000000000000000000, 0.000000000000000000, 505.0000000000000000 ) ) ;
#270 = EDGE_CURVE ( 'NONE', #259, #76, #194, .T. ) ;
#271 = DATE_AND_TIME ( #91, #121 ) ;
#272 = PRODUCT_DEFINITION ( 'NEZNÁMÝ', '', #316, #179 ) ;
#273 = COORDINATED_UNIVERSAL_TIME_OFFSET ( 1, 0, .AHEAD. ) ;
#274 = APPLICATION_CONTEXT ( 'configuration controlled 3d designs of mechanical parts and assemblies' ) ;
#275 = PERSON_AND_ORGANIZATION ( #324, #4 ) ;
#276 = CIRCLE ( 'NONE', #52, 5.000000000000000000 ) ;
#277 = FACE_OUTER_BOUND ( 'NONE', #203, .T. ) ;
#278 = DIRECTION ( 'NONE',  ( 0.000000000000000000, 0.000000000000000000, 1.000000000000000000 ) ) ;
#279 = DIRECTION ( 'NONE',  ( 1.000000000000000000, 0.000000000000000000, 0.000000000000000000 ) ) ;
#280 = DIRECTION ( 'NONE',  ( 1.000000000000000000, 0.000000000000000000, 0.000000000000000000 ) ) ;
#281 = LINE ( 'NONE', #257, #375 ) ;
#282 = SECURITY_CLASSIFICATION ( '', '', #25 ) ;
#283 = FACE_OUTER_BOUND ( 'NONE', #237, .T. ) ;
#284 = CARTESIAN_POINT ( 'NONE',  ( 0.000000000000000000, 0.000000000000000000, 505.0000000000000000 ) ) ;
#285 = VERTEX_POINT ( 'NONE', #67 ) ;
#286 = AXIS2_PLACEMENT_3D ( 'NONE', #302, #29, #156 ) ;
#287 = ORIENTED_EDGE ( 'NONE', *, *, #335, .F. ) ;
#288 = CARTESIAN_POINT ( 'NONE',  ( -8.000000000000000000, 0.000000000000000000, 5.000000000000000000 ) ) ;
#289 = EDGE_LOOP ( 'NONE', ( #364, #191 ) ) ;
#290 = CYLINDRICAL_SURFACE ( 'NONE', #117, 8.000000000000000000 ) ;
#291 = CIRCLE ( 'NONE', #48, 8.000000000000000000 ) ;
#292 = ORIENTED_EDGE ( 'NONE', *, *, #174, .F. ) ;
#293 = CC_DESIGN_PERSON_AND_ORGANIZATION_ASSIGNMENT ( #275, #175, ( #316 ) ) ;
#294 = AXIS2_PLACEMENT_3D ( 'NONE', #311, #198, #13 ) ;
#295 = PERSON_AND_ORGANIZATION ( #324, #4 ) ;
#296 = COORDINATED_UNIVERSAL_TIME_OFFSET ( 1, 0, .AHEAD. ) ;
#297 = AXIS2_PLACEMENT_3D ( 'NONE', #157, #210, #180 ) ;
#298 = APPROVAL_ROLE ( '' ) ;
#299 = CIRCLE ( 'NONE', #372, 2.750000000000000000 ) ;
#300 = APPROVAL_ROLE ( '' ) ;
#301 = DIRECTION ( 'NONE',  ( -0.000000000000000000, -0.000000000000000000, -1.000000000000000000 ) ) ;
#302 = CARTESIAN_POINT ( 'NONE',  ( 0.000000000000000000, 0.000000000000000000, 5.000000000000000000 ) ) ;
#303 = AXIS2_PLACEMENT_3D ( 'NONE', #72, #144, #362 ) ;
#304 = FACE_OUTER_BOUND ( 'NONE', #6, .T. ) ;
#305 = CYLINDRICAL_SURFACE ( 'NONE', #153, 5.000000000000000000 ) ;
#306 = ORIENTED_EDGE ( 'NONE', *, *, #149, .T. ) ;
#307 = CC_DESIGN_DATE_AND_TIME_ASSIGNMENT ( #88, #123, ( #272 ) ) ;
#308 = DIRECTION ( 'NONE',  ( 1.224646799147353207E-16, 1.000000000000000000, -0.000000000000000000 ) ) ;
#309 = DIRECTION ( 'NONE',  ( -1.000000000000000000, 0.000000000000000000, 0.000000000000000000 ) ) ;
#310 = AXIS2_PLACEMENT_3D ( 'NONE', #334, #141, #8 ) ;
#311 = CARTESIAN_POINT ( 'NONE',  ( 0.000000000000000000, 0.000000000000000000, 505.0000000000000000 ) ) ;
#312 = DIRECTION ( 'NONE',  ( 0.000000000000000000, 0.000000000000000000, 1.000000000000000000 ) ) ;
#313 = AXIS2_PLACEMENT_3D ( 'NONE', #228, #329, #280 ) ;
#314 = DIRECTION ( 'NONE',  ( 1.000000000000000000, 0.000000000000000000, 0.000000000000000000 ) ) ;
#315 = VERTEX_POINT ( 'NONE', #166 ) ;
#316 = PRODUCT_DEFINITION_FORMATION_WITH_SPECIFIED_SOURCE ( 'LIBOVOLNÝ', '', #34, .NOT_KNOWN. ) ;
#317 = ORIENTED_EDGE ( 'NONE', *, *, #160, .F. ) ;
#318 = AXIS2_PLACEMENT_3D ( 'NONE', #100, #225, #177 ) ;
#319 = MECHANICAL_CONTEXT ( 'NONE', #274, 'mechanical' ) ;
#320 = APPROVAL_STATUS ( 'not_yet_approved' ) ;
#321 = LOCAL_TIME ( 17, 4, 6.000000000000000000, #125 ) ;
#322 = APPROVAL_STATUS ( 'not_yet_approved' ) ;
#323 = COORDINATED_UNIVERSAL_TIME_OFFSET ( 1, 0, .AHEAD. ) ;
#324 = PERSON ( 'NEURÈENÝ', 'NEURÈENÝ', 'NEURÈENÝ', ('NEURÈENÝ'), ('NEURÈENÝ'), ('NEURÈENÝ') ) ;
#325 = FACE_BOUND ( 'NONE', #99, .T. ) ;
#326 = LINE ( 'NONE', #136, #379 ) ;
#327 = CIRCLE ( 'NONE', #200, 5.000000000000000000 ) ;
#328 = CARTESIAN_POINT ( 'NONE',  ( 0.000000000000000000, 0.000000000000000000, 505.0000000000000000 ) ) ;
#329 = DIRECTION ( 'NONE',  ( -0.000000000000000000, -0.000000000000000000, -1.000000000000000000 ) ) ;
#330 = DIRECTION ( 'NONE',  ( 1.000000000000000000, 0.000000000000000000, 0.000000000000000000 ) ) ;
#331 = ORIENTED_EDGE ( 'NONE', *, *, #45, .F. ) ;
#332 = CYLINDRICAL_SURFACE ( 'NONE', #294, 2.750000000000000000 ) ;
#333 = CARTESIAN_POINT ( 'NONE',  ( -5.000000000000000000, 0.000000000000000000, 505.0000000000000000 ) ) ;
#334 = CARTESIAN_POINT ( 'NONE',  ( 5.500000000000000000, 0.000000000000000000, 5.500000000000005329 ) ) ;
#335 = EDGE_CURVE ( 'NONE', #76, #259, #291, .T. ) ;
#336 = ORIENTED_EDGE ( 'NONE', *, *, #17, .T. ) ;
#337 = CARTESIAN_POINT ( 'NONE',  ( -2.750000000000000000, 0.000000000000000000, 505.0000000000000000 ) ) ;
#338 = ORIENTED_EDGE ( 'NONE', *, *, #30, .F. ) ;
#339 = FACE_OUTER_BOUND ( 'NONE', #132, .T. ) ;
#340 = ORIENTED_EDGE ( 'NONE', *, *, #15, .F. ) ;
#341 = ORIENTED_EDGE ( 'NONE', *, *, #208, .F. ) ;
#342 = ORIENTED_EDGE ( 'NONE', *, *, #246, .T. ) ;
#343 = EDGE_CURVE ( 'NONE', #361, #172, #57, .T. ) ;
#344 = CARTESIAN_POINT ( 'NONE',  ( 0.000000000000000000, 0.000000000000000000, 5.000000000000000000 ) ) ;
#345 = ADVANCED_FACE ( 'NONE', ( #283 ), #332, .F. ) ;
#346 =( GEOMETRIC_REPRESENTATION_CONTEXT ( 3 ) GLOBAL_UNCERTAINTY_ASSIGNED_CONTEXT ( ( #212 ) ) GLOBAL_UNIT_ASSIGNED_CONTEXT ( ( #42, #112, #223 ) ) REPRESENTATION_CONTEXT ( 'NONE', 'WORKASPACE' ) );
#347 = VECTOR ( 'NONE', #105, 1000.000000000000000 ) ;
#348 = APPROVAL ( #322, 'NEURÈENÝ' ) ;
#349 = PERSON_AND_ORGANIZATION ( #324, #4 ) ;
#350 = AXIS2_PLACEMENT_3D ( 'NONE', #222, #219, #381 ) ;
#351 = APPROVAL_DATE_TIME ( #377, #101 ) ;
#352 = EDGE_CURVE ( 'NONE', #186, #64, #276, .T. ) ;
#353 = DIRECTION ( 'NONE',  ( 0.000000000000000000, 0.000000000000000000, 1.000000000000000000 ) ) ;
#354 = LINE ( 'NONE', #129, #111 ) ;
#355 = PRODUCT_DEFINITION_SHAPE ( 'NONE', 'NONE',  #272 ) ;
#356 = CC_DESIGN_APPROVAL ( #348, ( #316 ) ) ;
#357 = CARTESIAN_POINT ( 'NONE',  ( 0.000000000000000000, 0.000000000000000000, 0.000000000000000000 ) ) ;
#358 = CYLINDRICAL_SURFACE ( 'NONE', #318, 2.750000000000000000 ) ;
#359 = CARTESIAN_POINT ( 'NONE',  ( -5.000000000000000000, 0.000000000000000000, 505.0000000000000000 ) ) ;
#360 = CYLINDRICAL_SURFACE ( 'NONE', #93, 5.000000000000000000 ) ;
#361 = VERTEX_POINT ( 'NONE', #337 ) ;
#362 = DIRECTION ( 'NONE',  ( 1.000000000000000000, 0.000000000000000000, 0.000000000000000000 ) ) ;
#363 = CIRCLE ( 'NONE', #79, 2.750000000000000000 ) ;
#364 = ORIENTED_EDGE ( 'NONE', *, *, #130, .T. ) ;
#365 = ORIENTED_EDGE ( 'NONE', *, *, #15, .T. ) ;
#366 = ORIENTED_EDGE ( 'NONE', *, *, #343, .F. ) ;
#367 = ORIENTED_EDGE ( 'NONE', *, *, #130, .F. ) ;
#368 = DIRECTION ( 'NONE',  ( 1.000000000000000000, 0.000000000000000000, 0.000000000000000000 ) ) ;
#369 = APPROVAL_PERSON_ORGANIZATION ( #56, #101, #298 ) ;
#370 = FACE_BOUND ( 'NONE', #49, .T. ) ;
#371 = ADVANCED_FACE ( 'NONE', ( #46 ), #83, .F. ) ;
#372 = AXIS2_PLACEMENT_3D ( 'NONE', #218, #278, #279 ) ;
#373 = DIRECTION ( 'NONE',  ( 0.000000000000000000, 0.000000000000000000, 1.000000000000000000 ) ) ;
#374 = CARTESIAN_POINT ( 'NONE',  ( 0.000000000000000000, 0.000000000000000000, 5.000000000000000000 ) ) ;
#375 = VECTOR ( 'NONE', #250, 1000.000000000000000 ) ;
#376 = CALENDAR_DATE ( 2022, 8, 7 ) ;
#377 = DATE_AND_TIME ( #247, #41 ) ;
#378 = DATE_AND_TIME ( #209, #62 ) ;
#379 = VECTOR ( 'NONE', #1, 1000.000000000000000 ) ;
#380 = DIRECTION ( 'NONE',  ( 0.000000000000000000, 0.000000000000000000, 1.000000000000000000 ) ) ;
#381 = DIRECTION ( 'NONE',  ( 1.000000000000000000, 0.000000000000000000, -0.000000000000000000 ) ) ;
ENDSEC;
END-ISO-10303-21;
