ISO-10303-21;
HEADER;
FILE_DESCRIPTION (( 'STEP AP203' ),
    '1' );
FILE_NAME ('b212.STEP',
    '2022-07-08T14:53:02',
    ( '' ),
    ( '' ),
    'SwSTEP 2.0',
    'SolidWorks 2019',
    '' );
FILE_SCHEMA (( 'CONFIG_CONTROL_DESIGN' ));
ENDSEC;

DATA;
#1 = EDGE_LOOP ( 'NONE', ( #321, #269 ) ) ;
#2 = DIRECTION ( 'NONE',  ( 0.000000000000000000, 0.000000000000000000, 1.000000000000000000 ) ) ;
#3 = ORIENTED_EDGE ( 'NONE', *, *, #82, .F. ) ;
#4 = PRODUCT_DEFINITION_SHAPE ( 'NONE', 'NONE',  #256 ) ;
#5 = AXIS2_PLACEMENT_3D ( 'NONE', #351, #114, #248 ) ;
#6 = CALENDAR_DATE ( 2022, 8, 7 ) ;
#7 = DIRECTION ( 'NONE',  ( 0.000000000000000000, 0.000000000000000000, -1.000000000000000000 ) ) ;
#8 = DIRECTION ( 'NONE',  ( 1.000000000000000000, 0.000000000000000000, 0.000000000000000000 ) ) ;
#9 = DIRECTION ( 'NONE',  ( -0.000000000000000000, -0.000000000000000000, -1.000000000000000000 ) ) ;
#10 = CIRCLE ( 'NONE', #289, 0.5000000000000004441 ) ;
#11 = AXIS2_PLACEMENT_3D ( 'NONE', #331, #43, #342 ) ;
#12 = EDGE_CURVE ( 'NONE', #99, #303, #121, .T. ) ;
#13 = CARTESIAN_POINT ( 'NONE',  ( 0.000000000000000000, 0.000000000000000000, 7.000000000000000000 ) ) ;
#14 = DIRECTION ( 'NONE',  ( -0.000000000000000000, -0.000000000000000000, -1.000000000000000000 ) ) ;
#15 = CC_DESIGN_PERSON_AND_ORGANIZATION_ASSIGNMENT ( #74, #366, ( #256 ) ) ;
#16 = PERSON_AND_ORGANIZATION_ROLE ( 'creator' ) ;
#17 = DIRECTION ( 'NONE',  ( 0.000000000000000000, 0.000000000000000000, 1.000000000000000000 ) ) ;
#18 = ADVANCED_BREP_SHAPE_REPRESENTATION ( 'b212', ( #373, #242 ), #195 ) ;
#19 = CALENDAR_DATE ( 2022, 8, 7 ) ;
#20 = EDGE_CURVE ( 'NONE', #156, #188, #175, .T. ) ;
#21 = ORIENTED_EDGE ( 'NONE', *, *, #34, .T. ) ;
#22 = AXIS2_PLACEMENT_3D ( 'NONE', #217, #58, #348 ) ;
#23 = DIRECTION ( 'NONE',  ( -0.000000000000000000, -0.000000000000000000, -1.000000000000000000 ) ) ;
#24 = VERTEX_POINT ( 'NONE', #112 ) ;
#25 = CARTESIAN_POINT ( 'NONE',  ( 0.000000000000000000, 0.000000000000000000, 457.0000000000000000 ) ) ;
#26 = FACE_BOUND ( 'NONE', #193, .T. ) ;
#27 = CARTESIAN_POINT ( 'NONE',  ( 0.000000000000000000, 0.000000000000000000, 0.000000000000000000 ) ) ;
#28 = CARTESIAN_POINT ( 'NONE',  ( -10.00000000000000000, 0.000000000000000000, 7.000000000000000000 ) ) ;
#29 = AXIS2_PLACEMENT_3D ( 'NONE', #45, #17, #304 ) ;
#30 = FACE_OUTER_BOUND ( 'NONE', #161, .T. ) ;
#31 = DIRECTION ( 'NONE',  ( 1.000000000000000000, 0.000000000000000000, 0.000000000000000000 ) ) ;
#32 =( NAMED_UNIT ( * ) PLANE_ANGLE_UNIT ( ) SI_UNIT ( $, .RADIAN. ) );
#33 = LINE ( 'NONE', #123, #218 ) ;
#34 = EDGE_CURVE ( 'NONE', #24, #352, #341, .T. ) ;
#35 = DIRECTION ( 'NONE',  ( 0.000000000000000000, 0.000000000000000000, -1.000000000000000000 ) ) ;
#36 = AXIS2_PLACEMENT_3D ( 'NONE', #54, #61, #318 ) ;
#37 = CIRCLE ( 'NONE', #306, 6.000000000000000888 ) ;
#38 = CARTESIAN_POINT ( 'NONE',  ( 10.00000000000000000, 1.224646799147353256E-15, 7.000000000000000000 ) ) ;
#39 = MECHANICAL_CONTEXT ( 'NONE', #336, 'mechanical' ) ;
#40 = CALENDAR_DATE ( 2022, 8, 7 ) ;
#41 = SECURITY_CLASSIFICATION ( '', '', #42 ) ;
#42 = SECURITY_CLASSIFICATION_LEVEL ( 'unclassified' ) ;
#43 = DIRECTION ( 'NONE',  ( 0.000000000000000000, 0.000000000000000000, 1.000000000000000000 ) ) ;
#44 = ORIENTED_EDGE ( 'NONE', *, *, #261, .F. ) ;
#45 = CARTESIAN_POINT ( 'NONE',  ( 0.000000000000000000, 0.000000000000000000, 457.0000000000000000 ) ) ;
#46 = ORIENTED_EDGE ( 'NONE', *, *, #82, .T. ) ;
#47 = CIRCLE ( 'NONE', #283, 3.000000000000000444 ) ;
#48 = DATE_TIME_ROLE ( 'creation_date' ) ;
#49 = ORIENTED_EDGE ( 'NONE', *, *, #176, .F. ) ;
#50 = ORIENTED_EDGE ( 'NONE', *, *, #339, .T. ) ;
#51 = ADVANCED_FACE ( 'NONE', ( #190 ), #52, .F. ) ;
#52 = TOROIDAL_SURFACE ( 'NONE', #164, 6.500000000000000888, 0.5000000000000000000 ) ;
#53 = DIRECTION ( 'NONE',  ( 1.000000000000000000, 0.000000000000000000, -0.000000000000000000 ) ) ;
#54 = CARTESIAN_POINT ( 'NONE',  ( 0.000000000000000000, 0.000000000000000000, 7.000000000000000000 ) ) ;
#55 = DESIGN_CONTEXT ( 'detailed design', #150, 'design' ) ;
#56 = APPROVAL_ROLE ( '' ) ;
#57 = DIRECTION ( 'NONE',  ( 1.000000000000000000, 0.000000000000000000, 0.000000000000000000 ) ) ;
#58 = DIRECTION ( 'NONE',  ( -0.000000000000000000, -0.000000000000000000, -1.000000000000000000 ) ) ;
#59 = CC_DESIGN_PERSON_AND_ORGANIZATION_ASSIGNMENT ( #101, #16, ( #179 ) ) ;
#60 = DIRECTION ( 'NONE',  ( 1.000000000000000000, 0.000000000000000000, 0.000000000000000000 ) ) ;
#61 = DIRECTION ( 'NONE',  ( 0.000000000000000000, 0.000000000000000000, 1.000000000000000000 ) ) ;
#62 = AXIS2_PLACEMENT_3D ( 'NONE', #192, #2, #53 ) ;
#63 = EDGE_CURVE ( 'NONE', #241, #245, #67, .T. ) ;
#64 = APPROVAL_ROLE ( '' ) ;
#65 = DIRECTION ( 'NONE',  ( -1.000000000000000000, 0.000000000000000000, 0.000000000000000000 ) ) ;
#66 = CARTESIAN_POINT ( 'NONE',  ( -3.000000000000000444, 0.000000000000000000, 457.0000000000000000 ) ) ;
#67 = CIRCLE ( 'NONE', #264, 10.00000000000000000 ) ;
#68 = AXIS2_PLACEMENT_3D ( 'NONE', #262, #124, #317 ) ;
#69 = DIRECTION ( 'NONE',  ( 0.000000000000000000, 0.000000000000000000, 1.000000000000000000 ) ) ;
#70 = CARTESIAN_POINT ( 'NONE',  ( 0.000000000000000000, 0.000000000000000000, 0.000000000000000000 ) ) ;
#71 = FACE_BOUND ( 'NONE', #155, .T. ) ;
#72 = ORIENTED_EDGE ( 'NONE', *, *, #73, .F. ) ;
#73 = EDGE_CURVE ( 'NONE', #303, #241, #246, .T. ) ;
#74 = PERSON_AND_ORGANIZATION ( #365, #227 ) ;
#75 = CARTESIAN_POINT ( 'NONE',  ( -10.00000000000000000, 0.000000000000000000, 0.000000000000000000 ) ) ;
#76 = EDGE_LOOP ( 'NONE', ( #44, #338, #374, #311 ) ) ;
#77 = PERSON_AND_ORGANIZATION_ROLE ( 'classification_officer' ) ;
#78 = VECTOR ( 'NONE', #268, 1000.000000000000000 ) ;
#79 = EDGE_LOOP ( 'NONE', ( #166, #274 ) ) ;
#80 = LOCAL_TIME ( 16, 53, 2.000000000000000000, #281 ) ;
#81 = CARTESIAN_POINT ( 'NONE',  ( 0.000000000000000000, 0.000000000000000000, 457.0000000000000000 ) ) ;
#82 = EDGE_CURVE ( 'NONE', #24, #188, #10, .T. ) ;
#83 = ORIENTED_EDGE ( 'NONE', *, *, #90, .F. ) ;
#84 = CARTESIAN_POINT ( 'NONE',  ( 0.000000000000000000, 0.000000000000000000, 0.000000000000000000 ) ) ;
#85 = DIRECTION ( 'NONE',  ( 0.000000000000000000, 0.000000000000000000, 1.000000000000000000 ) ) ;
#86 = EDGE_CURVE ( 'NONE', #205, #375, #360, .T. ) ;
#87 = DIRECTION ( 'NONE',  ( 0.000000000000000000, 0.000000000000000000, -1.000000000000000000 ) ) ;
#88 = DIRECTION ( 'NONE',  ( 1.000000000000000000, 0.000000000000000000, 0.000000000000000000 ) ) ;
#89 = DIRECTION ( 'NONE',  ( 0.000000000000000000, -1.000000000000000000, 0.000000000000000000 ) ) ;
#90 = EDGE_CURVE ( 'NONE', #352, #156, #313, .T. ) ;
#91 = DIRECTION ( 'NONE',  ( -0.000000000000000000, -0.000000000000000000, -1.000000000000000000 ) ) ;
#92 = EDGE_CURVE ( 'NONE', #245, #241, #258, .T. ) ;
#93 = DIRECTION ( 'NONE',  ( 0.000000000000000000, 0.000000000000000000, -1.000000000000000000 ) ) ;
#94 = PERSON_AND_ORGANIZATION ( #365, #227 ) ;
#95 = DIRECTION ( 'NONE',  ( -0.000000000000000000, -0.000000000000000000, -1.000000000000000000 ) ) ;
#96 = EDGE_CURVE ( 'NONE', #319, #375, #225, .T. ) ;
#97 = ORIENTED_EDGE ( 'NONE', *, *, #20, .T. ) ;
#98 = AXIS2_PLACEMENT_3D ( 'NONE', #70, #9, #295 ) ;
#99 = VERTEX_POINT ( 'NONE', #38 ) ;
#100 = ORIENTED_EDGE ( 'NONE', *, *, #132, .F. ) ;
#101 = PERSON_AND_ORGANIZATION ( #365, #227 ) ;
#102 = DIRECTION ( 'NONE',  ( 1.000000000000000000, 0.000000000000000000, -0.000000000000000000 ) ) ;
#103 = ORIENTED_EDGE ( 'NONE', *, *, #63, .F. ) ;
#104 = ORIENTED_EDGE ( 'NONE', *, *, #261, .T. ) ;
#105 = UNCERTAINTY_MEASURE_WITH_UNIT (LENGTH_MEASURE( 1.000000000000000082E-05 ), #199, 'distance_accuracy_value', 'NONE');
#106 = DIRECTION ( 'NONE',  ( 0.000000000000000000, 0.000000000000000000, 1.000000000000000000 ) ) ;
#107 = ORIENTED_EDGE ( 'NONE', *, *, #86, .F. ) ;
#108 = DATE_AND_TIME ( #6, #80 ) ;
#109 = CARTESIAN_POINT ( 'NONE',  ( 0.000000000000000000, 0.000000000000000000, 457.0000000000000000 ) ) ;
#110 = AXIS2_PLACEMENT_3D ( 'NONE', #109, #87, #247 ) ;
#111 = AXIS2_PLACEMENT_3D ( 'NONE', #173, #142, #172 ) ;
#112 = CARTESIAN_POINT ( 'NONE',  ( 6.000000000000000888, 7.347880794884120722E-16, 7.500000000000007105 ) ) ;
#113 = DIRECTION ( 'NONE',  ( -0.000000000000000000, -0.000000000000000000, -1.000000000000000000 ) ) ;
#114 = DIRECTION ( 'NONE',  ( 0.000000000000000000, 0.000000000000000000, 1.000000000000000000 ) ) ;
#115 = ORIENTED_EDGE ( 'NONE', *, *, #209, .T. ) ;
#116 = EDGE_CURVE ( 'NONE', #187, #282, #37, .T. ) ;
#117 = CARTESIAN_POINT ( 'NONE',  ( 0.000000000000000000, 0.000000000000000000, 457.0000000000000000 ) ) ;
#118 = DIRECTION ( 'NONE',  ( -1.000000000000000000, 0.000000000000000000, 0.000000000000000000 ) ) ;
#119 = PERSON_AND_ORGANIZATION ( #365, #227 ) ;
#120 = CYLINDRICAL_SURFACE ( 'NONE', #356, 10.00000000000000000 ) ;
#121 = CIRCLE ( 'NONE', #36, 10.00000000000000000 ) ;
#122 = VECTOR ( 'NONE', #93, 1000.000000000000000 ) ;
#123 = CARTESIAN_POINT ( 'NONE',  ( 6.000000000000000888, 7.347880794884120722E-16, 457.0000000000000000 ) ) ;
#124 = DIRECTION ( 'NONE',  ( 0.000000000000000000, 0.000000000000000000, 1.000000000000000000 ) ) ;
#125 = ORIENTED_EDGE ( 'NONE', *, *, #86, .T. ) ;
#126 = VECTOR ( 'NONE', #204, 1000.000000000000000 ) ;
#127 = CARTESIAN_POINT ( 'NONE',  ( 10.00000000000000000, 1.224646799147353256E-15, 0.000000000000000000 ) ) ;
#128 = EDGE_LOOP ( 'NONE', ( #219, #208, #21, #377 ) ) ;
#129 = ORIENTED_EDGE ( 'NONE', *, *, #353, .F. ) ;
#130 = APPROVAL_DATE_TIME ( #108, #376 ) ;
#131 = FACE_OUTER_BOUND ( 'NONE', #79, .T. ) ;
#132 = EDGE_CURVE ( 'NONE', #187, #24, #33, .T. ) ;
#133 = DIRECTION ( 'NONE',  ( 0.000000000000000000, 0.000000000000000000, 1.000000000000000000 ) ) ;
#134 = CARTESIAN_POINT ( 'NONE',  ( 0.000000000000000000, 0.000000000000000000, 457.0000000000000000 ) ) ;
#135 = AXIS2_PLACEMENT_3D ( 'NONE', #13, #91, #118 ) ;
#136 = CARTESIAN_POINT ( 'NONE',  ( 6.500000000000000888, 0.000000000000000000, 7.500000000000007105 ) ) ;
#137 = DIRECTION ( 'NONE',  ( 1.000000000000000000, 0.000000000000000000, 0.000000000000000000 ) ) ;
#138 = ADVANCED_FACE ( 'NONE', ( #322 ), #120, .T. ) ;
#139 = DIRECTION ( 'NONE',  ( 1.000000000000000000, 0.000000000000000000, 0.000000000000000000 ) ) ;
#140 = APPLICATION_PROTOCOL_DEFINITION ( 'international standard', 'config_control_design', 1994, #336 ) ;
#141 = FACE_OUTER_BOUND ( 'NONE', #76, .T. ) ;
#142 = DIRECTION ( 'NONE',  ( 1.224646799147353207E-16, 1.000000000000000000, -0.000000000000000000 ) ) ;
#143 = CYLINDRICAL_SURFACE ( 'NONE', #135, 10.00000000000000000 ) ;
#144 = AXIS2_PLACEMENT_3D ( 'NONE', #81, #23, #315 ) ;
#145 = DATE_AND_TIME ( #184, #234 ) ;
#146 = CARTESIAN_POINT ( 'NONE',  ( 0.000000000000000000, 0.000000000000000000, 7.000000000000000000 ) ) ;
#147 = CC_DESIGN_PERSON_AND_ORGANIZATION_ASSIGNMENT ( #340, #77, ( #41 ) ) ;
#148 = APPROVAL_STATUS ( 'not_yet_approved' ) ;
#149 = PLANE ( 'NONE',  #68 ) ;
#150 = APPLICATION_CONTEXT ( 'configuration controlled 3d designs of mechanical parts and assemblies' ) ;
#151 = ORIENTED_EDGE ( 'NONE', *, *, #96, .T. ) ;
#152 = AXIS2_PLACEMENT_3D ( 'NONE', #25, #106, #137 ) ;
#153 = EDGE_CURVE ( 'NONE', #154, #205, #297, .T. ) ;
#154 = VERTEX_POINT ( 'NONE', #363 ) ;
#155 = EDGE_LOOP ( 'NONE', ( #189, #167 ) ) ;
#156 = VERTEX_POINT ( 'NONE', #253 ) ;
#157 = ADVANCED_FACE ( 'NONE', ( #141 ), #143, .T. ) ;
#158 = AXIS2_PLACEMENT_3D ( 'NONE', #285, #85, #31 ) ;
#159 = AXIS2_PLACEMENT_3D ( 'NONE', #254, #328, #235 ) ;
#160 = CARTESIAN_POINT ( 'NONE',  ( -10.00000000000000000, 0.000000000000000000, 7.000000000000000000 ) ) ;
#161 = EDGE_LOOP ( 'NONE', ( #107, #305, #333, #151 ) ) ;
#162 = CARTESIAN_POINT ( 'NONE',  ( -6.000000000000000888, 0.000000000000000000, 457.0000000000000000 ) ) ;
#163 = EDGE_LOOP ( 'NONE', ( #214, #266, #181, #3 ) ) ;
#164 = AXIS2_PLACEMENT_3D ( 'NONE', #316, #280, #88 ) ;
#165 = AXIS2_PLACEMENT_3D ( 'NONE', #291, #69, #139 ) ;
#166 = ORIENTED_EDGE ( 'NONE', *, *, #380, .T. ) ;
#167 = ORIENTED_EDGE ( 'NONE', *, *, #243, .F. ) ;
#168 = DIRECTION ( 'NONE',  ( 0.000000000000000000, 0.000000000000000000, 1.000000000000000000 ) ) ;
#169 = VECTOR ( 'NONE', #35, 1000.000000000000000 ) ;
#170 = CARTESIAN_POINT ( 'NONE',  ( 6.500000000000000888, 0.000000000000000000, 7.000000000000002665 ) ) ;
#171 = APPROVAL_PERSON_ORGANIZATION ( #206, #236, #301 ) ;
#172 = DIRECTION ( 'NONE',  ( -1.000000000000000000, 1.224646799147351482E-16, 0.000000000000000000 ) ) ;
#173 = CARTESIAN_POINT ( 'NONE',  ( -6.500000000000000888, 7.960204194457796463E-16, 7.500000000000007105 ) ) ;
#174 = DIRECTION ( 'NONE',  ( 0.000000000000000000, 0.000000000000000000, 1.000000000000000000 ) ) ;
#175 = CIRCLE ( 'NONE', #22, 6.500000000000000888 ) ;
#176 = EDGE_CURVE ( 'NONE', #154, #319, #203, .T. ) ;
#177 = TOROIDAL_SURFACE ( 'NONE', #11, 6.500000000000000888, 0.5000000000000000000 ) ;
#178 = APPROVAL_DATE_TIME ( #238, #236 ) ;
#179 = PRODUCT_DEFINITION_FORMATION_WITH_SPECIFIED_SOURCE ( 'LIBOVOLNÝ', '', #278, .NOT_KNOWN. ) ;
#180 = LINE ( 'NONE', #302, #78 ) ;
#181 = ORIENTED_EDGE ( 'NONE', *, *, #209, .F. ) ;
#182 = APPROVAL_STATUS ( 'not_yet_approved' ) ;
#183 = ORIENTED_EDGE ( 'NONE', *, *, #353, .T. ) ;
#184 = CALENDAR_DATE ( 2022, 8, 7 ) ;
#185 = LINE ( 'NONE', #271, #126 ) ;
#186 = CC_DESIGN_APPROVAL ( #236, ( #179 ) ) ;
#187 = VERTEX_POINT ( 'NONE', #228 ) ;
#188 = VERTEX_POINT ( 'NONE', #170 ) ;
#189 = ORIENTED_EDGE ( 'NONE', *, *, #153, .F. ) ;
#190 = FACE_OUTER_BOUND ( 'NONE', #345, .T. ) ;
#191 = LOCAL_TIME ( 16, 53, 2.000000000000000000, #201 ) ;
#192 = CARTESIAN_POINT ( 'NONE',  ( 0.000000000000000000, 0.000000000000000000, 7.000000000000000000 ) ) ;
#193 = EDGE_LOOP ( 'NONE', ( #115, #97 ) ) ;
#194 = PRODUCT_RELATED_PRODUCT_CATEGORY ( 'detail', '', ( #278 ) ) ;
#195 =( GEOMETRIC_REPRESENTATION_CONTEXT ( 3 ) GLOBAL_UNCERTAINTY_ASSIGNED_CONTEXT ( ( #105 ) ) GLOBAL_UNIT_ASSIGNED_CONTEXT ( ( #199, #32, #257 ) ) REPRESENTATION_CONTEXT ( 'NONE', 'WORKASPACE' ) );
#196 = DIRECTION ( 'NONE',  ( 0.000000000000000000, 0.000000000000000000, -1.000000000000000000 ) ) ;
#197 = APPLICATION_PROTOCOL_DEFINITION ( 'international standard', 'config_control_design', 1994, #150 ) ;
#198 = ADVANCED_FACE ( 'NONE', ( #200 ), #259, .T. ) ;
#199 =( LENGTH_UNIT ( ) NAMED_UNIT ( * ) SI_UNIT ( .MILLI., .METRE. ) );
#200 = FACE_OUTER_BOUND ( 'NONE', #128, .T. ) ;
#201 = COORDINATED_UNIVERSAL_TIME_OFFSET ( 1, 0, .AHEAD. ) ;
#202 = ADVANCED_FACE ( 'NONE', ( #367, #378 ), #337, .F. ) ;
#203 = LINE ( 'NONE', #66, #122 ) ;
#204 = DIRECTION ( 'NONE',  ( -0.000000000000000000, -0.000000000000000000, -1.000000000000000000 ) ) ;
#205 = VERTEX_POINT ( 'NONE', #265 ) ;
#206 = PERSON_AND_ORGANIZATION ( #365, #227 ) ;
#207 = CC_DESIGN_SECURITY_CLASSIFICATION ( #41, ( #179 ) ) ;
#208 = ORIENTED_EDGE ( 'NONE', *, *, #132, .T. ) ;
#209 = EDGE_CURVE ( 'NONE', #188, #156, #362, .T. ) ;
#210 = EDGE_LOOP ( 'NONE', ( #370, #104, #335, #72 ) ) ;
#211 = PERSON_AND_ORGANIZATION_ROLE ( 'design_supplier' ) ;
#212 = VECTOR ( 'NONE', #354, 1000.000000000000000 ) ;
#213 = CARTESIAN_POINT ( 'NONE',  ( 0.000000000000000000, 0.000000000000000000, 0.000000000000000000 ) ) ;
#214 = ORIENTED_EDGE ( 'NONE', *, *, #339, .F. ) ;
#215 = CC_DESIGN_PERSON_AND_ORGANIZATION_ASSIGNMENT ( #270, #211, ( #179 ) ) ;
#216 = CARTESIAN_POINT ( 'NONE',  ( -6.000000000000000888, 0.000000000000000000, 7.500000000000007105 ) ) ;
#217 = CARTESIAN_POINT ( 'NONE',  ( 0.000000000000000000, 0.000000000000000000, 7.000000000000000000 ) ) ;
#218 = VECTOR ( 'NONE', #14, 1000.000000000000000 ) ;
#219 = ORIENTED_EDGE ( 'NONE', *, *, #116, .F. ) ;
#220 = EDGE_CURVE ( 'NONE', #282, #352, #180, .T. ) ;
#221 = SHAPE_DEFINITION_REPRESENTATION ( #4, #18 ) ;
#222 = ORIENTED_EDGE ( 'NONE', *, *, #20, .F. ) ;
#223 = CYLINDRICAL_SURFACE ( 'NONE', #233, 3.000000000000000444 ) ;
#224 = EDGE_LOOP ( 'NONE', ( #100, #249, #350, #50 ) ) ;
#225 = CIRCLE ( 'NONE', #98, 3.000000000000000444 ) ;
#226 = ADVANCED_FACE ( 'NONE', ( #239 ), #177, .F. ) ;
#227 = ORGANIZATION ( 'NEURÈENÝ', 'NEURÈENÝ', '' ) ;
#228 = CARTESIAN_POINT ( 'NONE',  ( 6.000000000000000888, 7.347880794884120722E-16, 457.0000000000000000 ) ) ;
#229 = APPROVAL_PERSON_ORGANIZATION ( #94, #376, #56 ) ;
#230 = APPROVAL_STATUS ( 'not_yet_approved' ) ;
#231 = PERSON_AND_ORGANIZATION ( #365, #227 ) ;
#232 = DIRECTION ( 'NONE',  ( 1.000000000000000000, 0.000000000000000000, 0.000000000000000000 ) ) ;
#233 = AXIS2_PLACEMENT_3D ( 'NONE', #134, #7, #244 ) ;
#234 = LOCAL_TIME ( 16, 53, 2.000000000000000000, #329 ) ;
#235 = DIRECTION ( 'NONE',  ( -1.000000000000000000, 0.000000000000000000, 0.000000000000000000 ) ) ;
#236 = APPROVAL ( #182, 'NEURÈENÝ' ) ;
#237 = ORIENTED_EDGE ( 'NONE', *, *, #92, .F. ) ;
#238 = DATE_AND_TIME ( #40, #364 ) ;
#239 = FACE_OUTER_BOUND ( 'NONE', #163, .T. ) ;
#240 = EDGE_LOOP ( 'NONE', ( #343, #129 ) ) ;
#241 = VERTEX_POINT ( 'NONE', #75 ) ;
#242 = AXIS2_PLACEMENT_3D ( 'NONE', #250, #358, #8 ) ;
#243 = EDGE_CURVE ( 'NONE', #205, #154, #290, .T. ) ;
#244 = DIRECTION ( 'NONE',  ( -1.000000000000000000, 0.000000000000000000, 0.000000000000000000 ) ) ;
#245 = VERTEX_POINT ( 'NONE', #127 ) ;
#246 = LINE ( 'NONE', #28, #212 ) ;
#247 = DIRECTION ( 'NONE',  ( -1.000000000000000000, 0.000000000000000000, 0.000000000000000000 ) ) ;
#248 = DIRECTION ( 'NONE',  ( 1.000000000000000000, 0.000000000000000000, 0.000000000000000000 ) ) ;
#249 = ORIENTED_EDGE ( 'NONE', *, *, #320, .F. ) ;
#250 = CARTESIAN_POINT ( 'NONE',  ( 0.000000000000000000, 0.000000000000000000, 0.000000000000000000 ) ) ;
#251 = CARTESIAN_POINT ( 'NONE',  ( 0.000000000000000000, 0.000000000000000000, 7.000000000000000000 ) ) ;
#252 = CIRCLE ( 'NONE', #5, 6.000000000000000888 ) ;
#253 = CARTESIAN_POINT ( 'NONE',  ( -6.500000000000000888, 7.960204194457796463E-16, 7.000000000000002665 ) ) ;
#254 = CARTESIAN_POINT ( 'NONE',  ( 0.000000000000000000, 0.000000000000000000, 457.0000000000000000 ) ) ;
#255 = DIRECTION ( 'NONE',  ( 1.000000000000000000, 0.000000000000000000, 0.000000000000000000 ) ) ;
#256 = PRODUCT_DEFINITION ( 'NEZNÁMÝ', '', #179, #55 ) ;
#257 =( NAMED_UNIT ( * ) SI_UNIT ( $, .STERADIAN. ) SOLID_ANGLE_UNIT ( ) );
#258 = CIRCLE ( 'NONE', #361, 10.00000000000000000 ) ;
#259 = CYLINDRICAL_SURFACE ( 'NONE', #159, 6.000000000000000888 ) ;
#260 = DATE_TIME_ROLE ( 'classification_date' ) ;
#261 = EDGE_CURVE ( 'NONE', #99, #245, #185, .T. ) ;
#262 = CARTESIAN_POINT ( 'NONE',  ( 0.000000000000000000, 0.000000000000000000, 457.0000000000000000 ) ) ;
#263 = EDGE_LOOP ( 'NONE', ( #103, #237 ) ) ;
#264 = AXIS2_PLACEMENT_3D ( 'NONE', #27, #133, #60 ) ;
#265 = CARTESIAN_POINT ( 'NONE',  ( 3.000000000000000444, 3.673940397442060361E-16, 457.0000000000000000 ) ) ;
#266 = ORIENTED_EDGE ( 'NONE', *, *, #90, .T. ) ;
#267 = AXIS2_PLACEMENT_3D ( 'NONE', #323, #168, #232 ) ;
#268 = DIRECTION ( 'NONE',  ( -0.000000000000000000, -0.000000000000000000, -1.000000000000000000 ) ) ;
#269 = ORIENTED_EDGE ( 'NONE', *, *, #116, .T. ) ;
#270 = PERSON_AND_ORGANIZATION ( #365, #227 ) ;
#271 = CARTESIAN_POINT ( 'NONE',  ( 10.00000000000000000, 1.224646799147353256E-15, 7.000000000000000000 ) ) ;
#272 = ADVANCED_FACE ( 'NONE', ( #71, #300 ), #149, .T. ) ;
#273 = CYLINDRICAL_SURFACE ( 'NONE', #144, 6.000000000000000888 ) ;
#274 = ORIENTED_EDGE ( 'NONE', *, *, #12, .T. ) ;
#275 = APPROVAL_PERSON_ORGANIZATION ( #231, #314, #64 ) ;
#276 = CARTESIAN_POINT ( 'NONE',  ( -3.000000000000000444, 0.000000000000000000, 0.000000000000000000 ) ) ;
#277 = CC_DESIGN_APPROVAL ( #376, ( #41 ) ) ;
#278 = PRODUCT ( 'b212', 'b212', '', ( #39 ) ) ;
#279 = CARTESIAN_POINT ( 'NONE',  ( 3.000000000000000444, 3.673940397442060361E-16, 0.000000000000000000 ) ) ;
#280 = DIRECTION ( 'NONE',  ( 0.000000000000000000, 0.000000000000000000, 1.000000000000000000 ) ) ;
#281 = COORDINATED_UNIVERSAL_TIME_OFFSET ( 1, 0, .AHEAD. ) ;
#282 = VERTEX_POINT ( 'NONE', #162 ) ;
#283 = AXIS2_PLACEMENT_3D ( 'NONE', #84, #113, #57 ) ;
#284 = FACE_OUTER_BOUND ( 'NONE', #224, .T. ) ;
#285 = CARTESIAN_POINT ( 'NONE',  ( 0.000000000000000000, 0.000000000000000000, 7.500000000000007105 ) ) ;
#286 = ADVANCED_FACE ( 'NONE', ( #346 ), #349, .F. ) ;
#287 = COORDINATED_UNIVERSAL_TIME_OFFSET ( 1, 0, .AHEAD. ) ;
#288 = DIRECTION ( 'NONE',  ( 1.000000000000000000, 0.000000000000000000, 0.000000000000000000 ) ) ;
#289 = AXIS2_PLACEMENT_3D ( 'NONE', #136, #89, #196 ) ;
#290 = CIRCLE ( 'NONE', #29, 3.000000000000000444 ) ;
#291 = CARTESIAN_POINT ( 'NONE',  ( 0.000000000000000000, 0.000000000000000000, 7.000000000000000000 ) ) ;
#292 = CARTESIAN_POINT ( 'NONE',  ( 0.000000000000000000, 0.000000000000000000, 0.000000000000000000 ) ) ;
#293 = DATE_AND_TIME ( #359, #332 ) ;
#294 = ADVANCED_FACE ( 'NONE', ( #284 ), #273, .T. ) ;
#295 = DIRECTION ( 'NONE',  ( 1.000000000000000000, 0.000000000000000000, 0.000000000000000000 ) ) ;
#296 = DIRECTION ( 'NONE',  ( -0.000000000000000000, -0.000000000000000000, -1.000000000000000000 ) ) ;
#297 = CIRCLE ( 'NONE', #267, 3.000000000000000444 ) ;
#298 = ADVANCED_FACE ( 'NONE', ( #26, #131 ), #381, .T. ) ;
#299 = COORDINATED_UNIVERSAL_TIME_OFFSET ( 1, 0, .AHEAD. ) ;
#300 = FACE_OUTER_BOUND ( 'NONE', #1, .T. ) ;
#301 = APPROVAL_ROLE ( '' ) ;
#302 = CARTESIAN_POINT ( 'NONE',  ( -6.000000000000000888, 0.000000000000000000, 457.0000000000000000 ) ) ;
#303 = VERTEX_POINT ( 'NONE', #160 ) ;
#304 = DIRECTION ( 'NONE',  ( 1.000000000000000000, 0.000000000000000000, 0.000000000000000000 ) ) ;
#305 = ORIENTED_EDGE ( 'NONE', *, *, #243, .T. ) ;
#306 = AXIS2_PLACEMENT_3D ( 'NONE', #117, #357, #255 ) ;
#307 = CC_DESIGN_APPROVAL ( #314, ( #256 ) ) ;
#308 = CC_DESIGN_DATE_AND_TIME_ASSIGNMENT ( #145, #260, ( #41 ) ) ;
#309 = ORIENTED_EDGE ( 'NONE', *, *, #153, .T. ) ;
#310 = EDGE_LOOP ( 'NONE', ( #309, #125, #183, #49 ) ) ;
#311 = ORIENTED_EDGE ( 'NONE', *, *, #63, .T. ) ;
#312 = AXIS2_PLACEMENT_3D ( 'NONE', #146, #95, #334 ) ;
#313 = CIRCLE ( 'NONE', #111, 0.5000000000000004441 ) ;
#314 = APPROVAL ( #230, 'NEURÈENÝ' ) ;
#315 = DIRECTION ( 'NONE',  ( -1.000000000000000000, 0.000000000000000000, 0.000000000000000000 ) ) ;
#316 = CARTESIAN_POINT ( 'NONE',  ( 0.000000000000000000, 0.000000000000000000, 7.500000000000007105 ) ) ;
#317 = DIRECTION ( 'NONE',  ( 1.000000000000000000, 0.000000000000000000, -0.000000000000000000 ) ) ;
#318 = DIRECTION ( 'NONE',  ( 1.000000000000000000, 0.000000000000000000, 0.000000000000000000 ) ) ;
#319 = VERTEX_POINT ( 'NONE', #276 ) ;
#320 = EDGE_CURVE ( 'NONE', #282, #187, #325, .T. ) ;
#321 = ORIENTED_EDGE ( 'NONE', *, *, #320, .T. ) ;
#322 = FACE_OUTER_BOUND ( 'NONE', #210, .T. ) ;
#323 = CARTESIAN_POINT ( 'NONE',  ( 0.000000000000000000, 0.000000000000000000, 457.0000000000000000 ) ) ;
#324 = CC_DESIGN_PERSON_AND_ORGANIZATION_ASSIGNMENT ( #119, #326, ( #278 ) ) ;
#325 = CIRCLE ( 'NONE', #152, 6.000000000000000888 ) ;
#326 = PERSON_AND_ORGANIZATION_ROLE ( 'design_owner' ) ;
#327 = CARTESIAN_POINT ( 'NONE',  ( 3.000000000000000444, 3.673940397442060361E-16, 457.0000000000000000 ) ) ;
#328 = DIRECTION ( 'NONE',  ( -0.000000000000000000, -0.000000000000000000, -1.000000000000000000 ) ) ;
#329 = COORDINATED_UNIVERSAL_TIME_OFFSET ( 1, 0, .AHEAD. ) ;
#330 = DIRECTION ( 'NONE',  ( 0.000000000000000000, 0.000000000000000000, 1.000000000000000000 ) ) ;
#331 = CARTESIAN_POINT ( 'NONE',  ( 0.000000000000000000, 0.000000000000000000, 7.500000000000007105 ) ) ;
#332 = LOCAL_TIME ( 16, 53, 2.000000000000000000, #287 ) ;
#333 = ORIENTED_EDGE ( 'NONE', *, *, #176, .T. ) ;
#334 = DIRECTION ( 'NONE',  ( 1.000000000000000000, 0.000000000000000000, 0.000000000000000000 ) ) ;
#335 = ORIENTED_EDGE ( 'NONE', *, *, #92, .T. ) ;
#336 = APPLICATION_CONTEXT ( 'configuration controlled 3d designs of mechanical parts and assemblies' ) ;
#337 = PLANE ( 'NONE',  #372 ) ;
#338 = ORIENTED_EDGE ( 'NONE', *, *, #380, .F. ) ;
#339 = EDGE_CURVE ( 'NONE', #352, #24, #252, .T. ) ;
#340 = PERSON_AND_ORGANIZATION ( #365, #227 ) ;
#341 = CIRCLE ( 'NONE', #158, 6.000000000000000888 ) ;
#342 = DIRECTION ( 'NONE',  ( 1.000000000000000000, 0.000000000000000000, 0.000000000000000000 ) ) ;
#343 = ORIENTED_EDGE ( 'NONE', *, *, #96, .F. ) ;
#344 = CIRCLE ( 'NONE', #165, 10.00000000000000000 ) ;
#345 = EDGE_LOOP ( 'NONE', ( #83, #379, #46, #222 ) ) ;
#346 = FACE_OUTER_BOUND ( 'NONE', #310, .T. ) ;
#347 = ADVANCED_FACE ( 'NONE', ( #30 ), #223, .F. ) ;
#348 = DIRECTION ( 'NONE',  ( 1.000000000000000000, 0.000000000000000000, 0.000000000000000000 ) ) ;
#349 = CYLINDRICAL_SURFACE ( 'NONE', #110, 3.000000000000000444 ) ;
#350 = ORIENTED_EDGE ( 'NONE', *, *, #220, .T. ) ;
#351 = CARTESIAN_POINT ( 'NONE',  ( 0.000000000000000000, 0.000000000000000000, 7.500000000000007105 ) ) ;
#352 = VERTEX_POINT ( 'NONE', #216 ) ;
#353 = EDGE_CURVE ( 'NONE', #375, #319, #47, .T. ) ;
#354 = DIRECTION ( 'NONE',  ( -0.000000000000000000, -0.000000000000000000, -1.000000000000000000 ) ) ;
#355 = CLOSED_SHELL ( 'NONE', ( #286, #226, #198, #138, #157, #298, #202, #294, #272, #51, #347 ) ) ;
#356 = AXIS2_PLACEMENT_3D ( 'NONE', #251, #296, #65 ) ;
#357 = DIRECTION ( 'NONE',  ( 0.000000000000000000, 0.000000000000000000, 1.000000000000000000 ) ) ;
#358 = DIRECTION ( 'NONE',  ( 0.000000000000000000, 0.000000000000000000, 1.000000000000000000 ) ) ;
#359 = CALENDAR_DATE ( 2022, 8, 7 ) ;
#360 = LINE ( 'NONE', #327, #169 ) ;
#361 = AXIS2_PLACEMENT_3D ( 'NONE', #292, #330, #288 ) ;
#362 = CIRCLE ( 'NONE', #312, 6.500000000000000888 ) ;
#363 = CARTESIAN_POINT ( 'NONE',  ( -3.000000000000000444, 0.000000000000000000, 457.0000000000000000 ) ) ;
#364 = LOCAL_TIME ( 16, 53, 2.000000000000000000, #299 ) ;
#365 = PERSON ( 'NEURÈENÝ', 'NEURÈENÝ', 'NEURÈENÝ', ('NEURÈENÝ'), ('NEURÈENÝ'), ('NEURÈENÝ') ) ;
#366 = PERSON_AND_ORGANIZATION_ROLE ( 'creator' ) ;
#367 = FACE_BOUND ( 'NONE', #240, .T. ) ;
#368 = APPROVAL_DATE_TIME ( #293, #314 ) ;
#369 = CC_DESIGN_DATE_AND_TIME_ASSIGNMENT ( #371, #48, ( #256 ) ) ;
#370 = ORIENTED_EDGE ( 'NONE', *, *, #12, .F. ) ;
#371 = DATE_AND_TIME ( #19, #191 ) ;
#372 = AXIS2_PLACEMENT_3D ( 'NONE', #213, #174, #102 ) ;
#373 = MANIFOLD_SOLID_BREP ( 'Odebrat vysunutím3', #355 ) ;
#374 = ORIENTED_EDGE ( 'NONE', *, *, #73, .T. ) ;
#375 = VERTEX_POINT ( 'NONE', #279 ) ;
#376 = APPROVAL ( #148, 'NEURÈENÝ' ) ;
#377 = ORIENTED_EDGE ( 'NONE', *, *, #220, .F. ) ;
#378 = FACE_OUTER_BOUND ( 'NONE', #263, .T. ) ;
#379 = ORIENTED_EDGE ( 'NONE', *, *, #34, .F. ) ;
#380 = EDGE_CURVE ( 'NONE', #303, #99, #344, .T. ) ;
#381 = PLANE ( 'NONE',  #62 ) ;
ENDSEC;
END-ISO-10303-21;
