ISO-10303-21;
HEADER;
FILE_DESCRIPTION (( 'STEP AP203' ),
    '1' );
FILE_NAME ('d7d5.STEP',
    '2022-07-08T15:34:36',
    ( '' ),
    ( '' ),
    'SwSTEP 2.0',
    'SolidWorks 2019',
    '' );
FILE_SCHEMA (( 'CONFIG_CONTROL_DESIGN' ));
ENDSEC;

DATA;
#1 = CARTESIAN_POINT ( 'NONE',  ( 0.000000000000000000, 0.000000000000000000, 0.000000000000000000 ) ) ;
#2 = ORIENTED_EDGE ( 'NONE', *, *, #176, .T. ) ;
#3 = VERTEX_POINT ( 'NONE', #42 ) ;
#4 = AXIS2_PLACEMENT_3D ( 'NONE', #309, #248, #239 ) ;
#5 = SECURITY_CLASSIFICATION ( '', '', #90 ) ;
#6 = EDGE_LOOP ( 'NONE', ( #267, #305, #355, #270 ) ) ;
#7 = PERSON_AND_ORGANIZATION_ROLE ( 'design_supplier' ) ;
#8 = CC_DESIGN_PERSON_AND_ORGANIZATION_ASSIGNMENT ( #198, #7, ( #46 ) ) ;
#9 = VERTEX_POINT ( 'NONE', #242 ) ;
#10 = EDGE_LOOP ( 'NONE', ( #167, #334, #141, #358 ) ) ;
#11 = CIRCLE ( 'NONE', #71, 2.000000000000000000 ) ;
#12 = DIRECTION ( 'NONE',  ( 1.000000000000000000, 0.000000000000000000, 0.000000000000000000 ) ) ;
#13 = APPROVAL ( #161, 'NEURÈENÝ' ) ;
#14 = CARTESIAN_POINT ( 'NONE',  ( 3.000000000000000444, 3.673940397442060361E-16, 455.0000000000000000 ) ) ;
#15 = DIRECTION ( 'NONE',  ( 0.000000000000000000, 0.000000000000000000, 1.000000000000000000 ) ) ;
#16 = VECTOR ( 'NONE', #43, 1000.000000000000000 ) ;
#17 = EDGE_CURVE ( 'NONE', #265, #352, #73, .T. ) ;
#18 = LOCAL_TIME ( 17, 34, 36.00000000000000000, #360 ) ;
#19 = APPLICATION_PROTOCOL_DEFINITION ( 'international standard', 'config_control_design', 1994, #179 ) ;
#20 = DIRECTION ( 'NONE',  ( -0.000000000000000000, -0.000000000000000000, -1.000000000000000000 ) ) ;
#21 = DIRECTION ( 'NONE',  ( -0.000000000000000000, -0.000000000000000000, -1.000000000000000000 ) ) ;
#22 = APPROVAL ( #169, 'NEURÈENÝ' ) ;
#23 = MANIFOLD_SOLID_BREP ( 'Odebrat vysunutím3', #108 ) ;
#24 = DIRECTION ( 'NONE',  ( -0.000000000000000000, -0.000000000000000000, -1.000000000000000000 ) ) ;
#25 = AXIS2_PLACEMENT_3D ( 'NONE', #182, #359, #280 ) ;
#26 = AXIS2_PLACEMENT_3D ( 'NONE', #94, #201, #244 ) ;
#27 = CC_DESIGN_APPROVAL ( #22, ( #5 ) ) ;
#28 = APPROVAL_STATUS ( 'not_yet_approved' ) ;
#29 = ADVANCED_BREP_SHAPE_REPRESENTATION ( 'd7d5', ( #23, #215 ), #339 ) ;
#30 = ORIENTED_EDGE ( 'NONE', *, *, #274, .F. ) ;
#31 = CIRCLE ( 'NONE', #121, 6.000000000000000888 ) ;
#32 = DIRECTION ( 'NONE',  ( 0.000000000000000000, 0.000000000000000000, 1.000000000000000000 ) ) ;
#33 = EDGE_LOOP ( 'NONE', ( #237, #84, #229, #34 ) ) ;
#34 = ORIENTED_EDGE ( 'NONE', *, *, #65, .F. ) ;
#35 = EDGE_LOOP ( 'NONE', ( #54, #271 ) ) ;
#36 = AXIS2_PLACEMENT_3D ( 'NONE', #341, #183, #365 ) ;
#37 = EDGE_LOOP ( 'NONE', ( #111, #275 ) ) ;
#38 = CYLINDRICAL_SURFACE ( 'NONE', #331, 3.000000000000000444 ) ;
#39 = DIRECTION ( 'NONE',  ( -1.000000000000000000, 0.000000000000000000, 0.000000000000000000 ) ) ;
#40 = AXIS2_PLACEMENT_3D ( 'NONE', #64, #277, #12 ) ;
#41 = CIRCLE ( 'NONE', #126, 3.000000000000000444 ) ;
#42 = CARTESIAN_POINT ( 'NONE',  ( -3.000000000000000444, 0.000000000000000000, 5.500000000000005329 ) ) ;
#43 = DIRECTION ( 'NONE',  ( -0.000000000000000000, -0.000000000000000000, -1.000000000000000000 ) ) ;
#44 = PERSON ( 'NEURÈENÝ', 'NEURÈENÝ', 'NEURÈENÝ', ('NEURÈENÝ'), ('NEURÈENÝ'), ('NEURÈENÝ') ) ;
#45 = DIRECTION ( 'NONE',  ( 0.000000000000000000, -1.000000000000000000, 0.000000000000000000 ) ) ;
#46 = PRODUCT_DEFINITION_FORMATION_WITH_SPECIFIED_SOURCE ( 'LIBOVOLNÝ', '', #85, .NOT_KNOWN. ) ;
#47 = CARTESIAN_POINT ( 'NONE',  ( 0.000000000000000000, 0.000000000000000000, 5.000000000000000000 ) ) ;
#48 = CARTESIAN_POINT ( 'NONE',  ( 3.000000000000000444, 3.673940397442060361E-16, 5.500000000000005329 ) ) ;
#49 = DIRECTION ( 'NONE',  ( 0.000000000000000000, 0.000000000000000000, 1.000000000000000000 ) ) ;
#50 = VERTEX_POINT ( 'NONE', #307 ) ;
#51 = PERSON_AND_ORGANIZATION ( #44, #159 ) ;
#52 = EDGE_CURVE ( 'NONE', #58, #197, #377, .T. ) ;
#53 = CARTESIAN_POINT ( 'NONE',  ( 0.000000000000000000, 0.000000000000000000, 5.500000000000005329 ) ) ;
#54 = ORIENTED_EDGE ( 'NONE', *, *, #268, .F. ) ;
#55 = AXIS2_PLACEMENT_3D ( 'NONE', #216, #207, #332 ) ;
#56 = LOCAL_TIME ( 17, 34, 36.00000000000000000, #243 ) ;
#57 = ORIENTED_EDGE ( 'NONE', *, *, #52, .T. ) ;
#58 = VERTEX_POINT ( 'NONE', #14 ) ;
#59 = PRODUCT_DEFINITION ( 'NEZNÁMÝ', '', #46, #60 ) ;
#60 = DESIGN_CONTEXT ( 'detailed design', #304, 'design' ) ;
#61 = ORIENTED_EDGE ( 'NONE', *, *, #103, .F. ) ;
#62 = PERSON_AND_ORGANIZATION_ROLE ( 'creator' ) ;
#63 = CC_DESIGN_APPROVAL ( #13, ( #59 ) ) ;
#64 = CARTESIAN_POINT ( 'NONE',  ( 0.000000000000000000, 0.000000000000000000, 5.000000000000000000 ) ) ;
#65 = EDGE_CURVE ( 'NONE', #197, #3, #301, .T. ) ;
#66 = ADVANCED_FACE ( 'NONE', ( #154, #120 ), #362, .T. ) ;
#67 = CARTESIAN_POINT ( 'NONE',  ( -3.000000000000000444, 0.000000000000000000, 455.0000000000000000 ) ) ;
#68 = FACE_OUTER_BOUND ( 'NONE', #350, .T. ) ;
#69 = LINE ( 'NONE', #180, #262 ) ;
#70 =( NAMED_UNIT ( * ) PLANE_ANGLE_UNIT ( ) SI_UNIT ( $, .RADIAN. ) );
#71 = AXIS2_PLACEMENT_3D ( 'NONE', #351, #49, #164 ) ;
#72 = EDGE_LOOP ( 'NONE', ( #294, #92 ) ) ;
#73 = LINE ( 'NONE', #283, #214 ) ;
#74 = EDGE_CURVE ( 'NONE', #50, #148, #200, .T. ) ;
#75 = DIRECTION ( 'NONE',  ( -0.000000000000000000, -0.000000000000000000, -1.000000000000000000 ) ) ;
#76 = LINE ( 'NONE', #285, #98 ) ;
#77 = CIRCLE ( 'NONE', #278, 3.000000000000000444 ) ;
#78 = EDGE_CURVE ( 'NONE', #203, #9, #256, .T. ) ;
#79 = CARTESIAN_POINT ( 'NONE',  ( -3.000000000000000444, 0.000000000000000000, 455.0000000000000000 ) ) ;
#80 = DIRECTION ( 'NONE',  ( 1.000000000000000000, 0.000000000000000000, 0.000000000000000000 ) ) ;
#81 = AXIS2_PLACEMENT_3D ( 'NONE', #317, #24, #130 ) ;
#82 = DATE_TIME_ROLE ( 'creation_date' ) ;
#83 = DIRECTION ( 'NONE',  ( -0.000000000000000000, -0.000000000000000000, -1.000000000000000000 ) ) ;
#84 = ORIENTED_EDGE ( 'NONE', *, *, #127, .T. ) ;
#85 = PRODUCT ( 'd7d5', 'd7d5', '', ( #220 ) ) ;
#86 = ADVANCED_FACE ( 'NONE', ( #125 ), #281, .F. ) ;
#87 = APPROVAL_ROLE ( '' ) ;
#88 = ORIENTED_EDGE ( 'NONE', *, *, #211, .T. ) ;
#89 = ORIENTED_EDGE ( 'NONE', *, *, #356, .T. ) ;
#90 = SECURITY_CLASSIFICATION_LEVEL ( 'unclassified' ) ;
#91 = ORIENTED_EDGE ( 'NONE', *, *, #17, .F. ) ;
#92 = ORIENTED_EDGE ( 'NONE', *, *, #205, .F. ) ;
#93 = DIRECTION ( 'NONE',  ( 1.000000000000000000, 0.000000000000000000, 0.000000000000000000 ) ) ;
#94 = CARTESIAN_POINT ( 'NONE',  ( 0.000000000000000000, 0.000000000000000000, 455.0000000000000000 ) ) ;
#95 = CARTESIAN_POINT ( 'NONE',  ( -2.000000000000000000, 0.000000000000000000, 0.000000000000000000 ) ) ;
#96 = FACE_OUTER_BOUND ( 'NONE', #33, .T. ) ;
#97 = DIRECTION ( 'NONE',  ( -0.000000000000000000, -0.000000000000000000, -1.000000000000000000 ) ) ;
#98 = VECTOR ( 'NONE', #21, 1000.000000000000000 ) ;
#99 = CARTESIAN_POINT ( 'NONE',  ( 0.000000000000000000, 0.000000000000000000, 5.000000000000000000 ) ) ;
#100 = FACE_OUTER_BOUND ( 'NONE', #117, .T. ) ;
#101 = DIRECTION ( 'NONE',  ( 0.000000000000000000, 0.000000000000000000, 1.000000000000000000 ) ) ;
#102 = EDGE_CURVE ( 'NONE', #170, #173, #286, .T. ) ;
#103 = EDGE_CURVE ( 'NONE', #3, #297, #367, .T. ) ;
#104 = AXIS2_PLACEMENT_3D ( 'NONE', #366, #303, #186 ) ;
#105 = CARTESIAN_POINT ( 'NONE',  ( 0.000000000000000000, 0.000000000000000000, 5.000000000000000000 ) ) ;
#106 = CALENDAR_DATE ( 2022, 8, 7 ) ;
#107 = DIRECTION ( 'NONE',  ( -1.000000000000000000, 0.000000000000000000, 0.000000000000000000 ) ) ;
#108 = CLOSED_SHELL ( 'NONE', ( #340, #166, #136, #184, #206, #66, #371, #199, #246, #217, #86 ) ) ;
#109 = DIRECTION ( 'NONE',  ( 0.000000000000000000, 0.000000000000000000, 1.000000000000000000 ) ) ;
#110 = APPROVAL_PERSON_ORGANIZATION ( #374, #13, #87 ) ;
#111 = ORIENTED_EDGE ( 'NONE', *, *, #118, .T. ) ;
#112 = EDGE_LOOP ( 'NONE', ( #326, #57 ) ) ;
#113 = CALENDAR_DATE ( 2022, 8, 7 ) ;
#114 = EDGE_LOOP ( 'NONE', ( #61, #204, #122, #320 ) ) ;
#115 = AXIS2_PLACEMENT_3D ( 'NONE', #196, #333, #140 ) ;
#116 = ORIENTED_EDGE ( 'NONE', *, *, #268, .T. ) ;
#117 = EDGE_LOOP ( 'NONE', ( #295, #88, #381, #123 ) ) ;
#118 = EDGE_CURVE ( 'NONE', #9, #297, #311, .T. ) ;
#119 = DIRECTION ( 'NONE',  ( -1.000000000000000000, 0.000000000000000000, 0.000000000000000000 ) ) ;
#120 = FACE_OUTER_BOUND ( 'NONE', #165, .T. ) ;
#121 = AXIS2_PLACEMENT_3D ( 'NONE', #369, #101, #80 ) ;
#122 = ORIENTED_EDGE ( 'NONE', *, *, #78, .T. ) ;
#123 = ORIENTED_EDGE ( 'NONE', *, *, #142, .F. ) ;
#124 = EDGE_CURVE ( 'NONE', #297, #9, #250, .T. ) ;
#125 = FACE_OUTER_BOUND ( 'NONE', #202, .T. ) ;
#126 = AXIS2_PLACEMENT_3D ( 'NONE', #221, #32, #276 ) ;
#127 = EDGE_CURVE ( 'NONE', #58, #203, #245, .T. ) ;
#128 =( NAMED_UNIT ( * ) SI_UNIT ( $, .STERADIAN. ) SOLID_ANGLE_UNIT ( ) );
#129 = FACE_OUTER_BOUND ( 'NONE', #114, .T. ) ;
#130 = DIRECTION ( 'NONE',  ( -1.000000000000000000, 0.000000000000000000, 0.000000000000000000 ) ) ;
#131 = AXIS2_PLACEMENT_3D ( 'NONE', #105, #20, #218 ) ;
#132 = COORDINATED_UNIVERSAL_TIME_OFFSET ( 1, 0, .AHEAD. ) ;
#133 = DIRECTION ( 'NONE',  ( 1.000000000000000000, 0.000000000000000000, 0.000000000000000000 ) ) ;
#134 = CC_DESIGN_PERSON_AND_ORGANIZATION_ASSIGNMENT ( #238, #62, ( #46 ) ) ;
#135 = DIRECTION ( 'NONE',  ( 1.000000000000000000, 0.000000000000000000, 0.000000000000000000 ) ) ;
#136 = ADVANCED_FACE ( 'NONE', ( #96 ), #38, .T. ) ;
#137 = CARTESIAN_POINT ( 'NONE',  ( -2.000000000000000000, 0.000000000000000000, 455.0000000000000000 ) ) ;
#138 = ORIENTED_EDGE ( 'NONE', *, *, #153, .T. ) ;
#139 = DATE_AND_TIME ( #195, #316 ) ;
#140 = DIRECTION ( 'NONE',  ( 1.000000000000000000, 0.000000000000000000, 0.000000000000000000 ) ) ;
#141 = ORIENTED_EDGE ( 'NONE', *, *, #142, .T. ) ;
#142 = EDGE_CURVE ( 'NONE', #173, #50, #69, .T. ) ;
#143 = APPROVAL_ROLE ( '' ) ;
#144 = ORIENTED_EDGE ( 'NONE', *, *, #337, .T. ) ;
#145 = AXIS2_PLACEMENT_3D ( 'NONE', #99, #151, #93 ) ;
#146 = ORIENTED_EDGE ( 'NONE', *, *, #337, .F. ) ;
#147 = DATE_TIME_ROLE ( 'classification_date' ) ;
#148 = VERTEX_POINT ( 'NONE', #314 ) ;
#149 = FACE_BOUND ( 'NONE', #35, .T. ) ;
#150 = CC_DESIGN_PERSON_AND_ORGANIZATION_ASSIGNMENT ( #51, #224, ( #85 ) ) ;
#151 = DIRECTION ( 'NONE',  ( 0.000000000000000000, 0.000000000000000000, 1.000000000000000000 ) ) ;
#152 = DIRECTION ( 'NONE',  ( 0.000000000000000000, 0.000000000000000000, -1.000000000000000000 ) ) ;
#153 = EDGE_CURVE ( 'NONE', #352, #300, #343, .T. ) ;
#154 = FACE_BOUND ( 'NONE', #37, .T. ) ;
#155 = DIRECTION ( 'NONE',  ( 0.000000000000000000, 0.000000000000000000, 1.000000000000000000 ) ) ;
#156 = TOROIDAL_SURFACE ( 'NONE', #252, 3.500000000000000444, 0.5000000000000000000 ) ;
#157 = DIRECTION ( 'NONE',  ( 1.000000000000000000, 0.000000000000000000, 0.000000000000000000 ) ) ;
#158 = DIRECTION ( 'NONE',  ( -0.000000000000000000, -0.000000000000000000, -1.000000000000000000 ) ) ;
#159 = ORGANIZATION ( 'NEURÈENÝ', 'NEURÈENÝ', '' ) ;
#160 = ORIENTED_EDGE ( 'NONE', *, *, #227, .F. ) ;
#161 = APPROVAL_STATUS ( 'not_yet_approved' ) ;
#162 = CARTESIAN_POINT ( 'NONE',  ( 0.000000000000000000, 0.000000000000000000, 0.000000000000000000 ) ) ;
#163 = CALENDAR_DATE ( 2022, 8, 7 ) ;
#164 = DIRECTION ( 'NONE',  ( 1.000000000000000000, 0.000000000000000000, 0.000000000000000000 ) ) ;
#165 = EDGE_LOOP ( 'NONE', ( #2, #231 ) ) ;
#166 = ADVANCED_FACE ( 'NONE', ( #346 ), #156, .F. ) ;
#167 = ORIENTED_EDGE ( 'NONE', *, *, #211, .F. ) ;
#168 = AXIS2_PLACEMENT_3D ( 'NONE', #47, #158, #107 ) ;
#169 = APPROVAL_STATUS ( 'not_yet_approved' ) ;
#170 = VERTEX_POINT ( 'NONE', #373 ) ;
#171 = PERSON_AND_ORGANIZATION ( #44, #159 ) ;
#172 = ORIENTED_EDGE ( 'NONE', *, *, #65, .T. ) ;
#173 = VERTEX_POINT ( 'NONE', #375 ) ;
#174 = DIRECTION ( 'NONE',  ( 1.000000000000000000, 0.000000000000000000, 0.000000000000000000 ) ) ;
#175 = CARTESIAN_POINT ( 'NONE',  ( 3.000000000000000444, 3.673940397442060361E-16, 455.0000000000000000 ) ) ;
#176 = EDGE_CURVE ( 'NONE', #173, #170, #31, .T. ) ;
#177 = CARTESIAN_POINT ( 'NONE',  ( 3.500000000000000444, 0.000000000000000000, 5.500000000000005329 ) ) ;
#178 = CARTESIAN_POINT ( 'NONE',  ( 2.000000000000000000, 2.449293598294705921E-16, 0.000000000000000000 ) ) ;
#179 = APPLICATION_CONTEXT ( 'configuration controlled 3d designs of mechanical parts and assemblies' ) ;
#180 = CARTESIAN_POINT ( 'NONE',  ( -6.000000000000000888, 0.000000000000000000, 5.000000000000000000 ) ) ;
#181 = APPROVAL_PERSON_ORGANIZATION ( #171, #22, #143 ) ;
#182 = CARTESIAN_POINT ( 'NONE',  ( 0.000000000000000000, 0.000000000000000000, 455.0000000000000000 ) ) ;
#183 = DIRECTION ( 'NONE',  ( -0.000000000000000000, -0.000000000000000000, -1.000000000000000000 ) ) ;
#184 = ADVANCED_FACE ( 'NONE', ( #100 ), #288, .T. ) ;
#185 = CARTESIAN_POINT ( 'NONE',  ( 0.000000000000000000, 0.000000000000000000, 5.500000000000005329 ) ) ;
#186 = DIRECTION ( 'NONE',  ( 1.000000000000000000, 0.000000000000000000, -0.000000000000000000 ) ) ;
#187 = VECTOR ( 'NONE', #264, 1000.000000000000000 ) ;
#188 = DATE_AND_TIME ( #106, #208 ) ;
#189 = CARTESIAN_POINT ( 'NONE',  ( 0.000000000000000000, 0.000000000000000000, 5.500000000000005329 ) ) ;
#190 = PERSON_AND_ORGANIZATION ( #44, #159 ) ;
#191 = CARTESIAN_POINT ( 'NONE',  ( 0.000000000000000000, 0.000000000000000000, 0.000000000000000000 ) ) ;
#192 = COORDINATED_UNIVERSAL_TIME_OFFSET ( 1, 0, .AHEAD. ) ;
#193 = ORIENTED_EDGE ( 'NONE', *, *, #319, .F. ) ;
#194 = UNCERTAINTY_MEASURE_WITH_UNIT (LENGTH_MEASURE( 1.000000000000000082E-05 ), #312, 'distance_accuracy_value', 'NONE');
#195 = CALENDAR_DATE ( 2022, 8, 7 ) ;
#196 = CARTESIAN_POINT ( 'NONE',  ( 0.000000000000000000, 0.000000000000000000, 455.0000000000000000 ) ) ;
#197 = VERTEX_POINT ( 'NONE', #79 ) ;
#198 = PERSON_AND_ORGANIZATION ( #44, #159 ) ;
#199 = ADVANCED_FACE ( 'NONE', ( #347 ), #254, .T. ) ;
#200 = CIRCLE ( 'NONE', #4, 6.000000000000000888 ) ;
#201 = DIRECTION ( 'NONE',  ( 0.000000000000000000, 0.000000000000000000, 1.000000000000000000 ) ) ;
#202 = EDGE_LOOP ( 'NONE', ( #91, #322, #144, #116 ) ) ;
#203 = VERTEX_POINT ( 'NONE', #48 ) ;
#204 = ORIENTED_EDGE ( 'NONE', *, *, #223, .F. ) ;
#205 = EDGE_CURVE ( 'NONE', #148, #50, #361, .T. ) ;
#206 = ADVANCED_FACE ( 'NONE', ( #255 ), #284, .T. ) ;
#207 = DIRECTION ( 'NONE',  ( 1.224646799147353207E-16, 1.000000000000000000, -0.000000000000000000 ) ) ;
#208 = LOCAL_TIME ( 17, 34, 36.00000000000000000, #259 ) ;
#209 = CARTESIAN_POINT ( 'NONE',  ( 0.000000000000000000, 0.000000000000000000, 5.000000000000000000 ) ) ;
#210 = LINE ( 'NONE', #335, #187 ) ;
#211 = EDGE_CURVE ( 'NONE', #170, #148, #76, .T. ) ;
#212 = DIRECTION ( 'NONE',  ( -0.000000000000000000, -0.000000000000000000, -1.000000000000000000 ) ) ;
#213 = DIRECTION ( 'NONE',  ( 1.000000000000000000, 0.000000000000000000, -0.000000000000000000 ) ) ;
#214 = VECTOR ( 'NONE', #152, 1000.000000000000000 ) ;
#215 = AXIS2_PLACEMENT_3D ( 'NONE', #282, #15, #251 ) ;
#216 = CARTESIAN_POINT ( 'NONE',  ( -3.500000000000000444, 4.286263797015737088E-16, 5.500000000000005329 ) ) ;
#217 = ADVANCED_FACE ( 'NONE', ( #129 ), #257, .F. ) ;
#218 = DIRECTION ( 'NONE',  ( -1.000000000000000000, 0.000000000000000000, 0.000000000000000000 ) ) ;
#219 = AXIS2_PLACEMENT_3D ( 'NONE', #209, #155, #213 ) ;
#220 = MECHANICAL_CONTEXT ( 'NONE', #179, 'mechanical' ) ;
#221 = CARTESIAN_POINT ( 'NONE',  ( 0.000000000000000000, 0.000000000000000000, 5.500000000000005329 ) ) ;
#222 = DIRECTION ( 'NONE',  ( 0.000000000000000000, 0.000000000000000000, 1.000000000000000000 ) ) ;
#223 = EDGE_CURVE ( 'NONE', #203, #3, #41, .T. ) ;
#224 = PERSON_AND_ORGANIZATION_ROLE ( 'design_owner' ) ;
#225 = PLANE ( 'NONE',  #325 ) ;
#226 = AXIS2_PLACEMENT_3D ( 'NONE', #321, #228, #119 ) ;
#227 = EDGE_CURVE ( 'NONE', #197, #58, #235, .T. ) ;
#228 = DIRECTION ( 'NONE',  ( 0.000000000000000000, 0.000000000000000000, -1.000000000000000000 ) ) ;
#229 = ORIENTED_EDGE ( 'NONE', *, *, #223, .T. ) ;
#230 = DIRECTION ( 'NONE',  ( 0.000000000000000000, 0.000000000000000000, 1.000000000000000000 ) ) ;
#231 = ORIENTED_EDGE ( 'NONE', *, *, #102, .T. ) ;
#232 = CALENDAR_DATE ( 2022, 8, 7 ) ;
#233 = CIRCLE ( 'NONE', #378, 2.000000000000000000 ) ;
#234 = ORIENTED_EDGE ( 'NONE', *, *, #17, .T. ) ;
#235 = CIRCLE ( 'NONE', #26, 3.000000000000000444 ) ;
#236 = SHAPE_DEFINITION_REPRESENTATION ( #298, #29 ) ;
#237 = ORIENTED_EDGE ( 'NONE', *, *, #52, .F. ) ;
#238 = PERSON_AND_ORGANIZATION ( #44, #159 ) ;
#239 = DIRECTION ( 'NONE',  ( 1.000000000000000000, 0.000000000000000000, 0.000000000000000000 ) ) ;
#240 = PERSON_AND_ORGANIZATION ( #44, #159 ) ;
#241 = FACE_OUTER_BOUND ( 'NONE', #72, .T. ) ;
#242 = CARTESIAN_POINT ( 'NONE',  ( 3.500000000000000444, 0.000000000000000000, 5.000000000000002665 ) ) ;
#243 = COORDINATED_UNIVERSAL_TIME_OFFSET ( 1, 0, .AHEAD. ) ;
#244 = DIRECTION ( 'NONE',  ( 1.000000000000000000, 0.000000000000000000, 0.000000000000000000 ) ) ;
#245 = LINE ( 'NONE', #175, #368 ) ;
#246 = ADVANCED_FACE ( 'NONE', ( #324, #363 ), #225, .T. ) ;
#247 = PLANE ( 'NONE',  #104 ) ;
#248 = DIRECTION ( 'NONE',  ( 0.000000000000000000, 0.000000000000000000, 1.000000000000000000 ) ) ;
#249 = CARTESIAN_POINT ( 'NONE',  ( 0.000000000000000000, 0.000000000000000000, 455.0000000000000000 ) ) ;
#250 = CIRCLE ( 'NONE', #40, 3.500000000000000444 ) ;
#251 = DIRECTION ( 'NONE',  ( 1.000000000000000000, 0.000000000000000000, 0.000000000000000000 ) ) ;
#252 = AXIS2_PLACEMENT_3D ( 'NONE', #185, #370, #133 ) ;
#253 = CC_DESIGN_DATE_AND_TIME_ASSIGNMENT ( #329, #147, ( #5 ) ) ;
#254 = CYLINDRICAL_SURFACE ( 'NONE', #81, 3.000000000000000444 ) ;
#255 = FACE_OUTER_BOUND ( 'NONE', #10, .T. ) ;
#256 = CIRCLE ( 'NONE', #260, 0.5000000000000004441 ) ;
#257 = TOROIDAL_SURFACE ( 'NONE', #299, 3.500000000000000444, 0.5000000000000000000 ) ;
#258 = CC_DESIGN_SECURITY_CLASSIFICATION ( #5, ( #46 ) ) ;
#259 = COORDINATED_UNIVERSAL_TIME_OFFSET ( 1, 0, .AHEAD. ) ;
#260 = AXIS2_PLACEMENT_3D ( 'NONE', #177, #45, #302 ) ;
#261 = DIRECTION ( 'NONE',  ( 1.000000000000000000, 0.000000000000000000, 0.000000000000000000 ) ) ;
#262 = VECTOR ( 'NONE', #75, 1000.000000000000000 ) ;
#263 = ORIENTED_EDGE ( 'NONE', *, *, #319, .T. ) ;
#264 = DIRECTION ( 'NONE',  ( 0.000000000000000000, 0.000000000000000000, -1.000000000000000000 ) ) ;
#265 = VERTEX_POINT ( 'NONE', #349 ) ;
#266 = DATE_AND_TIME ( #113, #18 ) ;
#267 = ORIENTED_EDGE ( 'NONE', *, *, #356, .F. ) ;
#268 = EDGE_CURVE ( 'NONE', #300, #352, #233, .T. ) ;
#269 = CIRCLE ( 'NONE', #115, 2.000000000000000000 ) ;
#270 = ORIENTED_EDGE ( 'NONE', *, *, #78, .F. ) ;
#271 = ORIENTED_EDGE ( 'NONE', *, *, #153, .F. ) ;
#272 = APPROVAL_DATE_TIME ( #289, #348 ) ;
#273 = PRODUCT_RELATED_PRODUCT_CATEGORY ( 'detail', '', ( #85 ) ) ;
#274 = EDGE_CURVE ( 'NONE', #265, #328, #11, .T. ) ;
#275 = ORIENTED_EDGE ( 'NONE', *, *, #124, .T. ) ;
#276 = DIRECTION ( 'NONE',  ( 1.000000000000000000, 0.000000000000000000, 0.000000000000000000 ) ) ;
#277 = DIRECTION ( 'NONE',  ( -0.000000000000000000, -0.000000000000000000, -1.000000000000000000 ) ) ;
#278 = AXIS2_PLACEMENT_3D ( 'NONE', #53, #230, #174 ) ;
#279 = CC_DESIGN_APPROVAL ( #348, ( #46 ) ) ;
#280 = DIRECTION ( 'NONE',  ( 1.000000000000000000, 0.000000000000000000, 0.000000000000000000 ) ) ;
#281 = CYLINDRICAL_SURFACE ( 'NONE', #315, 2.000000000000000000 ) ;
#282 = CARTESIAN_POINT ( 'NONE',  ( 0.000000000000000000, 0.000000000000000000, 0.000000000000000000 ) ) ;
#283 = CARTESIAN_POINT ( 'NONE',  ( 2.000000000000000000, 2.449293598294705921E-16, 455.0000000000000000 ) ) ;
#284 = CYLINDRICAL_SURFACE ( 'NONE', #131, 6.000000000000000888 ) ;
#285 = CARTESIAN_POINT ( 'NONE',  ( 6.000000000000000888, 7.347880794884120722E-16, 5.000000000000000000 ) ) ;
#286 = CIRCLE ( 'NONE', #145, 6.000000000000000888 ) ;
#287 = APPROVAL_PERSON_ORGANIZATION ( #190, #348, #345 ) ;
#288 = CYLINDRICAL_SURFACE ( 'NONE', #168, 6.000000000000000888 ) ;
#289 = DATE_AND_TIME ( #163, #379 ) ;
#290 = CARTESIAN_POINT ( 'NONE',  ( -3.500000000000000444, 4.286263797015737088E-16, 5.000000000000002665 ) ) ;
#291 = EDGE_LOOP ( 'NONE', ( #193, #30 ) ) ;
#292 = PERSON_AND_ORGANIZATION_ROLE ( 'creator' ) ;
#293 = AXIS2_PLACEMENT_3D ( 'NONE', #162, #310, #157 ) ;
#294 = ORIENTED_EDGE ( 'NONE', *, *, #74, .F. ) ;
#295 = ORIENTED_EDGE ( 'NONE', *, *, #102, .F. ) ;
#296 = APPROVAL_DATE_TIME ( #266, #22 ) ;
#297 = VERTEX_POINT ( 'NONE', #290 ) ;
#298 = PRODUCT_DEFINITION_SHAPE ( 'NONE', 'NONE',  #59 ) ;
#299 = AXIS2_PLACEMENT_3D ( 'NONE', #189, #222, #135 ) ;
#300 = VERTEX_POINT ( 'NONE', #95 ) ;
#301 = LINE ( 'NONE', #67, #16 ) ;
#302 = DIRECTION ( 'NONE',  ( 0.000000000000000000, 0.000000000000000000, -1.000000000000000000 ) ) ;
#303 = DIRECTION ( 'NONE',  ( 0.000000000000000000, 0.000000000000000000, 1.000000000000000000 ) ) ;
#304 = APPLICATION_CONTEXT ( 'configuration controlled 3d designs of mechanical parts and assemblies' ) ;
#305 = ORIENTED_EDGE ( 'NONE', *, *, #103, .T. ) ;
#306 = AXIS2_PLACEMENT_3D ( 'NONE', #191, #342, #344 ) ;
#307 = CARTESIAN_POINT ( 'NONE',  ( -6.000000000000000888, 0.000000000000000000, 0.000000000000000000 ) ) ;
#308 = CC_DESIGN_PERSON_AND_ORGANIZATION_ASSIGNMENT ( #372, #292, ( #59 ) ) ;
#309 = CARTESIAN_POINT ( 'NONE',  ( 0.000000000000000000, 0.000000000000000000, 0.000000000000000000 ) ) ;
#310 = DIRECTION ( 'NONE',  ( 0.000000000000000000, 0.000000000000000000, 1.000000000000000000 ) ) ;
#311 = CIRCLE ( 'NONE', #36, 3.500000000000000444 ) ;
#312 =( LENGTH_UNIT ( ) NAMED_UNIT ( * ) SI_UNIT ( .MILLI., .METRE. ) );
#313 = APPLICATION_PROTOCOL_DEFINITION ( 'international standard', 'config_control_design', 1994, #304 ) ;
#314 = CARTESIAN_POINT ( 'NONE',  ( 6.000000000000000888, 7.347880794884120722E-16, 0.000000000000000000 ) ) ;
#315 = AXIS2_PLACEMENT_3D ( 'NONE', #249, #364, #39 ) ;
#316 = LOCAL_TIME ( 17, 34, 36.00000000000000000, #132 ) ;
#317 = CARTESIAN_POINT ( 'NONE',  ( 0.000000000000000000, 0.000000000000000000, 455.0000000000000000 ) ) ;
#318 = CC_DESIGN_PERSON_AND_ORGANIZATION_ASSIGNMENT ( #240, #327, ( #5 ) ) ;
#319 = EDGE_CURVE ( 'NONE', #328, #265, #269, .T. ) ;
#320 = ORIENTED_EDGE ( 'NONE', *, *, #124, .F. ) ;
#321 = CARTESIAN_POINT ( 'NONE',  ( 0.000000000000000000, 0.000000000000000000, 455.0000000000000000 ) ) ;
#322 = ORIENTED_EDGE ( 'NONE', *, *, #274, .T. ) ;
#323 = CC_DESIGN_DATE_AND_TIME_ASSIGNMENT ( #188, #82, ( #59 ) ) ;
#324 = FACE_BOUND ( 'NONE', #291, .T. ) ;
#325 = AXIS2_PLACEMENT_3D ( 'NONE', #376, #109, #354 ) ;
#326 = ORIENTED_EDGE ( 'NONE', *, *, #227, .T. ) ;
#327 = PERSON_AND_ORGANIZATION_ROLE ( 'classification_officer' ) ;
#328 = VERTEX_POINT ( 'NONE', #137 ) ;
#329 = DATE_AND_TIME ( #232, #56 ) ;
#330 = ORIENTED_EDGE ( 'NONE', *, *, #127, .F. ) ;
#331 = AXIS2_PLACEMENT_3D ( 'NONE', #338, #212, #336 ) ;
#332 = DIRECTION ( 'NONE',  ( -1.000000000000000000, 1.224646799147354440E-16, 0.000000000000000000 ) ) ;
#333 = DIRECTION ( 'NONE',  ( 0.000000000000000000, 0.000000000000000000, 1.000000000000000000 ) ) ;
#334 = ORIENTED_EDGE ( 'NONE', *, *, #176, .F. ) ;
#335 = CARTESIAN_POINT ( 'NONE',  ( -2.000000000000000000, 0.000000000000000000, 455.0000000000000000 ) ) ;
#336 = DIRECTION ( 'NONE',  ( -1.000000000000000000, 0.000000000000000000, 0.000000000000000000 ) ) ;
#337 = EDGE_CURVE ( 'NONE', #328, #300, #210, .T. ) ;
#338 = CARTESIAN_POINT ( 'NONE',  ( 0.000000000000000000, 0.000000000000000000, 455.0000000000000000 ) ) ;
#339 =( GEOMETRIC_REPRESENTATION_CONTEXT ( 3 ) GLOBAL_UNCERTAINTY_ASSIGNED_CONTEXT ( ( #194 ) ) GLOBAL_UNIT_ASSIGNED_CONTEXT ( ( #312, #70, #128 ) ) REPRESENTATION_CONTEXT ( 'NONE', 'WORKASPACE' ) );
#340 = ADVANCED_FACE ( 'NONE', ( #68 ), #380, .F. ) ;
#341 = CARTESIAN_POINT ( 'NONE',  ( 0.000000000000000000, 0.000000000000000000, 5.000000000000000000 ) ) ;
#342 = DIRECTION ( 'NONE',  ( -0.000000000000000000, -0.000000000000000000, -1.000000000000000000 ) ) ;
#343 = CIRCLE ( 'NONE', #306, 2.000000000000000000 ) ;
#344 = DIRECTION ( 'NONE',  ( 1.000000000000000000, 0.000000000000000000, 0.000000000000000000 ) ) ;
#345 = APPROVAL_ROLE ( '' ) ;
#346 = FACE_OUTER_BOUND ( 'NONE', #6, .T. ) ;
#347 = FACE_OUTER_BOUND ( 'NONE', #357, .T. ) ;
#348 = APPROVAL ( #28, 'NEURÈENÝ' ) ;
#349 = CARTESIAN_POINT ( 'NONE',  ( 2.000000000000000000, 2.449293598294705921E-16, 455.0000000000000000 ) ) ;
#350 = EDGE_LOOP ( 'NONE', ( #263, #234, #138, #146 ) ) ;
#351 = CARTESIAN_POINT ( 'NONE',  ( 0.000000000000000000, 0.000000000000000000, 455.0000000000000000 ) ) ;
#352 = VERTEX_POINT ( 'NONE', #178 ) ;
#353 = APPROVAL_DATE_TIME ( #139, #13 ) ;
#354 = DIRECTION ( 'NONE',  ( 1.000000000000000000, 0.000000000000000000, -0.000000000000000000 ) ) ;
#355 = ORIENTED_EDGE ( 'NONE', *, *, #118, .F. ) ;
#356 = EDGE_CURVE ( 'NONE', #3, #203, #77, .T. ) ;
#357 = EDGE_LOOP ( 'NONE', ( #330, #160, #172, #89 ) ) ;
#358 = ORIENTED_EDGE ( 'NONE', *, *, #74, .T. ) ;
#359 = DIRECTION ( 'NONE',  ( 0.000000000000000000, 0.000000000000000000, 1.000000000000000000 ) ) ;
#360 = COORDINATED_UNIVERSAL_TIME_OFFSET ( 1, 0, .AHEAD. ) ;
#361 = CIRCLE ( 'NONE', #293, 6.000000000000000888 ) ;
#362 = PLANE ( 'NONE',  #219 ) ;
#363 = FACE_OUTER_BOUND ( 'NONE', #112, .T. ) ;
#364 = DIRECTION ( 'NONE',  ( 0.000000000000000000, 0.000000000000000000, -1.000000000000000000 ) ) ;
#365 = DIRECTION ( 'NONE',  ( 1.000000000000000000, 0.000000000000000000, 0.000000000000000000 ) ) ;
#366 = CARTESIAN_POINT ( 'NONE',  ( 0.000000000000000000, 0.000000000000000000, 0.000000000000000000 ) ) ;
#367 = CIRCLE ( 'NONE', #55, 0.4999999999999995559 ) ;
#368 = VECTOR ( 'NONE', #97, 1000.000000000000000 ) ;
#369 = CARTESIAN_POINT ( 'NONE',  ( 0.000000000000000000, 0.000000000000000000, 5.000000000000000000 ) ) ;
#370 = DIRECTION ( 'NONE',  ( 0.000000000000000000, 0.000000000000000000, 1.000000000000000000 ) ) ;
#371 = ADVANCED_FACE ( 'NONE', ( #149, #241 ), #247, .F. ) ;
#372 = PERSON_AND_ORGANIZATION ( #44, #159 ) ;
#373 = CARTESIAN_POINT ( 'NONE',  ( 6.000000000000000888, 7.347880794884120722E-16, 5.000000000000000000 ) ) ;
#374 = PERSON_AND_ORGANIZATION ( #44, #159 ) ;
#375 = CARTESIAN_POINT ( 'NONE',  ( -6.000000000000000888, 0.000000000000000000, 5.000000000000000000 ) ) ;
#376 = CARTESIAN_POINT ( 'NONE',  ( 0.000000000000000000, 0.000000000000000000, 455.0000000000000000 ) ) ;
#377 = CIRCLE ( 'NONE', #25, 3.000000000000000444 ) ;
#378 = AXIS2_PLACEMENT_3D ( 'NONE', #1, #83, #261 ) ;
#379 = LOCAL_TIME ( 17, 34, 36.00000000000000000, #192 ) ;
#380 = CYLINDRICAL_SURFACE ( 'NONE', #226, 2.000000000000000000 ) ;
#381 = ORIENTED_EDGE ( 'NONE', *, *, #205, .T. ) ;
ENDSEC;
END-ISO-10303-21;
