ISO-10303-21;
HEADER;
FILE_DESCRIPTION (( 'STEP AP203' ),
    '1' );
FILE_NAME ('5e15.STEP',
    '2022-07-08T15:21:58',
    ( '' ),
    ( '' ),
    'SwSTEP 2.0',
    'SolidWorks 2019',
    '' );
FILE_SCHEMA (( 'CONFIG_CONTROL_DESIGN' ));
ENDSEC;

DATA;
#1 = DIRECTION ( 'NONE',  ( 0.000000000000000000, 0.000000000000000000, 1.000000000000000000 ) ) ;
#2 = AXIS2_PLACEMENT_3D ( 'NONE', #304, #66, #10 ) ;
#3 = ORIENTED_EDGE ( 'NONE', *, *, #90, .T. ) ;
#4 = CIRCLE ( 'NONE', #121, 7.000000000000000000 ) ;
#5 = CARTESIAN_POINT ( 'NONE',  ( 0.000000000000000000, 0.000000000000000000, 755.0000000000000000 ) ) ;
#6 = EDGE_CURVE ( 'NONE', #324, #152, #4, .T. ) ;
#7 = CARTESIAN_POINT ( 'NONE',  ( 0.000000000000000000, 0.000000000000000000, 5.000000000000000000 ) ) ;
#8 = CIRCLE ( 'NONE', #57, 7.000000000000000000 ) ;
#9 = EDGE_LOOP ( 'NONE', ( #278, #194 ) ) ;
#10 = DIRECTION ( 'NONE',  ( 1.000000000000000000, 0.000000000000000000, 0.000000000000000000 ) ) ;
#11 = ORIENTED_EDGE ( 'NONE', *, *, #73, .F. ) ;
#12 = PERSON_AND_ORGANIZATION_ROLE ( 'creator' ) ;
#13 = CARTESIAN_POINT ( 'NONE',  ( 7.000000000000000000, 8.572527594031473190E-16, 5.000000000000000000 ) ) ;
#14 = APPROVAL_STATUS ( 'not_yet_approved' ) ;
#15 = ORIENTED_EDGE ( 'NONE', *, *, #358, .F. ) ;
#16 = AXIS2_PLACEMENT_3D ( 'NONE', #232, #353, #110 ) ;
#17 = PERSON_AND_ORGANIZATION ( #328, #313 ) ;
#18 = DIRECTION ( 'NONE',  ( 1.000000000000000000, 0.000000000000000000, 0.000000000000000000 ) ) ;
#19 = CC_DESIGN_PERSON_AND_ORGANIZATION_ASSIGNMENT ( #104, #161, ( #143 ) ) ;
#20 = CARTESIAN_POINT ( 'NONE',  ( -4.500000000000000888, 5.510910596163089556E-16, 5.499999999999949374 ) ) ;
#21 = SECURITY_CLASSIFICATION_LEVEL ( 'unclassified' ) ;
#22 = DIRECTION ( 'NONE',  ( 1.000000000000000000, 0.000000000000000000, 0.000000000000000000 ) ) ;
#23 = EDGE_CURVE ( 'NONE', #245, #248, #149, .T. ) ;
#24 = DIRECTION ( 'NONE',  ( 1.000000000000000000, 0.000000000000000000, -0.000000000000000000 ) ) ;
#25 = DIRECTION ( 'NONE',  ( -1.000000000000000000, 0.000000000000000000, 0.000000000000000000 ) ) ;
#26 = CIRCLE ( 'NONE', #181, 7.000000000000000000 ) ;
#27 = CARTESIAN_POINT ( 'NONE',  ( 0.000000000000000000, 0.000000000000000000, 755.0000000000000000 ) ) ;
#28 = ORIENTED_EDGE ( 'NONE', *, *, #73, .T. ) ;
#29 = AXIS2_PLACEMENT_3D ( 'NONE', #48, #98, #335 ) ;
#30 = VERTEX_POINT ( 'NONE', #13 ) ;
#31 = AXIS2_PLACEMENT_3D ( 'NONE', #7, #1, #235 ) ;
#32 = CIRCLE ( 'NONE', #251, 2.250000000000000000 ) ;
#33 = ORIENTED_EDGE ( 'NONE', *, *, #358, .T. ) ;
#34 = ORIENTED_EDGE ( 'NONE', *, *, #23, .T. ) ;
#35 = EDGE_CURVE ( 'NONE', #30, #324, #69, .T. ) ;
#36 = VERTEX_POINT ( 'NONE', #132 ) ;
#37 = EDGE_CURVE ( 'NONE', #368, #331, #273, .T. ) ;
#38 =( NAMED_UNIT ( * ) SI_UNIT ( $, .STERADIAN. ) SOLID_ANGLE_UNIT ( ) );
#39 = ORIENTED_EDGE ( 'NONE', *, *, #37, .F. ) ;
#40 = PRODUCT_DEFINITION ( 'NEZNÁMÝ', '', #143, #127 ) ;
#41 = APPROVAL_DATE_TIME ( #285, #300 ) ;
#42 = CYLINDRICAL_SURFACE ( 'NONE', #203, 2.250000000000000000 ) ;
#43 = PERSON_AND_ORGANIZATION_ROLE ( 'creator' ) ;
#44 = EDGE_CURVE ( 'NONE', #368, #103, #63, .T. ) ;
#45 = CARTESIAN_POINT ( 'NONE',  ( 0.000000000000000000, 0.000000000000000000, 5.000000000000000000 ) ) ;
#46 = CALENDAR_DATE ( 2022, 8, 7 ) ;
#47 = VECTOR ( 'NONE', #205, 1000.000000000000000 ) ;
#48 = CARTESIAN_POINT ( 'NONE',  ( 0.000000000000000000, 0.000000000000000000, 755.0000000000000000 ) ) ;
#49 = DIRECTION ( 'NONE',  ( 0.000000000000000000, 0.000000000000000000, 1.000000000000000000 ) ) ;
#50 = ADVANCED_BREP_SHAPE_REPRESENTATION ( '5e15', ( #61, #64 ), #108 ) ;
#51 = CARTESIAN_POINT ( 'NONE',  ( 0.000000000000000000, 0.000000000000000000, 0.000000000000000000 ) ) ;
#52 = DIRECTION ( 'NONE',  ( 0.000000000000000000, 0.000000000000000000, 1.000000000000000000 ) ) ;
#53 = TOROIDAL_SURFACE ( 'NONE', #2, 4.500000000000000888, 0.5000000000000000000 ) ;
#54 = CARTESIAN_POINT ( 'NONE',  ( -4.000000000000000000, 0.000000000000000000, 755.0000000000000000 ) ) ;
#55 = CARTESIAN_POINT ( 'NONE',  ( -2.250000000000000000, 0.000000000000000000, 755.0000000000000000 ) ) ;
#56 = DIRECTION ( 'NONE',  ( -1.000000000000000000, 0.000000000000000000, 0.000000000000000000 ) ) ;
#57 = AXIS2_PLACEMENT_3D ( 'NONE', #347, #141, #82 ) ;
#58 = DIRECTION ( 'NONE',  ( 0.000000000000000000, 0.000000000000000000, 1.000000000000000000 ) ) ;
#59 = EDGE_LOOP ( 'NONE', ( #92, #333 ) ) ;
#60 = ORIENTED_EDGE ( 'NONE', *, *, #381, .T. ) ;
#61 = MANIFOLD_SOLID_BREP ( 'Odebrat vysunutím3', #192 ) ;
#62 = ADVANCED_FACE ( 'NONE', ( #124 ), #42, .F. ) ;
#63 = CIRCLE ( 'NONE', #174, 4.000000000000000000 ) ;
#64 = AXIS2_PLACEMENT_3D ( 'NONE', #189, #314, #71 ) ;
#65 = LOCAL_TIME ( 17, 21, 58.00000000000000000, #310 ) ;
#66 = DIRECTION ( 'NONE',  ( 0.000000000000000000, 0.000000000000000000, 1.000000000000000000 ) ) ;
#67 = ADVANCED_FACE ( 'NONE', ( #191 ), #311, .T. ) ;
#68 = ORIENTED_EDGE ( 'NONE', *, *, #341, .F. ) ;
#69 = LINE ( 'NONE', #216, #223 ) ;
#70 = DIRECTION ( 'NONE',  ( 0.000000000000000000, 0.000000000000000000, -1.000000000000000000 ) ) ;
#71 = DIRECTION ( 'NONE',  ( 1.000000000000000000, 0.000000000000000000, 0.000000000000000000 ) ) ;
#72 = DIRECTION ( 'NONE',  ( 0.000000000000000000, 0.000000000000000000, 1.000000000000000000 ) ) ;
#73 = EDGE_CURVE ( 'NONE', #103, #239, #370, .T. ) ;
#74 = ORIENTED_EDGE ( 'NONE', *, *, #91, .T. ) ;
#75 = SHAPE_DEFINITION_REPRESENTATION ( #81, #50 ) ;
#76 = APPROVAL ( #130, 'NEURÈENÝ' ) ;
#77 = AXIS2_PLACEMENT_3D ( 'NONE', #168, #52, #172 ) ;
#78 = EDGE_CURVE ( 'NONE', #94, #208, #255, .T. ) ;
#79 = PLANE ( 'NONE',  #209 ) ;
#80 = DIRECTION ( 'NONE',  ( 0.000000000000000000, 0.000000000000000000, -1.000000000000000000 ) ) ;
#81 = PRODUCT_DEFINITION_SHAPE ( 'NONE', 'NONE',  #40 ) ;
#82 = DIRECTION ( 'NONE',  ( 1.000000000000000000, 0.000000000000000000, 0.000000000000000000 ) ) ;
#83 = AXIS2_PLACEMENT_3D ( 'NONE', #20, #170, #291 ) ;
#84 = LINE ( 'NONE', #195, #100 ) ;
#85 = AXIS2_PLACEMENT_3D ( 'NONE', #113, #374, #22 ) ;
#86 = CARTESIAN_POINT ( 'NONE',  ( 0.000000000000000000, 0.000000000000000000, 755.0000000000000000 ) ) ;
#87 = CARTESIAN_POINT ( 'NONE',  ( 0.000000000000000000, 0.000000000000000000, 0.000000000000000000 ) ) ;
#88 = EDGE_LOOP ( 'NONE', ( #187, #329 ) ) ;
#89 = DIRECTION ( 'NONE',  ( 1.000000000000000000, 0.000000000000000000, 0.000000000000000000 ) ) ;
#90 = EDGE_CURVE ( 'NONE', #103, #368, #131, .T. ) ;
#91 = EDGE_CURVE ( 'NONE', #248, #245, #330, .T. ) ;
#92 = ORIENTED_EDGE ( 'NONE', *, *, #193, .T. ) ;
#93 = AXIS2_PLACEMENT_3D ( 'NONE', #262, #258, #371 ) ;
#94 = VERTEX_POINT ( 'NONE', #138 ) ;
#95 = DIRECTION ( 'NONE',  ( 1.000000000000000000, 0.000000000000000000, -0.000000000000000000 ) ) ;
#96 = CARTESIAN_POINT ( 'NONE',  ( 0.000000000000000000, 0.000000000000000000, 0.000000000000000000 ) ) ;
#97 = DIRECTION ( 'NONE',  ( -0.000000000000000000, -0.000000000000000000, -1.000000000000000000 ) ) ;
#98 = DIRECTION ( 'NONE',  ( 0.000000000000000000, 0.000000000000000000, 1.000000000000000000 ) ) ;
#99 = CALENDAR_DATE ( 2022, 8, 7 ) ;
#100 = VECTOR ( 'NONE', #173, 1000.000000000000000 ) ;
#101 = EDGE_LOOP ( 'NONE', ( #74, #34 ) ) ;
#102 = APPROVAL_ROLE ( '' ) ;
#103 = VERTEX_POINT ( 'NONE', #317 ) ;
#104 = PERSON_AND_ORGANIZATION ( #328, #313 ) ;
#105 = ADVANCED_FACE ( 'NONE', ( #137 ), #293, .F. ) ;
#106 = CARTESIAN_POINT ( 'NONE',  ( -2.250000000000000000, 0.000000000000000000, 0.000000000000000000 ) ) ;
#107 = DATE_TIME_ROLE ( 'classification_date' ) ;
#108 =( GEOMETRIC_REPRESENTATION_CONTEXT ( 3 ) GLOBAL_UNCERTAINTY_ASSIGNED_CONTEXT ( ( #185 ) ) GLOBAL_UNIT_ASSIGNED_CONTEXT ( ( #297, #359, #38 ) ) REPRESENTATION_CONTEXT ( 'NONE', 'WORKASPACE' ) );
#109 = CARTESIAN_POINT ( 'NONE',  ( -7.000000000000000000, 0.000000000000000000, 0.000000000000000000 ) ) ;
#110 = DIRECTION ( 'NONE',  ( 1.000000000000000000, 0.000000000000000000, 0.000000000000000000 ) ) ;
#111 = DIRECTION ( 'NONE',  ( 1.000000000000000000, 0.000000000000000000, 0.000000000000000000 ) ) ;
#112 = VECTOR ( 'NONE', #80, 1000.000000000000000 ) ;
#113 = CARTESIAN_POINT ( 'NONE',  ( 0.000000000000000000, 0.000000000000000000, 5.000000000000000000 ) ) ;
#114 = LOCAL_TIME ( 17, 21, 58.00000000000000000, #372 ) ;
#115 = APPROVAL_PERSON_ORGANIZATION ( #282, #271, #102 ) ;
#116 = PLANE ( 'NONE',  #165 ) ;
#117 = CYLINDRICAL_SURFACE ( 'NONE', #301, 7.000000000000000000 ) ;
#118 = EDGE_CURVE ( 'NONE', #239, #331, #179, .T. ) ;
#119 = ORIENTED_EDGE ( 'NONE', *, *, #341, .T. ) ;
#120 = ORIENTED_EDGE ( 'NONE', *, *, #78, .T. ) ;
#121 = AXIS2_PLACEMENT_3D ( 'NONE', #96, #72, #215 ) ;
#122 = ADVANCED_FACE ( 'NONE', ( #376 ), #199, .F. ) ;
#123 = LINE ( 'NONE', #323, #47 ) ;
#124 = FACE_OUTER_BOUND ( 'NONE', #364, .T. ) ;
#125 = SECURITY_CLASSIFICATION ( '', '', #21 ) ;
#126 = ORIENTED_EDGE ( 'NONE', *, *, #35, .T. ) ;
#127 = DESIGN_CONTEXT ( 'detailed design', #350, 'design' ) ;
#128 = DIRECTION ( 'NONE',  ( 0.000000000000000000, 0.000000000000000000, 1.000000000000000000 ) ) ;
#129 = ORIENTED_EDGE ( 'NONE', *, *, #44, .T. ) ;
#130 = APPROVAL_STATUS ( 'not_yet_approved' ) ;
#131 = CIRCLE ( 'NONE', #281, 4.000000000000000000 ) ;
#132 = CARTESIAN_POINT ( 'NONE',  ( 2.250000000000000000, 2.755455298081544285E-16, 0.000000000000000000 ) ) ;
#133 = CIRCLE ( 'NONE', #275, 2.250000000000000000 ) ;
#134 = APPROVAL_PERSON_ORGANIZATION ( #136, #76, #290 ) ;
#135 = ORIENTED_EDGE ( 'NONE', *, *, #338, .T. ) ;
#136 = PERSON_AND_ORGANIZATION ( #328, #313 ) ;
#137 = FACE_OUTER_BOUND ( 'NONE', #280, .T. ) ;
#138 = CARTESIAN_POINT ( 'NONE',  ( -2.250000000000000000, 0.000000000000000000, 755.0000000000000000 ) ) ;
#139 = DIRECTION ( 'NONE',  ( 1.000000000000000000, 0.000000000000000000, 0.000000000000000000 ) ) ;
#140 = CARTESIAN_POINT ( 'NONE',  ( 0.000000000000000000, 0.000000000000000000, 5.499999999999949374 ) ) ;
#141 = DIRECTION ( 'NONE',  ( 0.000000000000000000, 0.000000000000000000, 1.000000000000000000 ) ) ;
#142 = FACE_OUTER_BOUND ( 'NONE', #267, .T. ) ;
#143 = PRODUCT_DEFINITION_FORMATION_WITH_SPECIFIED_SOURCE ( 'LIBOVOLNÝ', '', #204, .NOT_KNOWN. ) ;
#144 = CC_DESIGN_DATE_AND_TIME_ASSIGNMENT ( #159, #279, ( #40 ) ) ;
#145 = FACE_OUTER_BOUND ( 'NONE', #299, .T. ) ;
#146 = ORIENTED_EDGE ( 'NONE', *, *, #220, .F. ) ;
#147 = CARTESIAN_POINT ( 'NONE',  ( 4.000000000000000000, 4.898587196589412829E-16, 755.0000000000000000 ) ) ;
#148 = ORIENTED_EDGE ( 'NONE', *, *, #37, .T. ) ;
#149 = CIRCLE ( 'NONE', #29, 4.000000000000000000 ) ;
#150 = CC_DESIGN_PERSON_AND_ORGANIZATION_ASSIGNMENT ( #346, #12, ( #40 ) ) ;
#151 = CIRCLE ( 'NONE', #226, 2.250000000000000000 ) ;
#152 = VERTEX_POINT ( 'NONE', #109 ) ;
#153 = ORIENTED_EDGE ( 'NONE', *, *, #237, .F. ) ;
#154 = EDGE_CURVE ( 'NONE', #152, #324, #377, .T. ) ;
#155 = DIRECTION ( 'NONE',  ( -0.000000000000000000, -0.000000000000000000, -1.000000000000000000 ) ) ;
#156 = ORIENTED_EDGE ( 'NONE', *, *, #35, .F. ) ;
#157 = AXIS2_PLACEMENT_3D ( 'NONE', #289, #261, #263 ) ;
#158 = CARTESIAN_POINT ( 'NONE',  ( 4.500000000000000888, 0.000000000000000000, 5.499999999999949374 ) ) ;
#159 = DATE_AND_TIME ( #254, #284 ) ;
#160 = DIRECTION ( 'NONE',  ( -1.000000000000000000, 0.000000000000000000, 0.000000000000000000 ) ) ;
#161 = PERSON_AND_ORGANIZATION_ROLE ( 'design_supplier' ) ;
#162 = CC_DESIGN_DATE_AND_TIME_ASSIGNMENT ( #365, #107, ( #125 ) ) ;
#163 = DIRECTION ( 'NONE',  ( -0.000000000000000000, -0.000000000000000000, -1.000000000000000000 ) ) ;
#164 = COORDINATED_UNIVERSAL_TIME_OFFSET ( 1, 0, .AHEAD. ) ;
#165 = AXIS2_PLACEMENT_3D ( 'NONE', #363, #128, #95 ) ;
#166 = CARTESIAN_POINT ( 'NONE',  ( 0.000000000000000000, 0.000000000000000000, 5.499999999999949374 ) ) ;
#167 = COORDINATED_UNIVERSAL_TIME_OFFSET ( 1, 0, .AHEAD. ) ;
#168 = CARTESIAN_POINT ( 'NONE',  ( 0.000000000000000000, 0.000000000000000000, 5.499999999999949374 ) ) ;
#169 = DATE_AND_TIME ( #99, #336 ) ;
#170 = DIRECTION ( 'NONE',  ( 1.224646799147353207E-16, 1.000000000000000000, -0.000000000000000000 ) ) ;
#171 = CC_DESIGN_APPROVAL ( #271, ( #125 ) ) ;
#172 = DIRECTION ( 'NONE',  ( 1.000000000000000000, 0.000000000000000000, 0.000000000000000000 ) ) ;
#173 = DIRECTION ( 'NONE',  ( -0.000000000000000000, -0.000000000000000000, -1.000000000000000000 ) ) ;
#174 = AXIS2_PLACEMENT_3D ( 'NONE', #166, #190, #309 ) ;
#175 = DIRECTION ( 'NONE',  ( 1.000000000000000000, 0.000000000000000000, 0.000000000000000000 ) ) ;
#176 = CARTESIAN_POINT ( 'NONE',  ( 4.500000000000000888, 0.000000000000000000, 4.999999999999975131 ) ) ;
#177 = AXIS2_PLACEMENT_3D ( 'NONE', #287, #320, #18 ) ;
#178 = CARTESIAN_POINT ( 'NONE',  ( 0.000000000000000000, 0.000000000000000000, 5.000000000000000000 ) ) ;
#179 = CIRCLE ( 'NONE', #93, 4.500000000000000888 ) ;
#180 = ORIENTED_EDGE ( 'NONE', *, *, #23, .F. ) ;
#181 = AXIS2_PLACEMENT_3D ( 'NONE', #201, #49, #229 ) ;
#182 = VERTEX_POINT ( 'NONE', #349 ) ;
#183 = CARTESIAN_POINT ( 'NONE',  ( 4.000000000000000000, 4.898587196589412829E-16, 5.499999999999949374 ) ) ;
#184 = ORIENTED_EDGE ( 'NONE', *, *, #78, .F. ) ;
#185 = UNCERTAINTY_MEASURE_WITH_UNIT (LENGTH_MEASURE( 1.000000000000000082E-05 ), #297, 'distance_accuracy_value', 'NONE');
#186 = CARTESIAN_POINT ( 'NONE',  ( 0.000000000000000000, 0.000000000000000000, 755.0000000000000000 ) ) ;
#187 = ORIENTED_EDGE ( 'NONE', *, *, #188, .T. ) ;
#188 = EDGE_CURVE ( 'NONE', #307, #30, #8, .T. ) ;
#189 = CARTESIAN_POINT ( 'NONE',  ( 0.000000000000000000, 0.000000000000000000, 0.000000000000000000 ) ) ;
#190 = DIRECTION ( 'NONE',  ( 0.000000000000000000, 0.000000000000000000, 1.000000000000000000 ) ) ;
#191 = FACE_OUTER_BOUND ( 'NONE', #221, .T. ) ;
#192 = CLOSED_SHELL ( 'NONE', ( #62, #122, #230, #354, #67, #303, #268, #260, #233, #253, #105 ) ) ;
#193 = EDGE_CURVE ( 'NONE', #331, #239, #352, .T. ) ;
#194 = ORIENTED_EDGE ( 'NONE', *, *, #338, .F. ) ;
#195 = CARTESIAN_POINT ( 'NONE',  ( -7.000000000000000000, 0.000000000000000000, 5.000000000000000000 ) ) ;
#196 = DIRECTION ( 'NONE',  ( 0.000000000000000000, 0.000000000000000000, 1.000000000000000000 ) ) ;
#197 = DIRECTION ( 'NONE',  ( -0.000000000000000000, -0.000000000000000000, -1.000000000000000000 ) ) ;
#198 = EDGE_CURVE ( 'NONE', #94, #182, #286, .T. ) ;
#199 = TOROIDAL_SURFACE ( 'NONE', #77, 4.500000000000000888, 0.5000000000000000000 ) ;
#200 = CARTESIAN_POINT ( 'NONE',  ( -4.500000000000000888, 5.510910596163088569E-16, 4.999999999999975131 ) ) ;
#201 = CARTESIAN_POINT ( 'NONE',  ( 0.000000000000000000, 0.000000000000000000, 5.000000000000000000 ) ) ;
#202 = DIRECTION ( 'NONE',  ( 1.000000000000000000, 0.000000000000000000, 0.000000000000000000 ) ) ;
#203 = AXIS2_PLACEMENT_3D ( 'NONE', #5, #366, #160 ) ;
#204 = PRODUCT ( '5e15', '5e15', '', ( #259 ) ) ;
#205 = DIRECTION ( 'NONE',  ( -0.000000000000000000, -0.000000000000000000, -1.000000000000000000 ) ) ;
#206 = PRODUCT_RELATED_PRODUCT_CATEGORY ( 'detail', '', ( #204 ) ) ;
#207 = ORIENTED_EDGE ( 'NONE', *, *, #44, .F. ) ;
#208 = VERTEX_POINT ( 'NONE', #106 ) ;
#209 = AXIS2_PLACEMENT_3D ( 'NONE', #231, #292, #24 ) ;
#210 = ORIENTED_EDGE ( 'NONE', *, *, #198, .T. ) ;
#211 = CC_DESIGN_PERSON_AND_ORGANIZATION_ASSIGNMENT ( #17, #247, ( #204 ) ) ;
#212 = EDGE_LOOP ( 'NONE', ( #146, #126, #312, #153 ) ) ;
#213 = APPLICATION_CONTEXT ( 'configuration controlled 3d designs of mechanical parts and assemblies' ) ;
#214 = FACE_BOUND ( 'NONE', #276, .T. ) ;
#215 = DIRECTION ( 'NONE',  ( 1.000000000000000000, 0.000000000000000000, 0.000000000000000000 ) ) ;
#216 = CARTESIAN_POINT ( 'NONE',  ( 7.000000000000000000, 8.572527594031473190E-16, 5.000000000000000000 ) ) ;
#217 = CC_DESIGN_SECURITY_CLASSIFICATION ( #125, ( #143 ) ) ;
#218 = PERSON_AND_ORGANIZATION ( #328, #313 ) ;
#219 = ORIENTED_EDGE ( 'NONE', *, *, #379, .F. ) ;
#220 = EDGE_CURVE ( 'NONE', #30, #307, #26, .T. ) ;
#221 = EDGE_LOOP ( 'NONE', ( #156, #272, #270, #298 ) ) ;
#222 = APPROVAL_DATE_TIME ( #169, #271 ) ;
#223 = VECTOR ( 'NONE', #242, 1000.000000000000000 ) ;
#224 = CYLINDRICAL_SURFACE ( 'NONE', #302, 4.000000000000000000 ) ;
#225 = APPLICATION_PROTOCOL_DEFINITION ( 'international standard', 'config_control_design', 1994, #350 ) ;
#226 = AXIS2_PLACEMENT_3D ( 'NONE', #277, #97, #175 ) ;
#227 = DIRECTION ( 'NONE',  ( -1.000000000000000000, 0.000000000000000000, 0.000000000000000000 ) ) ;
#228 = APPLICATION_PROTOCOL_DEFINITION ( 'international standard', 'config_control_design', 1994, #213 ) ;
#229 = DIRECTION ( 'NONE',  ( 1.000000000000000000, 0.000000000000000000, 0.000000000000000000 ) ) ;
#230 = ADVANCED_FACE ( 'NONE', ( #348 ), #224, .T. ) ;
#231 = CARTESIAN_POINT ( 'NONE',  ( 0.000000000000000000, 0.000000000000000000, 755.0000000000000000 ) ) ;
#232 = CARTESIAN_POINT ( 'NONE',  ( 0.000000000000000000, 0.000000000000000000, 755.0000000000000000 ) ) ;
#233 = ADVANCED_FACE ( 'NONE', ( #344, #318 ), #79, .T. ) ;
#234 = EDGE_LOOP ( 'NONE', ( #342, #28, #244, #39 ) ) ;
#235 = DIRECTION ( 'NONE',  ( 1.000000000000000000, 0.000000000000000000, -0.000000000000000000 ) ) ;
#236 = EDGE_LOOP ( 'NONE', ( #180, #327, #129, #360 ) ) ;
#237 = EDGE_CURVE ( 'NONE', #307, #152, #84, .T. ) ;
#238 = ORIENTED_EDGE ( 'NONE', *, *, #118, .F. ) ;
#239 = VERTEX_POINT ( 'NONE', #200 ) ;
#240 = FACE_OUTER_BOUND ( 'NONE', #212, .T. ) ;
#241 = CC_DESIGN_APPROVAL ( #300, ( #40 ) ) ;
#242 = DIRECTION ( 'NONE',  ( -0.000000000000000000, -0.000000000000000000, -1.000000000000000000 ) ) ;
#243 = LINE ( 'NONE', #147, #345 ) ;
#244 = ORIENTED_EDGE ( 'NONE', *, *, #193, .F. ) ;
#245 = VERTEX_POINT ( 'NONE', #319 ) ;
#246 = AXIS2_PLACEMENT_3D ( 'NONE', #45, #163, #227 ) ;
#247 = PERSON_AND_ORGANIZATION_ROLE ( 'design_owner' ) ;
#248 = VERTEX_POINT ( 'NONE', #54 ) ;
#249 = AXIS2_PLACEMENT_3D ( 'NONE', #51, #375, #111 ) ;
#250 = PERSON_AND_ORGANIZATION ( #328, #313 ) ;
#251 = AXIS2_PLACEMENT_3D ( 'NONE', #186, #58, #202 ) ;
#252 = ORIENTED_EDGE ( 'NONE', *, *, #91, .F. ) ;
#253 = ADVANCED_FACE ( 'NONE', ( #315 ), #53, .F. ) ;
#254 = CALENDAR_DATE ( 2022, 8, 7 ) ;
#255 = LINE ( 'NONE', #55, #112 ) ;
#256 = DATE_AND_TIME ( #316, #65 ) ;
#257 = EDGE_CURVE ( 'NONE', #245, #368, #243, .T. ) ;
#258 = DIRECTION ( 'NONE',  ( -0.000000000000000000, -0.000000000000000000, -1.000000000000000000 ) ) ;
#259 = MECHANICAL_CONTEXT ( 'NONE', #213, 'mechanical' ) ;
#260 = ADVANCED_FACE ( 'NONE', ( #142 ), #274, .T. ) ;
#261 = DIRECTION ( 'NONE',  ( 0.000000000000000000, 0.000000000000000000, -1.000000000000000000 ) ) ;
#262 = CARTESIAN_POINT ( 'NONE',  ( 0.000000000000000000, 0.000000000000000000, 5.000000000000000000 ) ) ;
#263 = DIRECTION ( 'NONE',  ( -1.000000000000000000, 0.000000000000000000, 0.000000000000000000 ) ) ;
#264 = APPROVAL_PERSON_ORGANIZATION ( #373, #300, #343 ) ;
#265 = PLANE ( 'NONE',  #31 ) ;
#266 = LINE ( 'NONE', #355, #351 ) ;
#267 = EDGE_LOOP ( 'NONE', ( #356, #252, #60, #3 ) ) ;
#268 = ADVANCED_FACE ( 'NONE', ( #214, #145 ), #116, .F. ) ;
#269 = AXIS2_PLACEMENT_3D ( 'NONE', #27, #296, #56 ) ;
#270 = ORIENTED_EDGE ( 'NONE', *, *, #237, .T. ) ;
#271 = APPROVAL ( #14, 'NEURÈENÝ' ) ;
#272 = ORIENTED_EDGE ( 'NONE', *, *, #188, .F. ) ;
#273 = CIRCLE ( 'NONE', #321, 0.5000000000000004441 ) ;
#274 = CYLINDRICAL_SURFACE ( 'NONE', #269, 4.000000000000000000 ) ;
#275 = AXIS2_PLACEMENT_3D ( 'NONE', #87, #361, #89 ) ;
#276 = EDGE_LOOP ( 'NONE', ( #219, #15 ) ) ;
#277 = CARTESIAN_POINT ( 'NONE',  ( 0.000000000000000000, 0.000000000000000000, 0.000000000000000000 ) ) ;
#278 = ORIENTED_EDGE ( 'NONE', *, *, #198, .F. ) ;
#279 = DATE_TIME_ROLE ( 'creation_date' ) ;
#280 = EDGE_LOOP ( 'NONE', ( #68, #135, #120, #340 ) ) ;
#281 = AXIS2_PLACEMENT_3D ( 'NONE', #140, #196, #139 ) ;
#282 = PERSON_AND_ORGANIZATION ( #328, #313 ) ;
#283 = ORIENTED_EDGE ( 'NONE', *, *, #6, .F. ) ;
#284 = LOCAL_TIME ( 17, 21, 58.00000000000000000, #164 ) ;
#285 = DATE_AND_TIME ( #46, #325 ) ;
#286 = CIRCLE ( 'NONE', #16, 2.250000000000000000 ) ;
#287 = CARTESIAN_POINT ( 'NONE',  ( 0.000000000000000000, 0.000000000000000000, 755.0000000000000000 ) ) ;
#288 = CALENDAR_DATE ( 2022, 8, 7 ) ;
#289 = CARTESIAN_POINT ( 'NONE',  ( 0.000000000000000000, 0.000000000000000000, 755.0000000000000000 ) ) ;
#290 = APPROVAL_ROLE ( '' ) ;
#291 = DIRECTION ( 'NONE',  ( -1.000000000000000000, 1.224646799147351482E-16, 0.000000000000000000 ) ) ;
#292 = DIRECTION ( 'NONE',  ( 0.000000000000000000, 0.000000000000000000, 1.000000000000000000 ) ) ;
#293 = CYLINDRICAL_SURFACE ( 'NONE', #157, 2.250000000000000000 ) ;
#294 = FACE_OUTER_BOUND ( 'NONE', #88, .T. ) ;
#295 = CC_DESIGN_APPROVAL ( #76, ( #143 ) ) ;
#296 = DIRECTION ( 'NONE',  ( -0.000000000000000000, -0.000000000000000000, -1.000000000000000000 ) ) ;
#297 =( LENGTH_UNIT ( ) NAMED_UNIT ( * ) SI_UNIT ( .MILLI., .METRE. ) );
#298 = ORIENTED_EDGE ( 'NONE', *, *, #154, .T. ) ;
#299 = EDGE_LOOP ( 'NONE', ( #362, #283 ) ) ;
#300 = APPROVAL ( #308, 'NEURÈENÝ' ) ;
#301 = AXIS2_PLACEMENT_3D ( 'NONE', #178, #326, #357 ) ;
#302 = AXIS2_PLACEMENT_3D ( 'NONE', #86, #197, #25 ) ;
#303 = ADVANCED_FACE ( 'NONE', ( #334, #294 ), #265, .T. ) ;
#304 = CARTESIAN_POINT ( 'NONE',  ( 0.000000000000000000, 0.000000000000000000, 5.499999999999949374 ) ) ;
#305 = CC_DESIGN_PERSON_AND_ORGANIZATION_ASSIGNMENT ( #250, #367, ( #125 ) ) ;
#306 = EDGE_LOOP ( 'NONE', ( #11, #207, #148, #238 ) ) ;
#307 = VERTEX_POINT ( 'NONE', #332 ) ;
#308 = APPROVAL_STATUS ( 'not_yet_approved' ) ;
#309 = DIRECTION ( 'NONE',  ( 1.000000000000000000, 0.000000000000000000, 0.000000000000000000 ) ) ;
#310 = COORDINATED_UNIVERSAL_TIME_OFFSET ( 1, 0, .AHEAD. ) ;
#311 = CYLINDRICAL_SURFACE ( 'NONE', #246, 7.000000000000000000 ) ;
#312 = ORIENTED_EDGE ( 'NONE', *, *, #6, .T. ) ;
#313 = ORGANIZATION ( 'NEURÈENÝ', 'NEURÈENÝ', '' ) ;
#314 = DIRECTION ( 'NONE',  ( 0.000000000000000000, 0.000000000000000000, 1.000000000000000000 ) ) ;
#315 = FACE_OUTER_BOUND ( 'NONE', #306, .T. ) ;
#316 = CALENDAR_DATE ( 2022, 8, 7 ) ;
#317 = CARTESIAN_POINT ( 'NONE',  ( -4.000000000000000000, 0.000000000000000000, 5.499999999999949374 ) ) ;
#318 = FACE_OUTER_BOUND ( 'NONE', #101, .T. ) ;
#319 = CARTESIAN_POINT ( 'NONE',  ( 4.000000000000000000, 4.898587196589412829E-16, 755.0000000000000000 ) ) ;
#320 = DIRECTION ( 'NONE',  ( 0.000000000000000000, 0.000000000000000000, 1.000000000000000000 ) ) ;
#321 = AXIS2_PLACEMENT_3D ( 'NONE', #158, #337, #70 ) ;
#322 = CC_DESIGN_PERSON_AND_ORGANIZATION_ASSIGNMENT ( #218, #43, ( #143 ) ) ;
#323 = CARTESIAN_POINT ( 'NONE',  ( -4.000000000000000000, 0.000000000000000000, 755.0000000000000000 ) ) ;
#324 = VERTEX_POINT ( 'NONE', #378 ) ;
#325 = LOCAL_TIME ( 17, 21, 58.00000000000000000, #167 ) ;
#326 = DIRECTION ( 'NONE',  ( -0.000000000000000000, -0.000000000000000000, -1.000000000000000000 ) ) ;
#327 = ORIENTED_EDGE ( 'NONE', *, *, #257, .T. ) ;
#328 = PERSON ( 'NEURÈENÝ', 'NEURÈENÝ', 'NEURÈENÝ', ('NEURÈENÝ'), ('NEURÈENÝ'), ('NEURÈENÝ') ) ;
#329 = ORIENTED_EDGE ( 'NONE', *, *, #220, .T. ) ;
#330 = CIRCLE ( 'NONE', #177, 4.000000000000000000 ) ;
#331 = VERTEX_POINT ( 'NONE', #176 ) ;
#332 = CARTESIAN_POINT ( 'NONE',  ( -7.000000000000000000, 0.000000000000000000, 5.000000000000000000 ) ) ;
#333 = ORIENTED_EDGE ( 'NONE', *, *, #118, .T. ) ;
#334 = FACE_BOUND ( 'NONE', #59, .T. ) ;
#335 = DIRECTION ( 'NONE',  ( 1.000000000000000000, 0.000000000000000000, 0.000000000000000000 ) ) ;
#336 = LOCAL_TIME ( 17, 21, 58.00000000000000000, #339 ) ;
#337 = DIRECTION ( 'NONE',  ( 0.000000000000000000, -1.000000000000000000, 0.000000000000000000 ) ) ;
#338 = EDGE_CURVE ( 'NONE', #182, #94, #32, .T. ) ;
#339 = COORDINATED_UNIVERSAL_TIME_OFFSET ( 1, 0, .AHEAD. ) ;
#340 = ORIENTED_EDGE ( 'NONE', *, *, #379, .T. ) ;
#341 = EDGE_CURVE ( 'NONE', #182, #36, #266, .T. ) ;
#342 = ORIENTED_EDGE ( 'NONE', *, *, #90, .F. ) ;
#343 = APPROVAL_ROLE ( '' ) ;
#344 = FACE_BOUND ( 'NONE', #9, .T. ) ;
#345 = VECTOR ( 'NONE', #155, 1000.000000000000000 ) ;
#346 = PERSON_AND_ORGANIZATION ( #328, #313 ) ;
#347 = CARTESIAN_POINT ( 'NONE',  ( 0.000000000000000000, 0.000000000000000000, 5.000000000000000000 ) ) ;
#348 = FACE_OUTER_BOUND ( 'NONE', #236, .T. ) ;
#349 = CARTESIAN_POINT ( 'NONE',  ( 2.250000000000000000, 2.755455298081544285E-16, 755.0000000000000000 ) ) ;
#350 = APPLICATION_CONTEXT ( 'configuration controlled 3d designs of mechanical parts and assemblies' ) ;
#351 = VECTOR ( 'NONE', #380, 1000.000000000000000 ) ;
#352 = CIRCLE ( 'NONE', #85, 4.500000000000000888 ) ;
#353 = DIRECTION ( 'NONE',  ( 0.000000000000000000, 0.000000000000000000, 1.000000000000000000 ) ) ;
#354 = ADVANCED_FACE ( 'NONE', ( #240 ), #117, .T. ) ;
#355 = CARTESIAN_POINT ( 'NONE',  ( 2.250000000000000000, 2.755455298081544285E-16, 755.0000000000000000 ) ) ;
#356 = ORIENTED_EDGE ( 'NONE', *, *, #257, .F. ) ;
#357 = DIRECTION ( 'NONE',  ( -1.000000000000000000, 0.000000000000000000, 0.000000000000000000 ) ) ;
#358 = EDGE_CURVE ( 'NONE', #36, #208, #151, .T. ) ;
#359 =( NAMED_UNIT ( * ) PLANE_ANGLE_UNIT ( ) SI_UNIT ( $, .RADIAN. ) );
#360 = ORIENTED_EDGE ( 'NONE', *, *, #381, .F. ) ;
#361 = DIRECTION ( 'NONE',  ( -0.000000000000000000, -0.000000000000000000, -1.000000000000000000 ) ) ;
#362 = ORIENTED_EDGE ( 'NONE', *, *, #154, .F. ) ;
#363 = CARTESIAN_POINT ( 'NONE',  ( 0.000000000000000000, 0.000000000000000000, 0.000000000000000000 ) ) ;
#364 = EDGE_LOOP ( 'NONE', ( #210, #119, #33, #184 ) ) ;
#365 = DATE_AND_TIME ( #288, #114 ) ;
#366 = DIRECTION ( 'NONE',  ( 0.000000000000000000, 0.000000000000000000, -1.000000000000000000 ) ) ;
#367 = PERSON_AND_ORGANIZATION_ROLE ( 'classification_officer' ) ;
#368 = VERTEX_POINT ( 'NONE', #183 ) ;
#369 = APPROVAL_DATE_TIME ( #256, #76 ) ;
#370 = CIRCLE ( 'NONE', #83, 0.5000000000000004441 ) ;
#371 = DIRECTION ( 'NONE',  ( 1.000000000000000000, 0.000000000000000000, 0.000000000000000000 ) ) ;
#372 = COORDINATED_UNIVERSAL_TIME_OFFSET ( 1, 0, .AHEAD. ) ;
#373 = PERSON_AND_ORGANIZATION ( #328, #313 ) ;
#374 = DIRECTION ( 'NONE',  ( -0.000000000000000000, -0.000000000000000000, -1.000000000000000000 ) ) ;
#375 = DIRECTION ( 'NONE',  ( 0.000000000000000000, 0.000000000000000000, 1.000000000000000000 ) ) ;
#376 = FACE_OUTER_BOUND ( 'NONE', #234, .T. ) ;
#377 = CIRCLE ( 'NONE', #249, 7.000000000000000000 ) ;
#378 = CARTESIAN_POINT ( 'NONE',  ( 7.000000000000000000, 8.572527594031473190E-16, 0.000000000000000000 ) ) ;
#379 = EDGE_CURVE ( 'NONE', #208, #36, #133, .T. ) ;
#380 = DIRECTION ( 'NONE',  ( 0.000000000000000000, 0.000000000000000000, -1.000000000000000000 ) ) ;
#381 = EDGE_CURVE ( 'NONE', #248, #103, #123, .T. ) ;
ENDSEC;
END-ISO-10303-21;
