ISO-10303-21;
HEADER;
FILE_DESCRIPTION (( 'STEP AP203' ),
    '1' );
FILE_NAME ('aeca.STEP',
    '2022-07-08T15:12:48',
    ( '' ),
    ( '' ),
    'SwSTEP 2.0',
    'SolidWorks 2019',
    '' );
FILE_SCHEMA (( 'CONFIG_CONTROL_DESIGN' ));
ENDSEC;

DATA;
#1 = CARTESIAN_POINT ( 'NONE',  ( 0.000000000000000000, 0.000000000000000000, 232.0000000000000000 ) ) ;
#2 = AXIS2_PLACEMENT_3D ( 'NONE', #256, #171, #198 ) ;
#3 =( NAMED_UNIT ( * ) PLANE_ANGLE_UNIT ( ) SI_UNIT ( $, .RADIAN. ) );
#4 = EDGE_CURVE ( 'NONE', #26, #73, #127, .T. ) ;
#5 =( LENGTH_UNIT ( ) NAMED_UNIT ( * ) SI_UNIT ( .MILLI., .METRE. ) );
#6 = AXIS2_PLACEMENT_3D ( 'NONE', #298, #269, #341 ) ;
#7 = VECTOR ( 'NONE', #122, 1000.000000000000000 ) ;
#8 = MANIFOLD_SOLID_BREP ( 'Odebrat vysunutím3', #12 ) ;
#9 = CYLINDRICAL_SURFACE ( 'NONE', #209, 6.000000000000000888 ) ;
#10 = DIRECTION ( 'NONE',  ( -1.000000000000000000, 0.000000000000000000, 0.000000000000000000 ) ) ;
#11 = ORIENTED_EDGE ( 'NONE', *, *, #227, .F. ) ;
#12 = CLOSED_SHELL ( 'NONE', ( #67, #292, #30, #310, #97, #364, #128, #118, #205, #186, #18 ) ) ;
#13 = CARTESIAN_POINT ( 'NONE',  ( 6.000000000000000888, 7.347880794884120722E-16, 232.0000000000000000 ) ) ;
#14 = EDGE_LOOP ( 'NONE', ( #168, #309 ) ) ;
#15 = AXIS2_PLACEMENT_3D ( 'NONE', #281, #51, #27 ) ;
#16 = ORIENTED_EDGE ( 'NONE', *, *, #175, .T. ) ;
#17 = CC_DESIGN_APPROVAL ( #44, ( #262 ) ) ;
#18 = ADVANCED_FACE ( 'NONE', ( #305 ), #189, .F. ) ;
#19 = CARTESIAN_POINT ( 'NONE',  ( 0.000000000000000000, 0.000000000000000000, 232.0000000000000000 ) ) ;
#20 = APPROVAL_ROLE ( '' ) ;
#21 = DIRECTION ( 'NONE',  ( -0.000000000000000000, -0.000000000000000000, -1.000000000000000000 ) ) ;
#22 = EDGE_LOOP ( 'NONE', ( #239, #188, #193, #303 ) ) ;
#23 = CARTESIAN_POINT ( 'NONE',  ( 0.000000000000000000, 0.000000000000000000, 7.000000000000000000 ) ) ;
#24 = CARTESIAN_POINT ( 'NONE',  ( -10.00000000000000000, 0.000000000000000000, 7.000000000000000000 ) ) ;
#25 = CC_DESIGN_PERSON_AND_ORGANIZATION_ASSIGNMENT ( #61, #325, ( #329 ) ) ;
#26 = VERTEX_POINT ( 'NONE', #47 ) ;
#27 = DIRECTION ( 'NONE',  ( 1.000000000000000000, 0.000000000000000000, 0.000000000000000000 ) ) ;
#28 = DIRECTION ( 'NONE',  ( 1.000000000000000000, 0.000000000000000000, 0.000000000000000000 ) ) ;
#29 = ORIENTED_EDGE ( 'NONE', *, *, #146, .T. ) ;
#30 = ADVANCED_FACE ( 'NONE', ( #332 ), #9, .T. ) ;
#31 = AXIS2_PLACEMENT_3D ( 'NONE', #323, #148, #267 ) ;
#32 = COORDINATED_UNIVERSAL_TIME_OFFSET ( 1, 0, .AHEAD. ) ;
#33 = TOROIDAL_SURFACE ( 'NONE', #336, 6.500000000000000888, 0.5000000000000000000 ) ;
#34 = PERSON_AND_ORGANIZATION_ROLE ( 'design_supplier' ) ;
#35 = CIRCLE ( 'NONE', #183, 6.000000000000000888 ) ;
#36 = FACE_BOUND ( 'NONE', #203, .T. ) ;
#37 = ORIENTED_EDGE ( 'NONE', *, *, #91, .F. ) ;
#38 = LOCAL_TIME ( 17, 12, 48.00000000000000000, #373 ) ;
#39 = FACE_OUTER_BOUND ( 'NONE', #306, .T. ) ;
#40 = VERTEX_POINT ( 'NONE', #192 ) ;
#41 = CARTESIAN_POINT ( 'NONE',  ( 0.000000000000000000, 0.000000000000000000, 232.0000000000000000 ) ) ;
#42 = VERTEX_POINT ( 'NONE', #102 ) ;
#43 = CARTESIAN_POINT ( 'NONE',  ( 0.000000000000000000, 0.000000000000000000, 7.000000000000000000 ) ) ;
#44 = APPROVAL ( #136, 'NEURÈENÝ' ) ;
#45 = EDGE_LOOP ( 'NONE', ( #132, #83, #342, #319 ) ) ;
#46 = DATE_AND_TIME ( #272, #38 ) ;
#47 = CARTESIAN_POINT ( 'NONE',  ( -6.000000000000000888, 0.000000000000000000, 7.500000000000007105 ) ) ;
#48 = AXIS2_PLACEMENT_3D ( 'NONE', #147, #114, #28 ) ;
#49 = VERTEX_POINT ( 'NONE', #98 ) ;
#50 = CIRCLE ( 'NONE', #56, 6.500000000000000888 ) ;
#51 = DIRECTION ( 'NONE',  ( 0.000000000000000000, 0.000000000000000000, 1.000000000000000000 ) ) ;
#52 = DIRECTION ( 'NONE',  ( 1.000000000000000000, 0.000000000000000000, 0.000000000000000000 ) ) ;
#53 = EDGE_CURVE ( 'NONE', #42, #225, #93, .T. ) ;
#54 = DIRECTION ( 'NONE',  ( 1.000000000000000000, 0.000000000000000000, 0.000000000000000000 ) ) ;
#55 = ORIENTED_EDGE ( 'NONE', *, *, #327, .F. ) ;
#56 = AXIS2_PLACEMENT_3D ( 'NONE', #143, #222, #374 ) ;
#57 = DIRECTION ( 'NONE',  ( 0.000000000000000000, 0.000000000000000000, -1.000000000000000000 ) ) ;
#58 = VERTEX_POINT ( 'NONE', #13 ) ;
#59 = CARTESIAN_POINT ( 'NONE',  ( 0.000000000000000000, 0.000000000000000000, 7.500000000000007105 ) ) ;
#60 = DIRECTION ( 'NONE',  ( 1.000000000000000000, 0.000000000000000000, -0.000000000000000000 ) ) ;
#61 = PERSON_AND_ORGANIZATION ( #294, #70 ) ;
#62 = DIRECTION ( 'NONE',  ( 0.000000000000000000, 0.000000000000000000, 1.000000000000000000 ) ) ;
#63 = CC_DESIGN_PERSON_AND_ORGANIZATION_ASSIGNMENT ( #340, #74, ( #262 ) ) ;
#64 = PERSON_AND_ORGANIZATION ( #294, #70 ) ;
#65 = PLANE ( 'NONE',  #377 ) ;
#66 = CARTESIAN_POINT ( 'NONE',  ( 0.000000000000000000, 0.000000000000000000, 232.0000000000000000 ) ) ;
#67 = ADVANCED_FACE ( 'NONE', ( #71 ), #359, .F. ) ;
#68 = CARTESIAN_POINT ( 'NONE',  ( -6.500000000000000888, 7.960204194457796463E-16, 7.000000000000002665 ) ) ;
#69 = ORIENTED_EDGE ( 'NONE', *, *, #199, .F. ) ;
#70 = ORGANIZATION ( 'NEURÈENÝ', 'NEURÈENÝ', '' ) ;
#71 = FACE_OUTER_BOUND ( 'NONE', #297, .T. ) ;
#72 = CC_DESIGN_DATE_AND_TIME_ASSIGNMENT ( #195, #330, ( #307 ) ) ;
#73 = VERTEX_POINT ( 'NONE', #68 ) ;
#74 = PERSON_AND_ORGANIZATION_ROLE ( 'creator' ) ;
#75 = CARTESIAN_POINT ( 'NONE',  ( -10.00000000000000000, 0.000000000000000000, 7.000000000000000000 ) ) ;
#76 = EDGE_LOOP ( 'NONE', ( #113, #372, #255, #333 ) ) ;
#77 = DIRECTION ( 'NONE',  ( 1.000000000000000000, 0.000000000000000000, 0.000000000000000000 ) ) ;
#78 = EDGE_LOOP ( 'NONE', ( #362, #284 ) ) ;
#79 = CARTESIAN_POINT ( 'NONE',  ( 6.000000000000000888, 7.347880794884120722E-16, 7.500000000000007105 ) ) ;
#80 = EDGE_CURVE ( 'NONE', #100, #26, #104, .T. ) ;
#81 = CARTESIAN_POINT ( 'NONE',  ( 6.500000000000000888, 0.000000000000000000, 7.500000000000007105 ) ) ;
#82 = FACE_BOUND ( 'NONE', #190, .T. ) ;
#83 = ORIENTED_EDGE ( 'NONE', *, *, #181, .F. ) ;
#84 = CIRCLE ( 'NONE', #31, 2.500000000000000000 ) ;
#85 = CARTESIAN_POINT ( 'NONE',  ( 10.00000000000000000, 1.224646799147353256E-15, 0.000000000000000000 ) ) ;
#86 = CARTESIAN_POINT ( 'NONE',  ( 0.000000000000000000, 0.000000000000000000, 7.500000000000007105 ) ) ;
#87 = VECTOR ( 'NONE', #167, 1000.000000000000000 ) ;
#88 = PERSON_AND_ORGANIZATION_ROLE ( 'creator' ) ;
#89 = CC_DESIGN_SECURITY_CLASSIFICATION ( #307, ( #262 ) ) ;
#90 = FACE_BOUND ( 'NONE', #78, .T. ) ;
#91 = EDGE_CURVE ( 'NONE', #26, #295, #35, .T. ) ;
#92 = CARTESIAN_POINT ( 'NONE',  ( -2.500000000000000000, 0.000000000000000000, 232.0000000000000000 ) ) ;
#93 = CIRCLE ( 'NONE', #123, 10.00000000000000000 ) ;
#94 = LINE ( 'NONE', #92, #7 ) ;
#95 = TOROIDAL_SURFACE ( 'NONE', #135, 6.500000000000000888, 0.5000000000000000000 ) ;
#96 = CIRCLE ( 'NONE', #277, 6.500000000000000888 ) ;
#97 = ADVANCED_FACE ( 'NONE', ( #185 ), #302, .T. ) ;
#98 = CARTESIAN_POINT ( 'NONE',  ( -2.500000000000000000, 0.000000000000000000, 0.000000000000000000 ) ) ;
#99 = CARTESIAN_POINT ( 'NONE',  ( 0.000000000000000000, 0.000000000000000000, 0.000000000000000000 ) ) ;
#100 = VERTEX_POINT ( 'NONE', #245 ) ;
#101 = AXIS2_PLACEMENT_3D ( 'NONE', #66, #184, #293 ) ;
#102 = CARTESIAN_POINT ( 'NONE',  ( -10.00000000000000000, 0.000000000000000000, 0.000000000000000000 ) ) ;
#103 = APPROVAL_PERSON_ORGANIZATION ( #64, #280, #180 ) ;
#104 = LINE ( 'NONE', #212, #233 ) ;
#105 = DATE_TIME_ROLE ( 'creation_date' ) ;
#106 = DIRECTION ( 'NONE',  ( -0.000000000000000000, -0.000000000000000000, -1.000000000000000000 ) ) ;
#107 = SHAPE_DEFINITION_REPRESENTATION ( #273, #247 ) ;
#108 = CARTESIAN_POINT ( 'NONE',  ( 0.000000000000000000, 0.000000000000000000, 0.000000000000000000 ) ) ;
#109 = ORIENTED_EDGE ( 'NONE', *, *, #317, .F. ) ;
#110 = DIRECTION ( 'NONE',  ( -0.000000000000000000, -0.000000000000000000, -1.000000000000000000 ) ) ;
#111 = EDGE_CURVE ( 'NONE', #313, #42, #238, .T. ) ;
#112 = CC_DESIGN_APPROVAL ( #271, ( #307 ) ) ;
#113 = ORIENTED_EDGE ( 'NONE', *, *, #4, .F. ) ;
#114 = DIRECTION ( 'NONE',  ( 0.000000000000000000, 0.000000000000000000, 1.000000000000000000 ) ) ;
#115 = ORIENTED_EDGE ( 'NONE', *, *, #151, .T. ) ;
#116 = DIRECTION ( 'NONE',  ( 1.000000000000000000, 0.000000000000000000, -0.000000000000000000 ) ) ;
#117 = ORIENTED_EDGE ( 'NONE', *, *, #169, .F. ) ;
#118 = ADVANCED_FACE ( 'NONE', ( #39 ), #363, .T. ) ;
#119 = DIRECTION ( 'NONE',  ( 0.000000000000000000, -1.000000000000000000, 0.000000000000000000 ) ) ;
#120 = LOCAL_TIME ( 17, 12, 48.00000000000000000, #32 ) ;
#121 = APPLICATION_PROTOCOL_DEFINITION ( 'international standard', 'config_control_design', 1994, #312 ) ;
#122 = DIRECTION ( 'NONE',  ( 0.000000000000000000, 0.000000000000000000, -1.000000000000000000 ) ) ;
#123 = AXIS2_PLACEMENT_3D ( 'NONE', #331, #220, #162 ) ;
#124 = CARTESIAN_POINT ( 'NONE',  ( 0.000000000000000000, 0.000000000000000000, 0.000000000000000000 ) ) ;
#125 = CIRCLE ( 'NONE', #153, 2.500000000000000000 ) ;
#126 = COORDINATED_UNIVERSAL_TIME_OFFSET ( 1, 0, .AHEAD. ) ;
#127 = CIRCLE ( 'NONE', #6, 0.5000000000000004441 ) ;
#128 = ADVANCED_FACE ( 'NONE', ( #36, #158 ), #361, .F. ) ;
#129 = AXIS2_PLACEMENT_3D ( 'NONE', #1, #140, #343 ) ;
#130 = CARTESIAN_POINT ( 'NONE',  ( 0.000000000000000000, 0.000000000000000000, 7.500000000000007105 ) ) ;
#131 = DIRECTION ( 'NONE',  ( 0.000000000000000000, 0.000000000000000000, 1.000000000000000000 ) ) ;
#132 = ORIENTED_EDGE ( 'NONE', *, *, #324, .F. ) ;
#133 = DIRECTION ( 'NONE',  ( 0.000000000000000000, 0.000000000000000000, -1.000000000000000000 ) ) ;
#134 = VECTOR ( 'NONE', #308, 1000.000000000000000 ) ;
#135 = AXIS2_PLACEMENT_3D ( 'NONE', #226, #144, #176 ) ;
#136 = APPROVAL_STATUS ( 'not_yet_approved' ) ;
#137 = EDGE_LOOP ( 'NONE', ( #11, #161, #201, #375 ) ) ;
#138 = APPROVAL_DATE_TIME ( #46, #271 ) ;
#139 = EDGE_CURVE ( 'NONE', #100, #58, #322, .T. ) ;
#140 = DIRECTION ( 'NONE',  ( 0.000000000000000000, 0.000000000000000000, 1.000000000000000000 ) ) ;
#141 = VERTEX_POINT ( 'NONE', #248 ) ;
#142 = COORDINATED_UNIVERSAL_TIME_OFFSET ( 1, 0, .AHEAD. ) ;
#143 = CARTESIAN_POINT ( 'NONE',  ( 0.000000000000000000, 0.000000000000000000, 7.000000000000000000 ) ) ;
#144 = DIRECTION ( 'NONE',  ( 0.000000000000000000, 0.000000000000000000, 1.000000000000000000 ) ) ;
#145 = ORIENTED_EDGE ( 'NONE', *, *, #151, .F. ) ;
#146 = EDGE_CURVE ( 'NONE', #40, #217, #376, .T. ) ;
#147 = CARTESIAN_POINT ( 'NONE',  ( 0.000000000000000000, 0.000000000000000000, 7.000000000000000000 ) ) ;
#148 = DIRECTION ( 'NONE',  ( -0.000000000000000000, -0.000000000000000000, -1.000000000000000000 ) ) ;
#149 = LOCAL_TIME ( 17, 12, 48.00000000000000000, #268 ) ;
#150 = CARTESIAN_POINT ( 'NONE',  ( 10.00000000000000000, 1.224646799147353256E-15, 7.000000000000000000 ) ) ;
#151 = EDGE_CURVE ( 'NONE', #58, #100, #366, .T. ) ;
#152 = DIRECTION ( 'NONE',  ( -0.000000000000000000, -0.000000000000000000, -1.000000000000000000 ) ) ;
#153 = AXIS2_PLACEMENT_3D ( 'NONE', #348, #351, #229 ) ;
#154 = CALENDAR_DATE ( 2022, 8, 7 ) ;
#155 = DESIGN_CONTEXT ( 'detailed design', #312, 'design' ) ;
#156 = PRODUCT_DEFINITION ( 'NEZNÁMÝ', '', #262, #155 ) ;
#157 = AXIS2_PLACEMENT_3D ( 'NONE', #43, #338, #274 ) ;
#158 = FACE_OUTER_BOUND ( 'NONE', #223, .T. ) ;
#159 = VERTEX_POINT ( 'NONE', #200 ) ;
#160 = AXIS2_PLACEMENT_3D ( 'NONE', #86, #352, #263 ) ;
#161 = ORIENTED_EDGE ( 'NONE', *, *, #324, .T. ) ;
#162 = DIRECTION ( 'NONE',  ( 1.000000000000000000, 0.000000000000000000, 0.000000000000000000 ) ) ;
#163 = ORIENTED_EDGE ( 'NONE', *, *, #146, .F. ) ;
#164 = DIRECTION ( 'NONE',  ( -1.000000000000000000, 0.000000000000000000, 0.000000000000000000 ) ) ;
#165 = ORIENTED_EDGE ( 'NONE', *, *, #91, .T. ) ;
#166 = VECTOR ( 'NONE', #326, 1000.000000000000000 ) ;
#167 = DIRECTION ( 'NONE',  ( -0.000000000000000000, -0.000000000000000000, -1.000000000000000000 ) ) ;
#168 = ORIENTED_EDGE ( 'NONE', *, *, #181, .T. ) ;
#169 = EDGE_CURVE ( 'NONE', #295, #159, #211, .T. ) ;
#170 = CALENDAR_DATE ( 2022, 8, 7 ) ;
#171 = DIRECTION ( 'NONE',  ( 0.000000000000000000, 0.000000000000000000, 1.000000000000000000 ) ) ;
#172 = CARTESIAN_POINT ( 'NONE',  ( 0.000000000000000000, 0.000000000000000000, 7.000000000000000000 ) ) ;
#173 = APPROVAL_PERSON_ORGANIZATION ( #243, #44, #368 ) ;
#174 = CARTESIAN_POINT ( 'NONE',  ( 2.500000000000000000, 3.061616997868382648E-16, 232.0000000000000000 ) ) ;
#175 = EDGE_CURVE ( 'NONE', #339, #49, #261, .T. ) ;
#176 = DIRECTION ( 'NONE',  ( 1.000000000000000000, 0.000000000000000000, 0.000000000000000000 ) ) ;
#177 = CARTESIAN_POINT ( 'NONE',  ( 2.500000000000000000, 3.061616997868382648E-16, 0.000000000000000000 ) ) ;
#178 = EDGE_CURVE ( 'NONE', #217, #339, #380, .T. ) ;
#179 = DATE_AND_TIME ( #154, #120 ) ;
#180 = APPROVAL_ROLE ( '' ) ;
#181 = EDGE_CURVE ( 'NONE', #313, #141, #349, .T. ) ;
#182 = CIRCLE ( 'NONE', #244, 10.00000000000000000 ) ;
#183 = AXIS2_PLACEMENT_3D ( 'NONE', #130, #131, #296 ) ;
#184 = DIRECTION ( 'NONE',  ( -0.000000000000000000, -0.000000000000000000, -1.000000000000000000 ) ) ;
#185 = FACE_OUTER_BOUND ( 'NONE', #45, .T. ) ;
#186 = ADVANCED_FACE ( 'NONE', ( #228 ), #95, .F. ) ;
#187 = ORIENTED_EDGE ( 'NONE', *, *, #175, .F. ) ;
#188 = ORIENTED_EDGE ( 'NONE', *, *, #199, .T. ) ;
#189 = CYLINDRICAL_SURFACE ( 'NONE', #356, 2.500000000000000000 ) ;
#190 = EDGE_LOOP ( 'NONE', ( #163, #69 ) ) ;
#191 = APPROVAL_DATE_TIME ( #249, #44 ) ;
#192 = CARTESIAN_POINT ( 'NONE',  ( -2.500000000000000000, 0.000000000000000000, 232.0000000000000000 ) ) ;
#193 = ORIENTED_EDGE ( 'NONE', *, *, #327, .T. ) ;
#194 = CARTESIAN_POINT ( 'NONE',  ( 2.500000000000000000, 3.061616997868382648E-16, 232.0000000000000000 ) ) ;
#195 = DATE_AND_TIME ( #278, #149 ) ;
#196 = FACE_OUTER_BOUND ( 'NONE', #137, .T. ) ;
#197 = SECURITY_CLASSIFICATION_LEVEL ( 'unclassified' ) ;
#198 = DIRECTION ( 'NONE',  ( 1.000000000000000000, 0.000000000000000000, 0.000000000000000000 ) ) ;
#199 = EDGE_CURVE ( 'NONE', #217, #40, #125, .T. ) ;
#200 = CARTESIAN_POINT ( 'NONE',  ( 6.500000000000000888, 0.000000000000000000, 7.000000000000002665 ) ) ;
#201 = ORIENTED_EDGE ( 'NONE', *, *, #215, .T. ) ;
#202 = CARTESIAN_POINT ( 'NONE',  ( 0.000000000000000000, 0.000000000000000000, 7.000000000000000000 ) ) ;
#203 = EDGE_LOOP ( 'NONE', ( #259, #187 ) ) ;
#204 = CALENDAR_DATE ( 2022, 8, 7 ) ;
#205 = ADVANCED_FACE ( 'NONE', ( #82, #279 ), #371, .T. ) ;
#206 =( GEOMETRIC_REPRESENTATION_CONTEXT ( 3 ) GLOBAL_UNCERTAINTY_ASSIGNED_CONTEXT ( ( #213 ) ) GLOBAL_UNIT_ASSIGNED_CONTEXT ( ( #5, #3, #260 ) ) REPRESENTATION_CONTEXT ( 'NONE', 'WORKASPACE' ) );
#207 = FACE_OUTER_BOUND ( 'NONE', #14, .T. ) ;
#208 = PRODUCT_RELATED_PRODUCT_CATEGORY ( 'detail', '', ( #329 ) ) ;
#209 = AXIS2_PLACEMENT_3D ( 'NONE', #41, #106, #164 ) ;
#210 = MECHANICAL_CONTEXT ( 'NONE', #252, 'mechanical' ) ;
#211 = CIRCLE ( 'NONE', #290, 0.5000000000000004441 ) ;
#212 = CARTESIAN_POINT ( 'NONE',  ( -6.000000000000000888, 0.000000000000000000, 232.0000000000000000 ) ) ;
#213 = UNCERTAINTY_MEASURE_WITH_UNIT (LENGTH_MEASURE( 1.000000000000000082E-05 ), #5, 'distance_accuracy_value', 'NONE');
#214 = DIRECTION ( 'NONE',  ( 0.000000000000000000, 0.000000000000000000, 1.000000000000000000 ) ) ;
#215 = EDGE_CURVE ( 'NONE', #225, #42, #235, .T. ) ;
#216 = ORIENTED_EDGE ( 'NONE', *, *, #80, .F. ) ;
#217 = VERTEX_POINT ( 'NONE', #174 ) ;
#218 = DIRECTION ( 'NONE',  ( -0.000000000000000000, -0.000000000000000000, -1.000000000000000000 ) ) ;
#219 = ORIENTED_EDGE ( 'NONE', *, *, #139, .F. ) ;
#220 = DIRECTION ( 'NONE',  ( 0.000000000000000000, 0.000000000000000000, 1.000000000000000000 ) ) ;
#221 = ORIENTED_EDGE ( 'NONE', *, *, #139, .T. ) ;
#222 = DIRECTION ( 'NONE',  ( -0.000000000000000000, -0.000000000000000000, -1.000000000000000000 ) ) ;
#223 = EDGE_LOOP ( 'NONE', ( #251, #299 ) ) ;
#224 = DIRECTION ( 'NONE',  ( 1.000000000000000000, 0.000000000000000000, 0.000000000000000000 ) ) ;
#225 = VERTEX_POINT ( 'NONE', #85 ) ;
#226 = CARTESIAN_POINT ( 'NONE',  ( 0.000000000000000000, 0.000000000000000000, 7.500000000000007105 ) ) ;
#227 = EDGE_CURVE ( 'NONE', #141, #313, #182, .T. ) ;
#228 = FACE_OUTER_BOUND ( 'NONE', #76, .T. ) ;
#229 = DIRECTION ( 'NONE',  ( 1.000000000000000000, 0.000000000000000000, 0.000000000000000000 ) ) ;
#230 = CIRCLE ( 'NONE', #160, 6.000000000000000888 ) ;
#231 = EDGE_CURVE ( 'NONE', #159, #73, #50, .T. ) ;
#232 = CARTESIAN_POINT ( 'NONE',  ( 6.000000000000000888, 7.347880794884120722E-16, 232.0000000000000000 ) ) ;
#233 = VECTOR ( 'NONE', #218, 1000.000000000000000 ) ;
#234 = DIRECTION ( 'NONE',  ( 1.000000000000000000, 0.000000000000000000, 0.000000000000000000 ) ) ;
#235 = CIRCLE ( 'NONE', #291, 10.00000000000000000 ) ;
#236 = CC_DESIGN_PERSON_AND_ORGANIZATION_ASSIGNMENT ( #304, #378, ( #307 ) ) ;
#237 = PERSON_AND_ORGANIZATION ( #294, #70 ) ;
#238 = LINE ( 'NONE', #75, #87 ) ;
#239 = ORIENTED_EDGE ( 'NONE', *, *, #178, .F. ) ;
#240 = EDGE_LOOP ( 'NONE', ( #37, #370, #345, #117 ) ) ;
#241 = EDGE_CURVE ( 'NONE', #73, #159, #96, .T. ) ;
#242 = AXIS2_PLACEMENT_3D ( 'NONE', #108, #21, #77 ) ;
#243 = PERSON_AND_ORGANIZATION ( #294, #70 ) ;
#244 = AXIS2_PLACEMENT_3D ( 'NONE', #23, #283, #258 ) ;
#245 = CARTESIAN_POINT ( 'NONE',  ( -6.000000000000000888, 0.000000000000000000, 232.0000000000000000 ) ) ;
#246 = ORIENTED_EDGE ( 'NONE', *, *, #178, .T. ) ;
#247 = ADVANCED_BREP_SHAPE_REPRESENTATION ( 'aeca', ( #8, #350 ), #206 ) ;
#248 = CARTESIAN_POINT ( 'NONE',  ( 10.00000000000000000, 1.224646799147353256E-15, 7.000000000000000000 ) ) ;
#249 = DATE_AND_TIME ( #170, #328 ) ;
#250 = DIRECTION ( 'NONE',  ( 1.000000000000000000, 0.000000000000000000, 0.000000000000000000 ) ) ;
#251 = ORIENTED_EDGE ( 'NONE', *, *, #53, .F. ) ;
#252 = APPLICATION_CONTEXT ( 'configuration controlled 3d designs of mechanical parts and assemblies' ) ;
#253 = AXIS2_PLACEMENT_3D ( 'NONE', #172, #320, #282 ) ;
#254 = FACE_OUTER_BOUND ( 'NONE', #240, .T. ) ;
#255 = ORIENTED_EDGE ( 'NONE', *, *, #169, .T. ) ;
#256 = CARTESIAN_POINT ( 'NONE',  ( 0.000000000000000000, 0.000000000000000000, 232.0000000000000000 ) ) ;
#257 = EDGE_LOOP ( 'NONE', ( #221, #115 ) ) ;
#258 = DIRECTION ( 'NONE',  ( 1.000000000000000000, 0.000000000000000000, 0.000000000000000000 ) ) ;
#259 = ORIENTED_EDGE ( 'NONE', *, *, #381, .F. ) ;
#260 =( NAMED_UNIT ( * ) SI_UNIT ( $, .STERADIAN. ) SOLID_ANGLE_UNIT ( ) );
#261 = CIRCLE ( 'NONE', #242, 2.500000000000000000 ) ;
#262 = PRODUCT_DEFINITION_FORMATION_WITH_SPECIFIED_SOURCE ( 'LIBOVOLNÝ', '', #329, .NOT_KNOWN. ) ;
#263 = DIRECTION ( 'NONE',  ( 1.000000000000000000, 0.000000000000000000, 0.000000000000000000 ) ) ;
#264 = AXIS2_PLACEMENT_3D ( 'NONE', #99, #214, #116 ) ;
#265 = CARTESIAN_POINT ( 'NONE',  ( 0.000000000000000000, 0.000000000000000000, 7.000000000000000000 ) ) ;
#266 = APPLICATION_PROTOCOL_DEFINITION ( 'international standard', 'config_control_design', 1994, #252 ) ;
#267 = DIRECTION ( 'NONE',  ( 1.000000000000000000, 0.000000000000000000, 0.000000000000000000 ) ) ;
#268 = COORDINATED_UNIVERSAL_TIME_OFFSET ( 1, 0, .AHEAD. ) ;
#269 = DIRECTION ( 'NONE',  ( 1.224646799147353207E-16, 1.000000000000000000, -0.000000000000000000 ) ) ;
#270 = DIRECTION ( 'NONE',  ( -1.000000000000000000, 0.000000000000000000, 0.000000000000000000 ) ) ;
#271 = APPROVAL ( #276, 'NEURÈENÝ' ) ;
#272 = CALENDAR_DATE ( 2022, 8, 7 ) ;
#273 = PRODUCT_DEFINITION_SHAPE ( 'NONE', 'NONE',  #156 ) ;
#274 = DIRECTION ( 'NONE',  ( -1.000000000000000000, 0.000000000000000000, 0.000000000000000000 ) ) ;
#275 = ORIENTED_EDGE ( 'NONE', *, *, #344, .T. ) ;
#276 = APPROVAL_STATUS ( 'not_yet_approved' ) ;
#277 = AXIS2_PLACEMENT_3D ( 'NONE', #202, #110, #224 ) ;
#278 = CALENDAR_DATE ( 2022, 8, 7 ) ;
#279 = FACE_OUTER_BOUND ( 'NONE', #257, .T. ) ;
#280 = APPROVAL ( #357, 'NEURÈENÝ' ) ;
#281 = CARTESIAN_POINT ( 'NONE',  ( 0.000000000000000000, 0.000000000000000000, 232.0000000000000000 ) ) ;
#282 = DIRECTION ( 'NONE',  ( -1.000000000000000000, 0.000000000000000000, 0.000000000000000000 ) ) ;
#283 = DIRECTION ( 'NONE',  ( 0.000000000000000000, 0.000000000000000000, 1.000000000000000000 ) ) ;
#284 = ORIENTED_EDGE ( 'NONE', *, *, #241, .T. ) ;
#285 = CC_DESIGN_PERSON_AND_ORGANIZATION_ASSIGNMENT ( #321, #88, ( #156 ) ) ;
#286 = CARTESIAN_POINT ( 'NONE',  ( 0.000000000000000000, 0.000000000000000000, 0.000000000000000000 ) ) ;
#287 = VECTOR ( 'NONE', #152, 1000.000000000000000 ) ;
#288 = DIRECTION ( 'NONE',  ( 0.000000000000000000, 0.000000000000000000, 1.000000000000000000 ) ) ;
#289 = DATE_AND_TIME ( #204, #316 ) ;
#290 = AXIS2_PLACEMENT_3D ( 'NONE', #81, #119, #57 ) ;
#291 = AXIS2_PLACEMENT_3D ( 'NONE', #286, #318, #250 ) ;
#292 = ADVANCED_FACE ( 'NONE', ( #254 ), #33, .F. ) ;
#293 = DIRECTION ( 'NONE',  ( -1.000000000000000000, 0.000000000000000000, 0.000000000000000000 ) ) ;
#294 = PERSON ( 'NEURÈENÝ', 'NEURÈENÝ', 'NEURÈENÝ', ('NEURÈENÝ'), ('NEURÈENÝ'), ('NEURÈENÝ') ) ;
#295 = VERTEX_POINT ( 'NONE', #79 ) ;
#296 = DIRECTION ( 'NONE',  ( 1.000000000000000000, 0.000000000000000000, 0.000000000000000000 ) ) ;
#297 = EDGE_LOOP ( 'NONE', ( #29, #246, #16, #55 ) ) ;
#298 = CARTESIAN_POINT ( 'NONE',  ( -6.500000000000000888, 7.960204194457796463E-16, 7.500000000000007105 ) ) ;
#299 = ORIENTED_EDGE ( 'NONE', *, *, #215, .F. ) ;
#300 = AXIS2_PLACEMENT_3D ( 'NONE', #19, #334, #270 ) ;
#301 = CC_DESIGN_PERSON_AND_ORGANIZATION_ASSIGNMENT ( #237, #34, ( #262 ) ) ;
#302 = CYLINDRICAL_SURFACE ( 'NONE', #157, 10.00000000000000000 ) ;
#303 = ORIENTED_EDGE ( 'NONE', *, *, #381, .T. ) ;
#304 = PERSON_AND_ORGANIZATION ( #294, #70 ) ;
#305 = FACE_OUTER_BOUND ( 'NONE', #22, .T. ) ;
#306 = EDGE_LOOP ( 'NONE', ( #109, #219, #347, #165 ) ) ;
#307 = SECURITY_CLASSIFICATION ( '', '', #197 ) ;
#308 = DIRECTION ( 'NONE',  ( 0.000000000000000000, 0.000000000000000000, -1.000000000000000000 ) ) ;
#309 = ORIENTED_EDGE ( 'NONE', *, *, #227, .T. ) ;
#310 = ADVANCED_FACE ( 'NONE', ( #196 ), #311, .T. ) ;
#311 = CYLINDRICAL_SURFACE ( 'NONE', #253, 10.00000000000000000 ) ;
#312 = APPLICATION_CONTEXT ( 'configuration controlled 3d designs of mechanical parts and assemblies' ) ;
#313 = VERTEX_POINT ( 'NONE', #24 ) ;
#314 = DIRECTION ( 'NONE',  ( 0.000000000000000000, 0.000000000000000000, 1.000000000000000000 ) ) ;
#315 = AXIS2_PLACEMENT_3D ( 'NONE', #379, #314, #52 ) ;
#316 = LOCAL_TIME ( 17, 12, 48.00000000000000000, #126 ) ;
#317 = EDGE_CURVE ( 'NONE', #58, #295, #354, .T. ) ;
#318 = DIRECTION ( 'NONE',  ( 0.000000000000000000, 0.000000000000000000, 1.000000000000000000 ) ) ;
#319 = ORIENTED_EDGE ( 'NONE', *, *, #53, .T. ) ;
#320 = DIRECTION ( 'NONE',  ( -0.000000000000000000, -0.000000000000000000, -1.000000000000000000 ) ) ;
#321 = PERSON_AND_ORGANIZATION ( #294, #70 ) ;
#322 = CIRCLE ( 'NONE', #315, 6.000000000000000888 ) ;
#323 = CARTESIAN_POINT ( 'NONE',  ( 0.000000000000000000, 0.000000000000000000, 0.000000000000000000 ) ) ;
#324 = EDGE_CURVE ( 'NONE', #141, #225, #355, .T. ) ;
#325 = PERSON_AND_ORGANIZATION_ROLE ( 'design_owner' ) ;
#326 = DIRECTION ( 'NONE',  ( -0.000000000000000000, -0.000000000000000000, -1.000000000000000000 ) ) ;
#327 = EDGE_CURVE ( 'NONE', #40, #49, #94, .T. ) ;
#328 = LOCAL_TIME ( 17, 12, 48.00000000000000000, #142 ) ;
#329 = PRODUCT ( 'aeca', 'aeca', '', ( #210 ) ) ;
#330 = DATE_TIME_ROLE ( 'classification_date' ) ;
#331 = CARTESIAN_POINT ( 'NONE',  ( 0.000000000000000000, 0.000000000000000000, 0.000000000000000000 ) ) ;
#332 = FACE_OUTER_BOUND ( 'NONE', #335, .T. ) ;
#333 = ORIENTED_EDGE ( 'NONE', *, *, #241, .F. ) ;
#334 = DIRECTION ( 'NONE',  ( 0.000000000000000000, 0.000000000000000000, -1.000000000000000000 ) ) ;
#335 = EDGE_LOOP ( 'NONE', ( #145, #369, #275, #216 ) ) ;
#336 = AXIS2_PLACEMENT_3D ( 'NONE', #59, #346, #54 ) ;
#337 = CC_DESIGN_DATE_AND_TIME_ASSIGNMENT ( #179, #105, ( #156 ) ) ;
#338 = DIRECTION ( 'NONE',  ( -0.000000000000000000, -0.000000000000000000, -1.000000000000000000 ) ) ;
#339 = VERTEX_POINT ( 'NONE', #177 ) ;
#340 = PERSON_AND_ORGANIZATION ( #294, #70 ) ;
#341 = DIRECTION ( 'NONE',  ( -1.000000000000000000, 1.224646799147351482E-16, 0.000000000000000000 ) ) ;
#342 = ORIENTED_EDGE ( 'NONE', *, *, #111, .T. ) ;
#343 = DIRECTION ( 'NONE',  ( 1.000000000000000000, 0.000000000000000000, -0.000000000000000000 ) ) ;
#344 = EDGE_CURVE ( 'NONE', #295, #26, #230, .T. ) ;
#345 = ORIENTED_EDGE ( 'NONE', *, *, #231, .F. ) ;
#346 = DIRECTION ( 'NONE',  ( 0.000000000000000000, 0.000000000000000000, 1.000000000000000000 ) ) ;
#347 = ORIENTED_EDGE ( 'NONE', *, *, #80, .T. ) ;
#348 = CARTESIAN_POINT ( 'NONE',  ( 0.000000000000000000, 0.000000000000000000, 232.0000000000000000 ) ) ;
#349 = CIRCLE ( 'NONE', #48, 10.00000000000000000 ) ;
#350 = AXIS2_PLACEMENT_3D ( 'NONE', #124, #288, #234 ) ;
#351 = DIRECTION ( 'NONE',  ( 0.000000000000000000, 0.000000000000000000, 1.000000000000000000 ) ) ;
#352 = DIRECTION ( 'NONE',  ( 0.000000000000000000, 0.000000000000000000, 1.000000000000000000 ) ) ;
#353 = APPROVAL_DATE_TIME ( #289, #280 ) ;
#354 = LINE ( 'NONE', #232, #166 ) ;
#355 = LINE ( 'NONE', #150, #287 ) ;
#356 = AXIS2_PLACEMENT_3D ( 'NONE', #365, #133, #10 ) ;
#357 = APPROVAL_STATUS ( 'not_yet_approved' ) ;
#358 = PERSON_AND_ORGANIZATION ( #294, #70 ) ;
#359 = CYLINDRICAL_SURFACE ( 'NONE', #300, 2.500000000000000000 ) ;
#360 = APPROVAL_PERSON_ORGANIZATION ( #358, #271, #20 ) ;
#361 = PLANE ( 'NONE',  #264 ) ;
#362 = ORIENTED_EDGE ( 'NONE', *, *, #231, .T. ) ;
#363 = CYLINDRICAL_SURFACE ( 'NONE', #101, 6.000000000000000888 ) ;
#364 = ADVANCED_FACE ( 'NONE', ( #90, #207 ), #65, .T. ) ;
#365 = CARTESIAN_POINT ( 'NONE',  ( 0.000000000000000000, 0.000000000000000000, 232.0000000000000000 ) ) ;
#366 = CIRCLE ( 'NONE', #2, 6.000000000000000888 ) ;
#367 = CC_DESIGN_APPROVAL ( #280, ( #156 ) ) ;
#368 = APPROVAL_ROLE ( '' ) ;
#369 = ORIENTED_EDGE ( 'NONE', *, *, #317, .T. ) ;
#370 = ORIENTED_EDGE ( 'NONE', *, *, #4, .T. ) ;
#371 = PLANE ( 'NONE',  #129 ) ;
#372 = ORIENTED_EDGE ( 'NONE', *, *, #344, .F. ) ;
#373 = COORDINATED_UNIVERSAL_TIME_OFFSET ( 1, 0, .AHEAD. ) ;
#374 = DIRECTION ( 'NONE',  ( 1.000000000000000000, 0.000000000000000000, 0.000000000000000000 ) ) ;
#375 = ORIENTED_EDGE ( 'NONE', *, *, #111, .F. ) ;
#376 = CIRCLE ( 'NONE', #15, 2.500000000000000000 ) ;
#377 = AXIS2_PLACEMENT_3D ( 'NONE', #265, #62, #60 ) ;
#378 = PERSON_AND_ORGANIZATION_ROLE ( 'classification_officer' ) ;
#379 = CARTESIAN_POINT ( 'NONE',  ( 0.000000000000000000, 0.000000000000000000, 232.0000000000000000 ) ) ;
#380 = LINE ( 'NONE', #194, #134 ) ;
#381 = EDGE_CURVE ( 'NONE', #49, #339, #84, .T. ) ;
ENDSEC;
END-ISO-10303-21;
