ISO-10303-21;
HEADER;
FILE_DESCRIPTION (( 'STEP AP203' ),
    '1' );
FILE_NAME ('8951.STEP',
    '2022-07-08T14:56:53',
    ( '' ),
    ( '' ),
    'SwSTEP 2.0',
    'SolidWorks 2019',
    '' );
FILE_SCHEMA (( 'CONFIG_CONTROL_DESIGN' ));
ENDSEC;

DATA;
#1 = TOROIDAL_SURFACE ( 'NONE', #141, 5.500000000000000000, 0.5000000000000000000 ) ;
#2 = SECURITY_CLASSIFICATION ( '', '', #376 ) ;
#3 = DIRECTION ( 'NONE',  ( 0.000000000000000000, 0.000000000000000000, -1.000000000000000000 ) ) ;
#4 = DIRECTION ( 'NONE',  ( 0.000000000000000000, 0.000000000000000000, 1.000000000000000000 ) ) ;
#5 = APPROVAL_STATUS ( 'not_yet_approved' ) ;
#6 = CARTESIAN_POINT ( 'NONE',  ( -3.000000000000000444, 0.000000000000000000, 405.0000000000000000 ) ) ;
#7 = AXIS2_PLACEMENT_3D ( 'NONE', #273, #366, #128 ) ;
#8 = CC_DESIGN_SECURITY_CLASSIFICATION ( #2, ( #54 ) ) ;
#9 = ORIENTED_EDGE ( 'NONE', *, *, #320, .T. ) ;
#10 = EDGE_CURVE ( 'NONE', #282, #36, #30, .T. ) ;
#11 = CARTESIAN_POINT ( 'NONE',  ( 3.000000000000000444, 3.673940397442060361E-16, 405.0000000000000000 ) ) ;
#12 = CARTESIAN_POINT ( 'NONE',  ( -5.000000000000000000, 0.000000000000000000, 5.500000000000005329 ) ) ;
#13 = LINE ( 'NONE', #192, #116 ) ;
#14 = ORIENTED_EDGE ( 'NONE', *, *, #267, .T. ) ;
#15 = FACE_OUTER_BOUND ( 'NONE', #352, .T. ) ;
#16 = ADVANCED_FACE ( 'NONE', ( #275, #344 ), #77, .T. ) ;
#17 = DIRECTION ( 'NONE',  ( 1.000000000000000000, 0.000000000000000000, 0.000000000000000000 ) ) ;
#18 = ORIENTED_EDGE ( 'NONE', *, *, #53, .F. ) ;
#19 = CLOSED_SHELL ( 'NONE', ( #103, #114, #73, #238, #31, #222, #379, #56, #16, #316, #41 ) ) ;
#20 = CARTESIAN_POINT ( 'NONE',  ( 0.000000000000000000, 0.000000000000000000, 5.500000000000005329 ) ) ;
#21 = ORIENTED_EDGE ( 'NONE', *, *, #151, .F. ) ;
#22 = DIRECTION ( 'NONE',  ( 1.000000000000000000, 0.000000000000000000, 0.000000000000000000 ) ) ;
#23 = DATE_AND_TIME ( #197, #324 ) ;
#24 = ORIENTED_EDGE ( 'NONE', *, *, #325, .T. ) ;
#25 = PERSON_AND_ORGANIZATION_ROLE ( 'classification_officer' ) ;
#26 = EDGE_CURVE ( 'NONE', #236, #334, #241, .T. ) ;
#27 = DATE_AND_TIME ( #283, #285 ) ;
#28 = AXIS2_PLACEMENT_3D ( 'NONE', #130, #301, #22 ) ;
#29 = PERSON_AND_ORGANIZATION ( #158, #59 ) ;
#30 = LINE ( 'NONE', #44, #322 ) ;
#31 = ADVANCED_FACE ( 'NONE', ( #157 ), #122, .T. ) ;
#32 = AXIS2_PLACEMENT_3D ( 'NONE', #256, #4, #35 ) ;
#33 = DIRECTION ( 'NONE',  ( -1.000000000000000000, 0.000000000000000000, 0.000000000000000000 ) ) ;
#34 = DIRECTION ( 'NONE',  ( -0.000000000000000000, -0.000000000000000000, -1.000000000000000000 ) ) ;
#35 = DIRECTION ( 'NONE',  ( 1.000000000000000000, 0.000000000000000000, 0.000000000000000000 ) ) ;
#36 = VERTEX_POINT ( 'NONE', #12 ) ;
#37 = DIRECTION ( 'NONE',  ( -1.000000000000000000, 0.000000000000000000, 0.000000000000000000 ) ) ;
#38 = CARTESIAN_POINT ( 'NONE',  ( 0.000000000000000000, 0.000000000000000000, 5.000000000000000000 ) ) ;
#39 = CARTESIAN_POINT ( 'NONE',  ( 5.500000000000000000, 0.000000000000000000, 5.000000000000002665 ) ) ;
#40 = CARTESIAN_POINT ( 'NONE',  ( 0.000000000000000000, 0.000000000000000000, 5.000000000000000000 ) ) ;
#41 = ADVANCED_FACE ( 'NONE', ( #208 ), #58, .F. ) ;
#42 = CC_DESIGN_APPROVAL ( #243, ( #2 ) ) ;
#43 = DIRECTION ( 'NONE',  ( 1.000000000000000000, 0.000000000000000000, 0.000000000000000000 ) ) ;
#44 = CARTESIAN_POINT ( 'NONE',  ( -5.000000000000000000, 0.000000000000000000, 405.0000000000000000 ) ) ;
#45 = CARTESIAN_POINT ( 'NONE',  ( 0.000000000000000000, 0.000000000000000000, 5.000000000000000000 ) ) ;
#46 = EDGE_LOOP ( 'NONE', ( #307, #131, #247, #370 ) ) ;
#47 = EDGE_CURVE ( 'NONE', #89, #135, #353, .T. ) ;
#48 = DIRECTION ( 'NONE',  ( 0.000000000000000000, 0.000000000000000000, 1.000000000000000000 ) ) ;
#49 = ORIENTED_EDGE ( 'NONE', *, *, #190, .F. ) ;
#50 = ORIENTED_EDGE ( 'NONE', *, *, #287, .F. ) ;
#51 = ORIENTED_EDGE ( 'NONE', *, *, #354, .T. ) ;
#52 = COORDINATED_UNIVERSAL_TIME_OFFSET ( 1, 0, .AHEAD. ) ;
#53 = EDGE_CURVE ( 'NONE', #334, #233, #145, .T. ) ;
#54 = PRODUCT_DEFINITION_FORMATION_WITH_SPECIFIED_SOURCE ( 'LIBOVOLNÝ', '', #274, .NOT_KNOWN. ) ;
#55 = FACE_OUTER_BOUND ( 'NONE', #250, .T. ) ;
#56 = ADVANCED_FACE ( 'NONE', ( #207 ), #321, .T. ) ;
#57 = CARTESIAN_POINT ( 'NONE',  ( 0.000000000000000000, 0.000000000000000000, 405.0000000000000000 ) ) ;
#58 = CYLINDRICAL_SURFACE ( 'NONE', #296, 3.000000000000000444 ) ;
#59 = ORGANIZATION ( 'NEURÈENÝ', 'NEURÈENÝ', '' ) ;
#60 = APPLICATION_CONTEXT ( 'configuration controlled 3d designs of mechanical parts and assemblies' ) ;
#61 = CARTESIAN_POINT ( 'NONE',  ( 5.500000000000000000, 0.000000000000000000, 5.500000000000005329 ) ) ;
#62 = FACE_OUTER_BOUND ( 'NONE', #46, .T. ) ;
#63 = VECTOR ( 'NONE', #234, 1000.000000000000000 ) ;
#64 = DIRECTION ( 'NONE',  ( -0.000000000000000000, -0.000000000000000000, -1.000000000000000000 ) ) ;
#65 = CARTESIAN_POINT ( 'NONE',  ( -8.000000000000000000, 0.000000000000000000, 5.000000000000000000 ) ) ;
#66 = ORIENTED_EDGE ( 'NONE', *, *, #254, .F. ) ;
#67 = DIRECTION ( 'NONE',  ( 0.000000000000000000, 0.000000000000000000, 1.000000000000000000 ) ) ;
#68 = EDGE_LOOP ( 'NONE', ( #219, #260, #341, #120 ) ) ;
#69 = FACE_OUTER_BOUND ( 'NONE', #171, .T. ) ;
#70 = AXIS2_PLACEMENT_3D ( 'NONE', #184, #181, #230 ) ;
#71 =( GEOMETRIC_REPRESENTATION_CONTEXT ( 3 ) GLOBAL_UNCERTAINTY_ASSIGNED_CONTEXT ( ( #381 ) ) GLOBAL_UNIT_ASSIGNED_CONTEXT ( ( #253, #83, #102 ) ) REPRESENTATION_CONTEXT ( 'NONE', 'WORKASPACE' ) );
#72 = DIRECTION ( 'NONE',  ( 0.000000000000000000, 0.000000000000000000, 1.000000000000000000 ) ) ;
#73 = ADVANCED_FACE ( 'NONE', ( #326 ), #292, .T. ) ;
#74 = DIRECTION ( 'NONE',  ( -1.000000000000000000, 1.224646799147351482E-16, 0.000000000000000000 ) ) ;
#75 = EDGE_LOOP ( 'NONE', ( #195, #124, #270, #317 ) ) ;
#76 = APPROVAL_DATE_TIME ( #343, #156 ) ;
#77 = PLANE ( 'NONE',  #360 ) ;
#78 = CIRCLE ( 'NONE', #290, 3.000000000000000444 ) ;
#79 = PERSON_AND_ORGANIZATION_ROLE ( 'design_supplier' ) ;
#80 = ORIENTED_EDGE ( 'NONE', *, *, #354, .F. ) ;
#81 = APPROVAL_STATUS ( 'not_yet_approved' ) ;
#82 = AXIS2_PLACEMENT_3D ( 'NONE', #160, #48, #17 ) ;
#83 =( NAMED_UNIT ( * ) PLANE_ANGLE_UNIT ( ) SI_UNIT ( $, .RADIAN. ) );
#84 = EDGE_CURVE ( 'NONE', #186, #312, #311, .T. ) ;
#85 = ORIENTED_EDGE ( 'NONE', *, *, #123, .F. ) ;
#86 = DIRECTION ( 'NONE',  ( 1.000000000000000000, 0.000000000000000000, 0.000000000000000000 ) ) ;
#87 = CARTESIAN_POINT ( 'NONE',  ( 0.000000000000000000, 0.000000000000000000, 5.000000000000000000 ) ) ;
#88 = CARTESIAN_POINT ( 'NONE',  ( -3.000000000000000444, 0.000000000000000000, 0.000000000000000000 ) ) ;
#89 = VERTEX_POINT ( 'NONE', #182 ) ;
#90 = DIRECTION ( 'NONE',  ( -1.000000000000000000, 0.000000000000000000, 0.000000000000000000 ) ) ;
#91 = CARTESIAN_POINT ( 'NONE',  ( 5.000000000000000000, 6.123233995736766282E-16, 5.500000000000005329 ) ) ;
#92 = APPROVAL ( #251, 'NEURÈENÝ' ) ;
#93 = ORIENTED_EDGE ( 'NONE', *, *, #47, .T. ) ;
#94 = DIRECTION ( 'NONE',  ( 0.000000000000000000, 0.000000000000000000, 1.000000000000000000 ) ) ;
#95 = ORIENTED_EDGE ( 'NONE', *, *, #84, .T. ) ;
#96 = APPLICATION_CONTEXT ( 'configuration controlled 3d designs of mechanical parts and assemblies' ) ;
#97 = DIRECTION ( 'NONE',  ( 0.000000000000000000, 0.000000000000000000, 1.000000000000000000 ) ) ;
#98 = ORIENTED_EDGE ( 'NONE', *, *, #107, .F. ) ;
#99 = DIRECTION ( 'NONE',  ( 0.000000000000000000, 0.000000000000000000, 1.000000000000000000 ) ) ;
#100 = ORIENTED_EDGE ( 'NONE', *, *, #300, .F. ) ;
#101 = ORIENTED_EDGE ( 'NONE', *, *, #325, .F. ) ;
#102 =( NAMED_UNIT ( * ) SI_UNIT ( $, .STERADIAN. ) SOLID_ANGLE_UNIT ( ) );
#103 = ADVANCED_FACE ( 'NONE', ( #62 ), #121, .F. ) ;
#104 = PERSON_AND_ORGANIZATION ( #158, #59 ) ;
#105 = CARTESIAN_POINT ( 'NONE',  ( 0.000000000000000000, 0.000000000000000000, 0.000000000000000000 ) ) ;
#106 = APPROVAL_DATE_TIME ( #318, #92 ) ;
#107 = EDGE_CURVE ( 'NONE', #89, #216, #212, .T. ) ;
#108 = AXIS2_PLACEMENT_3D ( 'NONE', #38, #111, #295 ) ;
#109 = AXIS2_PLACEMENT_3D ( 'NONE', #203, #206, #199 ) ;
#110 = VERTEX_POINT ( 'NONE', #11 ) ;
#111 = DIRECTION ( 'NONE',  ( -0.000000000000000000, -0.000000000000000000, -1.000000000000000000 ) ) ;
#112 = MANIFOLD_SOLID_BREP ( 'Odebrat vysunutím3', #19 ) ;
#113 = DIRECTION ( 'NONE',  ( 1.000000000000000000, 0.000000000000000000, 0.000000000000000000 ) ) ;
#114 = ADVANCED_FACE ( 'NONE', ( #356 ), #377, .F. ) ;
#115 = APPROVAL_ROLE ( '' ) ;
#116 = VECTOR ( 'NONE', #308, 1000.000000000000000 ) ;
#117 = CIRCLE ( 'NONE', #237, 8.000000000000000000 ) ;
#118 = LINE ( 'NONE', #232, #205 ) ;
#119 = APPROVAL_PERSON_ORGANIZATION ( #349, #156, #281 ) ;
#120 = ORIENTED_EDGE ( 'NONE', *, *, #287, .T. ) ;
#121 = CYLINDRICAL_SURFACE ( 'NONE', #179, 3.000000000000000444 ) ;
#122 = CYLINDRICAL_SURFACE ( 'NONE', #108, 8.000000000000000000 ) ;
#123 = EDGE_CURVE ( 'NONE', #236, #36, #278, .T. ) ;
#124 = ORIENTED_EDGE ( 'NONE', *, *, #345, .T. ) ;
#125 = CARTESIAN_POINT ( 'NONE',  ( -5.500000000000000000, 6.735557395310442023E-16, 5.000000000000002665 ) ) ;
#126 = CIRCLE ( 'NONE', #28, 8.000000000000000000 ) ;
#127 = EDGE_LOOP ( 'NONE', ( #139, #100, #239, #14 ) ) ;
#128 = DIRECTION ( 'NONE',  ( 1.000000000000000000, 0.000000000000000000, 0.000000000000000000 ) ) ;
#129 = CC_DESIGN_PERSON_AND_ORGANIZATION_ASSIGNMENT ( #351, #25, ( #2 ) ) ;
#130 = CARTESIAN_POINT ( 'NONE',  ( 0.000000000000000000, 0.000000000000000000, 0.000000000000000000 ) ) ;
#131 = ORIENTED_EDGE ( 'NONE', *, *, #190, .T. ) ;
#132 = AXIS2_PLACEMENT_3D ( 'NONE', #57, #64, #90 ) ;
#133 = DIRECTION ( 'NONE',  ( -0.000000000000000000, -0.000000000000000000, -1.000000000000000000 ) ) ;
#134 = AXIS2_PLACEMENT_3D ( 'NONE', #333, #97, #218 ) ;
#135 = VERTEX_POINT ( 'NONE', #210 ) ;
#136 = DIRECTION ( 'NONE',  ( 1.000000000000000000, 0.000000000000000000, 0.000000000000000000 ) ) ;
#137 = ORIENTED_EDGE ( 'NONE', *, *, #174, .F. ) ;
#138 = PERSON_AND_ORGANIZATION ( #158, #59 ) ;
#139 = ORIENTED_EDGE ( 'NONE', *, *, #345, .F. ) ;
#140 = COORDINATED_UNIVERSAL_TIME_OFFSET ( 1, 0, .AHEAD. ) ;
#141 = AXIS2_PLACEMENT_3D ( 'NONE', #20, #166, #136 ) ;
#142 = CC_DESIGN_DATE_AND_TIME_ASSIGNMENT ( #27, #229, ( #2 ) ) ;
#143 = APPLICATION_PROTOCOL_DEFINITION ( 'international standard', 'config_control_design', 1994, #96 ) ;
#144 = APPLICATION_PROTOCOL_DEFINITION ( 'international standard', 'config_control_design', 1994, #60 ) ;
#145 = CIRCLE ( 'NONE', #146, 5.500000000000000000 ) ;
#146 = AXIS2_PLACEMENT_3D ( 'NONE', #235, #34, #86 ) ;
#147 = AXIS2_PLACEMENT_3D ( 'NONE', #185, #303, #164 ) ;
#148 = CC_DESIGN_APPROVAL ( #92, ( #54 ) ) ;
#149 = CARTESIAN_POINT ( 'NONE',  ( 8.000000000000000000, 9.797174393178825657E-16, 5.000000000000000000 ) ) ;
#150 = DIRECTION ( 'NONE',  ( -0.000000000000000000, -0.000000000000000000, -1.000000000000000000 ) ) ;
#151 = EDGE_CURVE ( 'NONE', #135, #242, #368, .T. ) ;
#152 = DATE_AND_TIME ( #262, #319 ) ;
#153 = DIRECTION ( 'NONE',  ( 0.000000000000000000, 0.000000000000000000, 1.000000000000000000 ) ) ;
#154 = APPROVAL_DATE_TIME ( #152, #243 ) ;
#155 = DIRECTION ( 'NONE',  ( 0.000000000000000000, 0.000000000000000000, 1.000000000000000000 ) ) ;
#156 = APPROVAL ( #81, 'NEURÈENÝ' ) ;
#157 = FACE_OUTER_BOUND ( 'NONE', #68, .T. ) ;
#158 = PERSON ( 'NEURÈENÝ', 'NEURÈENÝ', 'NEURÈENÝ', ('NEURÈENÝ'), ('NEURÈENÝ'), ('NEURÈENÝ') ) ;
#159 = DIRECTION ( 'NONE',  ( 1.000000000000000000, 0.000000000000000000, 0.000000000000000000 ) ) ;
#160 = CARTESIAN_POINT ( 'NONE',  ( 0.000000000000000000, 0.000000000000000000, 405.0000000000000000 ) ) ;
#161 = ORIENTED_EDGE ( 'NONE', *, *, #26, .T. ) ;
#162 = CARTESIAN_POINT ( 'NONE',  ( 0.000000000000000000, 0.000000000000000000, 405.0000000000000000 ) ) ;
#163 = VERTEX_POINT ( 'NONE', #259 ) ;
#164 = DIRECTION ( 'NONE',  ( -1.000000000000000000, 0.000000000000000000, 0.000000000000000000 ) ) ;
#165 = ORIENTED_EDGE ( 'NONE', *, *, #151, .T. ) ;
#166 = DIRECTION ( 'NONE',  ( 0.000000000000000000, 0.000000000000000000, 1.000000000000000000 ) ) ;
#167 = AXIS2_PLACEMENT_3D ( 'NONE', #87, #155, #255 ) ;
#168 = EDGE_LOOP ( 'NONE', ( #224, #51 ) ) ;
#169 = LOCAL_TIME ( 16, 56, 53.00000000000000000, #374 ) ;
#170 = MECHANICAL_CONTEXT ( 'NONE', #60, 'mechanical' ) ;
#171 = EDGE_LOOP ( 'NONE', ( #98, #93, #165, #137 ) ) ;
#172 = VERTEX_POINT ( 'NONE', #6 ) ;
#173 = PERSON_AND_ORGANIZATION_ROLE ( 'creator' ) ;
#174 = EDGE_CURVE ( 'NONE', #216, #242, #118, .T. ) ;
#175 = CIRCLE ( 'NONE', #268, 0.5000000000000004441 ) ;
#176 = PLANE ( 'NONE',  #246 ) ;
#177 = DESIGN_CONTEXT ( 'detailed design', #96, 'design' ) ;
#178 = DIRECTION ( 'NONE',  ( -1.000000000000000000, 0.000000000000000000, 0.000000000000000000 ) ) ;
#179 = AXIS2_PLACEMENT_3D ( 'NONE', #289, #228, #33 ) ;
#180 = LOCAL_TIME ( 16, 56, 53.00000000000000000, #140 ) ;
#181 = DIRECTION ( 'NONE',  ( 0.000000000000000000, 0.000000000000000000, 1.000000000000000000 ) ) ;
#182 = CARTESIAN_POINT ( 'NONE',  ( 8.000000000000000000, 9.797174393178825657E-16, 5.000000000000000000 ) ) ;
#183 = AXIS2_PLACEMENT_3D ( 'NONE', #328, #153, #113 ) ;
#184 = CARTESIAN_POINT ( 'NONE',  ( 0.000000000000000000, 0.000000000000000000, 0.000000000000000000 ) ) ;
#185 = CARTESIAN_POINT ( 'NONE',  ( 0.000000000000000000, 0.000000000000000000, 5.000000000000000000 ) ) ;
#186 = VERTEX_POINT ( 'NONE', #88 ) ;
#187 = CYLINDRICAL_SURFACE ( 'NONE', #147, 8.000000000000000000 ) ;
#188 = EDGE_LOOP ( 'NONE', ( #332, #101 ) ) ;
#189 = CARTESIAN_POINT ( 'NONE',  ( 0.000000000000000000, 0.000000000000000000, 405.0000000000000000 ) ) ;
#190 = EDGE_CURVE ( 'NONE', #110, #312, #369, .T. ) ;
#191 = VECTOR ( 'NONE', #248, 1000.000000000000000 ) ;
#192 = CARTESIAN_POINT ( 'NONE',  ( 5.000000000000000000, 6.123233995736766282E-16, 405.0000000000000000 ) ) ;
#193 = ORIENTED_EDGE ( 'NONE', *, *, #26, .F. ) ;
#194 = CARTESIAN_POINT ( 'NONE',  ( -8.000000000000000000, 0.000000000000000000, 0.000000000000000000 ) ) ;
#195 = ORIENTED_EDGE ( 'NONE', *, *, #257, .F. ) ;
#196 = EDGE_CURVE ( 'NONE', #172, #186, #277, .T. ) ;
#197 = CALENDAR_DATE ( 2022, 8, 7 ) ;
#198 = CARTESIAN_POINT ( 'NONE',  ( 0.000000000000000000, 0.000000000000000000, 405.0000000000000000 ) ) ;
#199 = DIRECTION ( 'NONE',  ( 1.000000000000000000, 0.000000000000000000, 0.000000000000000000 ) ) ;
#200 = ORIENTED_EDGE ( 'NONE', *, *, #84, .F. ) ;
#201 = COORDINATED_UNIVERSAL_TIME_OFFSET ( 1, 0, .AHEAD. ) ;
#202 = CC_DESIGN_PERSON_AND_ORGANIZATION_ASSIGNMENT ( #104, #79, ( #54 ) ) ;
#203 = CARTESIAN_POINT ( 'NONE',  ( 0.000000000000000000, 0.000000000000000000, 0.000000000000000000 ) ) ;
#204 = AXIS2_PLACEMENT_3D ( 'NONE', #263, #299, #178 ) ;
#205 = VECTOR ( 'NONE', #327, 1000.000000000000000 ) ;
#206 = DIRECTION ( 'NONE',  ( 0.000000000000000000, 0.000000000000000000, 1.000000000000000000 ) ) ;
#207 = FACE_OUTER_BOUND ( 'NONE', #127, .T. ) ;
#208 = FACE_OUTER_BOUND ( 'NONE', #361, .T. ) ;
#209 = AXIS2_PLACEMENT_3D ( 'NONE', #40, #67, #271 ) ;
#210 = CARTESIAN_POINT ( 'NONE',  ( 8.000000000000000000, 9.797174393178825657E-16, 0.000000000000000000 ) ) ;
#211 = DIRECTION ( 'NONE',  ( 0.000000000000000000, 0.000000000000000000, 1.000000000000000000 ) ) ;
#212 = CIRCLE ( 'NONE', #167, 8.000000000000000000 ) ;
#213 = FACE_OUTER_BOUND ( 'NONE', #214, .T. ) ;
#214 = EDGE_LOOP ( 'NONE', ( #264, #85, #161, #80 ) ) ;
#215 = CARTESIAN_POINT ( 'NONE',  ( 3.000000000000000444, 3.673940397442060361E-16, 0.000000000000000000 ) ) ;
#216 = VERTEX_POINT ( 'NONE', #65 ) ;
#217 = CARTESIAN_POINT ( 'NONE',  ( 0.000000000000000000, 0.000000000000000000, 5.000000000000000000 ) ) ;
#218 = DIRECTION ( 'NONE',  ( 1.000000000000000000, 0.000000000000000000, 0.000000000000000000 ) ) ;
#219 = ORIENTED_EDGE ( 'NONE', *, *, #47, .F. ) ;
#220 = CARTESIAN_POINT ( 'NONE',  ( -5.500000000000000000, 6.735557395310442023E-16, 5.500000000000005329 ) ) ;
#221 = PRODUCT_DEFINITION_SHAPE ( 'NONE', 'NONE',  #358 ) ;
#222 = ADVANCED_FACE ( 'NONE', ( #336, #15 ), #269, .T. ) ;
#223 = DIRECTION ( 'NONE',  ( 1.000000000000000000, 0.000000000000000000, -0.000000000000000000 ) ) ;
#224 = ORIENTED_EDGE ( 'NONE', *, *, #53, .T. ) ;
#225 = CALENDAR_DATE ( 2022, 8, 7 ) ;
#226 = PERSON_AND_ORGANIZATION ( #158, #59 ) ;
#227 = ORIENTED_EDGE ( 'NONE', *, *, #196, .T. ) ;
#228 = DIRECTION ( 'NONE',  ( 0.000000000000000000, 0.000000000000000000, -1.000000000000000000 ) ) ;
#229 = DATE_TIME_ROLE ( 'classification_date' ) ;
#230 = DIRECTION ( 'NONE',  ( 1.000000000000000000, 0.000000000000000000, 0.000000000000000000 ) ) ;
#231 = EDGE_CURVE ( 'NONE', #172, #110, #245, .T. ) ;
#232 = CARTESIAN_POINT ( 'NONE',  ( -8.000000000000000000, 0.000000000000000000, 5.000000000000000000 ) ) ;
#233 = VERTEX_POINT ( 'NONE', #125 ) ;
#234 = DIRECTION ( 'NONE',  ( -0.000000000000000000, -0.000000000000000000, -1.000000000000000000 ) ) ;
#235 = CARTESIAN_POINT ( 'NONE',  ( 0.000000000000000000, 0.000000000000000000, 5.000000000000000000 ) ) ;
#236 = VERTEX_POINT ( 'NONE', #91 ) ;
#237 = AXIS2_PLACEMENT_3D ( 'NONE', #217, #305, #43 ) ;
#238 = ADVANCED_FACE ( 'NONE', ( #69 ), #187, .T. ) ;
#239 = ORIENTED_EDGE ( 'NONE', *, *, #10, .T. ) ;
#240 = DIRECTION ( 'NONE',  ( 1.000000000000000000, 0.000000000000000000, 0.000000000000000000 ) ) ;
#241 = CIRCLE ( 'NONE', #276, 0.5000000000000004441 ) ;
#242 = VERTEX_POINT ( 'NONE', #194 ) ;
#243 = APPROVAL ( #5, 'NEURÈENÝ' ) ;
#244 = DIRECTION ( 'NONE',  ( 1.000000000000000000, 0.000000000000000000, 0.000000000000000000 ) ) ;
#245 = CIRCLE ( 'NONE', #82, 3.000000000000000444 ) ;
#246 = AXIS2_PLACEMENT_3D ( 'NONE', #105, #288, #223 ) ;
#247 = ORIENTED_EDGE ( 'NONE', *, *, #254, .T. ) ;
#248 = DIRECTION ( 'NONE',  ( 0.000000000000000000, 0.000000000000000000, -1.000000000000000000 ) ) ;
#249 = EDGE_LOOP ( 'NONE', ( #367, #309, #18, #193 ) ) ;
#250 = EDGE_LOOP ( 'NONE', ( #50, #21 ) ) ;
#251 = APPROVAL_STATUS ( 'not_yet_approved' ) ;
#252 = CC_DESIGN_DATE_AND_TIME_ASSIGNMENT ( #23, #286, ( #358 ) ) ;
#253 =( LENGTH_UNIT ( ) NAMED_UNIT ( * ) SI_UNIT ( .MILLI., .METRE. ) );
#254 = EDGE_CURVE ( 'NONE', #312, #186, #297, .T. ) ;
#255 = DIRECTION ( 'NONE',  ( 1.000000000000000000, 0.000000000000000000, 0.000000000000000000 ) ) ;
#256 = CARTESIAN_POINT ( 'NONE',  ( 0.000000000000000000, 0.000000000000000000, 5.500000000000005329 ) ) ;
#257 = EDGE_CURVE ( 'NONE', #163, #282, #362, .T. ) ;
#258 = SHAPE_DEFINITION_REPRESENTATION ( #221, #313 ) ;
#259 = CARTESIAN_POINT ( 'NONE',  ( 5.000000000000000000, 6.123233995736766282E-16, 405.0000000000000000 ) ) ;
#260 = ORIENTED_EDGE ( 'NONE', *, *, #320, .F. ) ;
#261 = VECTOR ( 'NONE', #266, 1000.000000000000000 ) ;
#262 = CALENDAR_DATE ( 2022, 8, 7 ) ;
#263 = CARTESIAN_POINT ( 'NONE',  ( 0.000000000000000000, 0.000000000000000000, 405.0000000000000000 ) ) ;
#264 = ORIENTED_EDGE ( 'NONE', *, *, #365, .F. ) ;
#265 = CARTESIAN_POINT ( 'NONE',  ( 0.000000000000000000, 0.000000000000000000, 405.0000000000000000 ) ) ;
#266 = DIRECTION ( 'NONE',  ( 0.000000000000000000, 0.000000000000000000, -1.000000000000000000 ) ) ;
#267 = EDGE_CURVE ( 'NONE', #36, #236, #329, .T. ) ;
#268 = AXIS2_PLACEMENT_3D ( 'NONE', #220, #342, #74 ) ;
#269 = PLANE ( 'NONE',  #209 ) ;
#270 = ORIENTED_EDGE ( 'NONE', *, *, #123, .T. ) ;
#271 = DIRECTION ( 'NONE',  ( 1.000000000000000000, 0.000000000000000000, -0.000000000000000000 ) ) ;
#272 = ORIENTED_EDGE ( 'NONE', *, *, #107, .T. ) ;
#273 = CARTESIAN_POINT ( 'NONE',  ( 0.000000000000000000, 0.000000000000000000, 0.000000000000000000 ) ) ;
#274 = PRODUCT ( '8951', '8951', '', ( #170 ) ) ;
#275 = FACE_BOUND ( 'NONE', #188, .T. ) ;
#276 = AXIS2_PLACEMENT_3D ( 'NONE', #61, #293, #357 ) ;
#277 = LINE ( 'NONE', #364, #191 ) ;
#278 = CIRCLE ( 'NONE', #183, 5.000000000000000000 ) ;
#279 = PERSON_AND_ORGANIZATION ( #158, #59 ) ;
#280 = ORIENTED_EDGE ( 'NONE', *, *, #257, .T. ) ;
#281 = APPROVAL_ROLE ( '' ) ;
#282 = VERTEX_POINT ( 'NONE', #310 ) ;
#283 = CALENDAR_DATE ( 2022, 8, 7 ) ;
#284 = AXIS2_PLACEMENT_3D ( 'NONE', #189, #94, #159 ) ;
#285 = LOCAL_TIME ( 16, 56, 53.00000000000000000, #52 ) ;
#286 = DATE_TIME_ROLE ( 'creation_date' ) ;
#287 = EDGE_CURVE ( 'NONE', #242, #135, #126, .T. ) ;
#288 = DIRECTION ( 'NONE',  ( 0.000000000000000000, 0.000000000000000000, 1.000000000000000000 ) ) ;
#289 = CARTESIAN_POINT ( 'NONE',  ( 0.000000000000000000, 0.000000000000000000, 405.0000000000000000 ) ) ;
#290 = AXIS2_PLACEMENT_3D ( 'NONE', #162, #72, #240 ) ;
#291 = COORDINATED_UNIVERSAL_TIME_OFFSET ( 1, 0, .AHEAD. ) ;
#292 = CYLINDRICAL_SURFACE ( 'NONE', #204, 5.000000000000000000 ) ;
#293 = DIRECTION ( 'NONE',  ( 0.000000000000000000, -1.000000000000000000, 0.000000000000000000 ) ) ;
#294 = CC_DESIGN_PERSON_AND_ORGANIZATION_ASSIGNMENT ( #226, #346, ( #54 ) ) ;
#295 = DIRECTION ( 'NONE',  ( -1.000000000000000000, 0.000000000000000000, 0.000000000000000000 ) ) ;
#296 = AXIS2_PLACEMENT_3D ( 'NONE', #265, #3, #37 ) ;
#297 = CIRCLE ( 'NONE', #7, 3.000000000000000444 ) ;
#298 = PERSON_AND_ORGANIZATION ( #158, #59 ) ;
#299 = DIRECTION ( 'NONE',  ( -0.000000000000000000, -0.000000000000000000, -1.000000000000000000 ) ) ;
#300 = EDGE_CURVE ( 'NONE', #282, #163, #338, .T. ) ;
#301 = DIRECTION ( 'NONE',  ( 0.000000000000000000, 0.000000000000000000, 1.000000000000000000 ) ) ;
#302 = EDGE_LOOP ( 'NONE', ( #375, #280 ) ) ;
#303 = DIRECTION ( 'NONE',  ( -0.000000000000000000, -0.000000000000000000, -1.000000000000000000 ) ) ;
#304 = AXIS2_PLACEMENT_3D ( 'NONE', #340, #99, #363 ) ;
#305 = DIRECTION ( 'NONE',  ( 0.000000000000000000, 0.000000000000000000, 1.000000000000000000 ) ) ;
#306 = PRODUCT_RELATED_PRODUCT_CATEGORY ( 'detail', '', ( #274 ) ) ;
#307 = ORIENTED_EDGE ( 'NONE', *, *, #231, .T. ) ;
#308 = DIRECTION ( 'NONE',  ( -0.000000000000000000, -0.000000000000000000, -1.000000000000000000 ) ) ;
#309 = ORIENTED_EDGE ( 'NONE', *, *, #365, .T. ) ;
#310 = CARTESIAN_POINT ( 'NONE',  ( -5.000000000000000000, 0.000000000000000000, 405.0000000000000000 ) ) ;
#311 = CIRCLE ( 'NONE', #350, 3.000000000000000444 ) ;
#312 = VERTEX_POINT ( 'NONE', #215 ) ;
#313 = ADVANCED_BREP_SHAPE_REPRESENTATION ( '8951', ( #112, #109 ), #71 ) ;
#314 = FACE_BOUND ( 'NONE', #315, .T. ) ;
#315 = EDGE_LOOP ( 'NONE', ( #200, #66 ) ) ;
#316 = ADVANCED_FACE ( 'NONE', ( #213 ), #1, .F. ) ;
#317 = ORIENTED_EDGE ( 'NONE', *, *, #10, .F. ) ;
#318 = DATE_AND_TIME ( #225, #169 ) ;
#319 = LOCAL_TIME ( 16, 56, 53.00000000000000000, #291 ) ;
#320 = EDGE_CURVE ( 'NONE', #216, #89, #117, .T. ) ;
#321 = CYLINDRICAL_SURFACE ( 'NONE', #132, 5.000000000000000000 ) ;
#322 = VECTOR ( 'NONE', #373, 1000.000000000000000 ) ;
#323 = DIRECTION ( 'NONE',  ( 1.000000000000000000, 0.000000000000000000, 0.000000000000000000 ) ) ;
#324 = LOCAL_TIME ( 16, 56, 53.00000000000000000, #201 ) ;
#325 = EDGE_CURVE ( 'NONE', #110, #172, #78, .T. ) ;
#326 = FACE_OUTER_BOUND ( 'NONE', #75, .T. ) ;
#327 = DIRECTION ( 'NONE',  ( -0.000000000000000000, -0.000000000000000000, -1.000000000000000000 ) ) ;
#328 = CARTESIAN_POINT ( 'NONE',  ( 0.000000000000000000, 0.000000000000000000, 5.500000000000005329 ) ) ;
#329 = CIRCLE ( 'NONE', #304, 5.000000000000000000 ) ;
#330 = APPROVAL_PERSON_ORGANIZATION ( #29, #92, #348 ) ;
#331 = CARTESIAN_POINT ( 'NONE',  ( 3.000000000000000444, 3.673940397442060361E-16, 405.0000000000000000 ) ) ;
#332 = ORIENTED_EDGE ( 'NONE', *, *, #231, .F. ) ;
#333 = CARTESIAN_POINT ( 'NONE',  ( 0.000000000000000000, 0.000000000000000000, 405.0000000000000000 ) ) ;
#334 = VERTEX_POINT ( 'NONE', #39 ) ;
#335 = CC_DESIGN_PERSON_AND_ORGANIZATION_ASSIGNMENT ( #138, #380, ( #274 ) ) ;
#336 = FACE_BOUND ( 'NONE', #168, .T. ) ;
#337 = AXIS2_PLACEMENT_3D ( 'NONE', #45, #133, #244 ) ;
#338 = CIRCLE ( 'NONE', #284, 5.000000000000000000 ) ;
#339 = CC_DESIGN_APPROVAL ( #156, ( #358 ) ) ;
#340 = CARTESIAN_POINT ( 'NONE',  ( 0.000000000000000000, 0.000000000000000000, 5.500000000000005329 ) ) ;
#341 = ORIENTED_EDGE ( 'NONE', *, *, #174, .T. ) ;
#342 = DIRECTION ( 'NONE',  ( 1.224646799147353207E-16, 1.000000000000000000, -0.000000000000000000 ) ) ;
#343 = DATE_AND_TIME ( #371, #180 ) ;
#344 = FACE_OUTER_BOUND ( 'NONE', #302, .T. ) ;
#345 = EDGE_CURVE ( 'NONE', #163, #236, #13, .T. ) ;
#346 = PERSON_AND_ORGANIZATION_ROLE ( 'creator' ) ;
#347 = CIRCLE ( 'NONE', #337, 5.500000000000000000 ) ;
#348 = APPROVAL_ROLE ( '' ) ;
#349 = PERSON_AND_ORGANIZATION ( #158, #59 ) ;
#350 = AXIS2_PLACEMENT_3D ( 'NONE', #355, #150, #323 ) ;
#351 = PERSON_AND_ORGANIZATION ( #158, #59 ) ;
#352 = EDGE_LOOP ( 'NONE', ( #9, #272 ) ) ;
#353 = LINE ( 'NONE', #149, #63 ) ;
#354 = EDGE_CURVE ( 'NONE', #233, #334, #347, .T. ) ;
#355 = CARTESIAN_POINT ( 'NONE',  ( 0.000000000000000000, 0.000000000000000000, 0.000000000000000000 ) ) ;
#356 = FACE_OUTER_BOUND ( 'NONE', #249, .T. ) ;
#357 = DIRECTION ( 'NONE',  ( 0.000000000000000000, 0.000000000000000000, -1.000000000000000000 ) ) ;
#358 = PRODUCT_DEFINITION ( 'NEZNÁMÝ', '', #54, #177 ) ;
#359 = DIRECTION ( 'NONE',  ( 1.000000000000000000, 0.000000000000000000, -0.000000000000000000 ) ) ;
#360 = AXIS2_PLACEMENT_3D ( 'NONE', #198, #211, #359 ) ;
#361 = EDGE_LOOP ( 'NONE', ( #49, #24, #227, #95 ) ) ;
#362 = CIRCLE ( 'NONE', #134, 5.000000000000000000 ) ;
#363 = DIRECTION ( 'NONE',  ( 1.000000000000000000, 0.000000000000000000, 0.000000000000000000 ) ) ;
#364 = CARTESIAN_POINT ( 'NONE',  ( -3.000000000000000444, 0.000000000000000000, 405.0000000000000000 ) ) ;
#365 = EDGE_CURVE ( 'NONE', #36, #233, #175, .T. ) ;
#366 = DIRECTION ( 'NONE',  ( -0.000000000000000000, -0.000000000000000000, -1.000000000000000000 ) ) ;
#367 = ORIENTED_EDGE ( 'NONE', *, *, #267, .F. ) ;
#368 = CIRCLE ( 'NONE', #70, 8.000000000000000000 ) ;
#369 = LINE ( 'NONE', #331, #261 ) ;
#370 = ORIENTED_EDGE ( 'NONE', *, *, #196, .F. ) ;
#371 = CALENDAR_DATE ( 2022, 8, 7 ) ;
#372 = CC_DESIGN_PERSON_AND_ORGANIZATION_ASSIGNMENT ( #279, #173, ( #358 ) ) ;
#373 = DIRECTION ( 'NONE',  ( -0.000000000000000000, -0.000000000000000000, -1.000000000000000000 ) ) ;
#374 = COORDINATED_UNIVERSAL_TIME_OFFSET ( 1, 0, .AHEAD. ) ;
#375 = ORIENTED_EDGE ( 'NONE', *, *, #300, .T. ) ;
#376 = SECURITY_CLASSIFICATION_LEVEL ( 'unclassified' ) ;
#377 = TOROIDAL_SURFACE ( 'NONE', #32, 5.500000000000000000, 0.5000000000000000000 ) ;
#378 = APPROVAL_PERSON_ORGANIZATION ( #298, #243, #115 ) ;
#379 = ADVANCED_FACE ( 'NONE', ( #314, #55 ), #176, .F. ) ;
#380 = PERSON_AND_ORGANIZATION_ROLE ( 'design_owner' ) ;
#381 = UNCERTAINTY_MEASURE_WITH_UNIT (LENGTH_MEASURE( 1.000000000000000082E-05 ), #253, 'distance_accuracy_value', 'NONE');
ENDSEC;
END-ISO-10303-21;
