ISO-10303-21;
HEADER;
FILE_DESCRIPTION (( 'STEP AP203' ),
    '1' );
FILE_NAME ('110c.STEP',
    '2022-07-08T14:39:35',
    ( '' ),
    ( '' ),
    'SwSTEP 2.0',
    'SolidWorks 2019',
    '' );
FILE_SCHEMA (( 'CONFIG_CONTROL_DESIGN' ));
ENDSEC;

DATA;
#1 = DIRECTION ( 'NONE',  ( 0.000000000000000000, 0.000000000000000000, 1.000000000000000000 ) ) ;
#2 = ADVANCED_FACE ( 'NONE', ( #360, #282 ), #337, .T. ) ;
#3 = CARTESIAN_POINT ( 'NONE',  ( -6.000000000000000888, 0.000000000000000000, 7.699999999999998401 ) ) ;
#4 = DIRECTION ( 'NONE',  ( 1.000000000000000000, 0.000000000000000000, 0.000000000000000000 ) ) ;
#5 = DATE_TIME_ROLE ( 'creation_date' ) ;
#6 = ORIENTED_EDGE ( 'NONE', *, *, #97, .F. ) ;
#7 = COORDINATED_UNIVERSAL_TIME_OFFSET ( 1, 0, .AHEAD. ) ;
#8 = ORIENTED_EDGE ( 'NONE', *, *, #110, .F. ) ;
#9 = PRODUCT_RELATED_PRODUCT_CATEGORY ( 'detail', '', ( #269 ) ) ;
#10 = VECTOR ( 'NONE', #146, 1000.000000000000000 ) ;
#11 = APPROVAL_ROLE ( '' ) ;
#12 = DIRECTION ( 'NONE',  ( 1.000000000000000000, 0.000000000000000000, -0.000000000000000000 ) ) ;
#13 = DIRECTION ( 'NONE',  ( -0.000000000000000000, -0.000000000000000000, -1.000000000000000000 ) ) ;
#14 = APPLICATION_PROTOCOL_DEFINITION ( 'international standard', 'config_control_design', 1994, #357 ) ;
#15 = EDGE_CURVE ( 'NONE', #161, #362, #248, .T. ) ;
#16 = DIRECTION ( 'NONE',  ( 1.000000000000000000, 0.000000000000000000, 0.000000000000000000 ) ) ;
#17 = AXIS2_PLACEMENT_3D ( 'NONE', #88, #206, #111 ) ;
#18 = AXIS2_PLACEMENT_3D ( 'NONE', #262, #229, #371 ) ;
#19 = DIRECTION ( 'NONE',  ( 0.000000000000000000, 0.000000000000000000, -1.000000000000000000 ) ) ;
#20 = PLANE ( 'NONE',  #373 ) ;
#21 = CARTESIAN_POINT ( 'NONE',  ( 0.000000000000000000, 0.000000000000000000, 7.000000000000000000 ) ) ;
#22 = CARTESIAN_POINT ( 'NONE',  ( 6.700000000000001066, 0.000000000000000000, 7.699999999999998401 ) ) ;
#23 = AXIS2_PLACEMENT_3D ( 'NONE', #148, #327, #124 ) ;
#24 = DIRECTION ( 'NONE',  ( 1.000000000000000000, 0.000000000000000000, 0.000000000000000000 ) ) ;
#25 = EDGE_LOOP ( 'NONE', ( #163, #304 ) ) ;
#26 = DIRECTION ( 'NONE',  ( -0.000000000000000000, -0.000000000000000000, -1.000000000000000000 ) ) ;
#27 = ORIENTED_EDGE ( 'NONE', *, *, #44, .T. ) ;
#28 = DIRECTION ( 'NONE',  ( 0.000000000000000000, 0.000000000000000000, 1.000000000000000000 ) ) ;
#29 = CIRCLE ( 'NONE', #62, 6.700000000000001066 ) ;
#30 = EDGE_LOOP ( 'NONE', ( #219, #235 ) ) ;
#31 = CIRCLE ( 'NONE', #237, 4.000000000000000000 ) ;
#32 = CARTESIAN_POINT ( 'NONE',  ( -4.000000000000000000, 0.000000000000000000, 0.000000000000000000 ) ) ;
#33 = ADVANCED_FACE ( 'NONE', ( #221, #72 ), #251, .F. ) ;
#34 = CARTESIAN_POINT ( 'NONE',  ( 0.000000000000000000, 0.000000000000000000, 0.000000000000000000 ) ) ;
#35 = FACE_OUTER_BOUND ( 'NONE', #354, .T. ) ;
#36 = CC_DESIGN_APPROVAL ( #75, ( #322 ) ) ;
#37 = PERSON_AND_ORGANIZATION ( #252, #334 ) ;
#38 = ORIENTED_EDGE ( 'NONE', *, *, #286, .F. ) ;
#39 = COORDINATED_UNIVERSAL_TIME_OFFSET ( 1, 0, .AHEAD. ) ;
#40 = ORIENTED_EDGE ( 'NONE', *, *, #353, .T. ) ;
#41 = APPROVAL_STATUS ( 'not_yet_approved' ) ;
#42 = LOCAL_TIME ( 16, 39, 35.00000000000000000, #39 ) ;
#43 = CARTESIAN_POINT ( 'NONE',  ( 0.000000000000000000, 0.000000000000000000, 132.0000000000000000 ) ) ;
#44 = EDGE_CURVE ( 'NONE', #246, #313, #198, .T. ) ;
#45 = DIRECTION ( 'NONE',  ( 0.000000000000000000, 0.000000000000000000, 1.000000000000000000 ) ) ;
#46 = ORIENTED_EDGE ( 'NONE', *, *, #102, .F. ) ;
#47 = AXIS2_PLACEMENT_3D ( 'NONE', #267, #378, #295 ) ;
#48 = CARTESIAN_POINT ( 'NONE',  ( 0.000000000000000000, 0.000000000000000000, 132.0000000000000000 ) ) ;
#49 = CARTESIAN_POINT ( 'NONE',  ( -10.00000000000000000, 0.000000000000000000, 0.000000000000000000 ) ) ;
#50 = ADVANCED_FACE ( 'NONE', ( #103 ), #339, .F. ) ;
#51 = DIRECTION ( 'NONE',  ( -0.000000000000000000, -0.000000000000000000, -1.000000000000000000 ) ) ;
#52 = ORIENTED_EDGE ( 'NONE', *, *, #15, .T. ) ;
#53 = DIRECTION ( 'NONE',  ( 0.000000000000000000, 0.000000000000000000, 1.000000000000000000 ) ) ;
#54 = ORIENTED_EDGE ( 'NONE', *, *, #369, .F. ) ;
#55 = EDGE_CURVE ( 'NONE', #74, #362, #89, .T. ) ;
#56 = LINE ( 'NONE', #149, #130 ) ;
#57 = ORIENTED_EDGE ( 'NONE', *, *, #121, .F. ) ;
#58 = CARTESIAN_POINT ( 'NONE',  ( 10.00000000000000000, 1.224646799147353256E-15, 0.000000000000000000 ) ) ;
#59 = ORIENTED_EDGE ( 'NONE', *, *, #121, .T. ) ;
#60 = FACE_OUTER_BOUND ( 'NONE', #294, .T. ) ;
#61 = EDGE_CURVE ( 'NONE', #246, #238, #136, .T. ) ;
#62 = AXIS2_PLACEMENT_3D ( 'NONE', #259, #377, #24 ) ;
#63 = SECURITY_CLASSIFICATION ( '', '', #70 ) ;
#64 = FACE_OUTER_BOUND ( 'NONE', #78, .T. ) ;
#65 = PERSON_AND_ORGANIZATION_ROLE ( 'design_supplier' ) ;
#66 = EDGE_LOOP ( 'NONE', ( #6, #38 ) ) ;
#67 = AXIS2_PLACEMENT_3D ( 'NONE', #370, #115, #287 ) ;
#68 = TOROIDAL_SURFACE ( 'NONE', #261, 6.700000000000001066, 0.6999999999999999556 ) ;
#69 = CC_DESIGN_PERSON_AND_ORGANIZATION_ASSIGNMENT ( #276, #104, ( #269 ) ) ;
#70 = SECURITY_CLASSIFICATION_LEVEL ( 'unclassified' ) ;
#71 = VERTEX_POINT ( 'NONE', #197 ) ;
#72 = FACE_OUTER_BOUND ( 'NONE', #314, .T. ) ;
#73 = MANIFOLD_SOLID_BREP ( 'Odebrat vysunutím3', #310 ) ;
#74 = VERTEX_POINT ( 'NONE', #263 ) ;
#75 = APPROVAL ( #41, 'NEURÈENÝ' ) ;
#76 = CIRCLE ( 'NONE', #67, 0.7000000000000000666 ) ;
#77 = VERTEX_POINT ( 'NONE', #175 ) ;
#78 = EDGE_LOOP ( 'NONE', ( #202, #230, #280, #210 ) ) ;
#79 = CARTESIAN_POINT ( 'NONE',  ( -4.000000000000000000, 0.000000000000000000, 132.0000000000000000 ) ) ;
#80 = CIRCLE ( 'NONE', #185, 10.00000000000000000 ) ;
#81 = CC_DESIGN_DATE_AND_TIME_ASSIGNMENT ( #168, #5, ( #165 ) ) ;
#82 = LOCAL_TIME ( 16, 39, 35.00000000000000000, #306 ) ;
#83 = DIRECTION ( 'NONE',  ( -0.000000000000000000, -0.000000000000000000, -1.000000000000000000 ) ) ;
#84 = LINE ( 'NONE', #79, #129 ) ;
#85 = ORIENTED_EDGE ( 'NONE', *, *, #234, .F. ) ;
#86 = FACE_BOUND ( 'NONE', #66, .T. ) ;
#87 = EDGE_CURVE ( 'NONE', #74, #275, #303, .T. ) ;
#88 = CARTESIAN_POINT ( 'NONE',  ( 0.000000000000000000, 0.000000000000000000, 7.000000000000000000 ) ) ;
#89 = CIRCLE ( 'NONE', #355, 6.000000000000000888 ) ;
#90 =( GEOMETRIC_REPRESENTATION_CONTEXT ( 3 ) GLOBAL_UNCERTAINTY_ASSIGNED_CONTEXT ( ( #112 ) ) GLOBAL_UNIT_ASSIGNED_CONTEXT ( ( #215, #212, #328 ) ) REPRESENTATION_CONTEXT ( 'NONE', 'WORKASPACE' ) );
#91 = ORIENTED_EDGE ( 'NONE', *, *, #87, .F. ) ;
#92 = ORIENTED_EDGE ( 'NONE', *, *, #61, .F. ) ;
#93 = CIRCLE ( 'NONE', #17, 6.700000000000001066 ) ;
#94 = CARTESIAN_POINT ( 'NONE',  ( 0.000000000000000000, 0.000000000000000000, 7.699999999999998401 ) ) ;
#95 = CYLINDRICAL_SURFACE ( 'NONE', #47, 6.000000000000000888 ) ;
#96 = EDGE_LOOP ( 'NONE', ( #232, #169, #223, #8 ) ) ;
#97 = EDGE_CURVE ( 'NONE', #195, #331, #351, .T. ) ;
#98 = PERSON_AND_ORGANIZATION ( #252, #334 ) ;
#99 = DIRECTION ( 'NONE',  ( 0.000000000000000000, 0.000000000000000000, 1.000000000000000000 ) ) ;
#100 = APPROVAL_PERSON_ORGANIZATION ( #363, #116, #245 ) ;
#101 = CARTESIAN_POINT ( 'NONE',  ( 0.000000000000000000, 0.000000000000000000, 7.000000000000000000 ) ) ;
#102 = EDGE_CURVE ( 'NONE', #167, #275, #29, .T. ) ;
#103 = FACE_OUTER_BOUND ( 'NONE', #96, .T. ) ;
#104 = PERSON_AND_ORGANIZATION_ROLE ( 'design_owner' ) ;
#105 = ORIENTED_EDGE ( 'NONE', *, *, #308, .T. ) ;
#106 = AXIS2_PLACEMENT_3D ( 'NONE', #108, #99, #335 ) ;
#107 = PERSON_AND_ORGANIZATION_ROLE ( 'creator' ) ;
#108 = CARTESIAN_POINT ( 'NONE',  ( 0.000000000000000000, 0.000000000000000000, 7.000000000000000000 ) ) ;
#109 = FACE_OUTER_BOUND ( 'NONE', #380, .T. ) ;
#110 = EDGE_CURVE ( 'NONE', #195, #350, #84, .T. ) ;
#111 = DIRECTION ( 'NONE',  ( 1.000000000000000000, 0.000000000000000000, 0.000000000000000000 ) ) ;
#112 = UNCERTAINTY_MEASURE_WITH_UNIT (LENGTH_MEASURE( 1.000000000000000082E-05 ), #215, 'distance_accuracy_value', 'NONE');
#113 = DIRECTION ( 'NONE',  ( 0.000000000000000000, 0.000000000000000000, 1.000000000000000000 ) ) ;
#114 = ORIENTED_EDGE ( 'NONE', *, *, #220, .F. ) ;
#115 = DIRECTION ( 'NONE',  ( 1.224646799147353207E-16, 1.000000000000000000, -0.000000000000000000 ) ) ;
#116 = APPROVAL ( #359, 'NEURÈENÝ' ) ;
#117 = CARTESIAN_POINT ( 'NONE',  ( 0.000000000000000000, 0.000000000000000000, 0.000000000000000000 ) ) ;
#118 = AXIS2_PLACEMENT_3D ( 'NONE', #43, #366, #196 ) ;
#119 = CIRCLE ( 'NONE', #265, 6.000000000000000888 ) ;
#120 = CARTESIAN_POINT ( 'NONE',  ( 0.000000000000000000, 0.000000000000000000, 132.0000000000000000 ) ) ;
#121 = EDGE_CURVE ( 'NONE', #362, #74, #204, .T. ) ;
#122 = CARTESIAN_POINT ( 'NONE',  ( 4.000000000000000000, 4.898587196589412829E-16, 132.0000000000000000 ) ) ;
#123 = CC_DESIGN_APPROVAL ( #151, ( #165 ) ) ;
#124 = DIRECTION ( 'NONE',  ( 1.000000000000000000, 0.000000000000000000, 0.000000000000000000 ) ) ;
#125 = PERSON_AND_ORGANIZATION ( #252, #334 ) ;
#126 = ORIENTED_EDGE ( 'NONE', *, *, #156, .F. ) ;
#127 = PERSON_AND_ORGANIZATION ( #252, #334 ) ;
#128 = ORIENTED_EDGE ( 'NONE', *, *, #142, .F. ) ;
#129 = VECTOR ( 'NONE', #315, 1000.000000000000000 ) ;
#130 = VECTOR ( 'NONE', #266, 1000.000000000000000 ) ;
#131 = EDGE_CURVE ( 'NONE', #331, #71, #172, .T. ) ;
#132 = APPROVAL_DATE_TIME ( #162, #116 ) ;
#133 = ORIENTED_EDGE ( 'NONE', *, *, #250, .F. ) ;
#134 = DIRECTION ( 'NONE',  ( 0.000000000000000000, 0.000000000000000000, 1.000000000000000000 ) ) ;
#135 = APPROVAL_ROLE ( '' ) ;
#136 = LINE ( 'NONE', #254, #260 ) ;
#137 = DIRECTION ( 'NONE',  ( 0.000000000000000000, 0.000000000000000000, 1.000000000000000000 ) ) ;
#138 = ADVANCED_FACE ( 'NONE', ( #86, #285 ), #20, .T. ) ;
#139 = DESIGN_CONTEXT ( 'detailed design', #357, 'design' ) ;
#140 = CARTESIAN_POINT ( 'NONE',  ( -6.700000000000001066, 8.205133554287267548E-16, 6.999999999999999112 ) ) ;
#141 = CYLINDRICAL_SURFACE ( 'NONE', #326, 4.000000000000000000 ) ;
#142 = EDGE_CURVE ( 'NONE', #352, #238, #80, .T. ) ;
#143 = AXIS2_PLACEMENT_3D ( 'NONE', #320, #318, #348 ) ;
#144 = CARTESIAN_POINT ( 'NONE',  ( 0.000000000000000000, 0.000000000000000000, 0.000000000000000000 ) ) ;
#145 = ORIENTED_EDGE ( 'NONE', *, *, #55, .F. ) ;
#146 = DIRECTION ( 'NONE',  ( 0.000000000000000000, 0.000000000000000000, -1.000000000000000000 ) ) ;
#147 = ADVANCED_BREP_SHAPE_REPRESENTATION ( '110c', ( #73, #374 ), #90 ) ;
#148 = CARTESIAN_POINT ( 'NONE',  ( 0.000000000000000000, 0.000000000000000000, 7.699999999999998401 ) ) ;
#149 = CARTESIAN_POINT ( 'NONE',  ( 10.00000000000000000, 1.224646799147353256E-15, 7.000000000000000000 ) ) ;
#150 = AXIS2_PLACEMENT_3D ( 'NONE', #174, #137, #343 ) ;
#151 = APPROVAL ( #217, 'NEURÈENÝ' ) ;
#152 = ORIENTED_EDGE ( 'NONE', *, *, #173, .F. ) ;
#153 = DIRECTION ( 'NONE',  ( 1.000000000000000000, 0.000000000000000000, 0.000000000000000000 ) ) ;
#154 = CYLINDRICAL_SURFACE ( 'NONE', #247, 6.000000000000000888 ) ;
#155 = PRODUCT_DEFINITION_SHAPE ( 'NONE', 'NONE',  #165 ) ;
#156 = EDGE_CURVE ( 'NONE', #77, #161, #321, .T. ) ;
#157 = CARTESIAN_POINT ( 'NONE',  ( 0.000000000000000000, 0.000000000000000000, 132.0000000000000000 ) ) ;
#158 = CIRCLE ( 'NONE', #164, 10.00000000000000000 ) ;
#159 = APPROVAL_PERSON_ORGANIZATION ( #253, #75, #11 ) ;
#160 = MECHANICAL_CONTEXT ( 'NONE', #300, 'mechanical' ) ;
#161 = VERTEX_POINT ( 'NONE', #233 ) ;
#162 = DATE_AND_TIME ( #190, #345 ) ;
#163 = ORIENTED_EDGE ( 'NONE', *, *, #369, .T. ) ;
#164 = AXIS2_PLACEMENT_3D ( 'NONE', #346, #323, #201 ) ;
#165 = PRODUCT_DEFINITION ( 'NEZNÁMÝ', '', #322, #139 ) ;
#166 = PERSON_AND_ORGANIZATION ( #252, #334 ) ;
#167 = VERTEX_POINT ( 'NONE', #140 ) ;
#168 = DATE_AND_TIME ( #249, #82 ) ;
#169 = ORIENTED_EDGE ( 'NONE', *, *, #131, .T. ) ;
#170 = FACE_OUTER_BOUND ( 'NONE', #296, .T. ) ;
#171 = CARTESIAN_POINT ( 'NONE',  ( 4.000000000000000000, 4.898587196589412829E-16, 132.0000000000000000 ) ) ;
#172 = LINE ( 'NONE', #171, #10 ) ;
#173 = EDGE_CURVE ( 'NONE', #238, #352, #158, .T. ) ;
#174 = CARTESIAN_POINT ( 'NONE',  ( 0.000000000000000000, 0.000000000000000000, 7.000000000000000000 ) ) ;
#175 = CARTESIAN_POINT ( 'NONE',  ( 6.000000000000000888, 7.347880794884120722E-16, 132.0000000000000000 ) ) ;
#176 = DIRECTION ( 'NONE',  ( -0.000000000000000000, -0.000000000000000000, -1.000000000000000000 ) ) ;
#177 = CARTESIAN_POINT ( 'NONE',  ( 0.000000000000000000, 0.000000000000000000, 7.000000000000000000 ) ) ;
#178 = ORIENTED_EDGE ( 'NONE', *, *, #220, .T. ) ;
#179 = APPLICATION_PROTOCOL_DEFINITION ( 'international standard', 'config_control_design', 1994, #300 ) ;
#180 = AXIS2_PLACEMENT_3D ( 'NONE', #144, #83, #375 ) ;
#181 = DIRECTION ( 'NONE',  ( 1.000000000000000000, 0.000000000000000000, 0.000000000000000000 ) ) ;
#182 = CC_DESIGN_PERSON_AND_ORGANIZATION_ASSIGNMENT ( #127, #192, ( #322 ) ) ;
#183 = CARTESIAN_POINT ( 'NONE',  ( 0.000000000000000000, 0.000000000000000000, 132.0000000000000000 ) ) ;
#184 = PERSON_AND_ORGANIZATION_ROLE ( 'classification_officer' ) ;
#185 = AXIS2_PLACEMENT_3D ( 'NONE', #117, #113, #288 ) ;
#186 = ORIENTED_EDGE ( 'NONE', *, *, #301, .F. ) ;
#187 = APPROVAL_PERSON_ORGANIZATION ( #37, #151, #135 ) ;
#188 = SHAPE_DEFINITION_REPRESENTATION ( #155, #147 ) ;
#189 = ORIENTED_EDGE ( 'NONE', *, *, #87, .T. ) ;
#190 = CALENDAR_DATE ( 2022, 8, 7 ) ;
#191 = DIRECTION ( 'NONE',  ( 0.000000000000000000, 0.000000000000000000, 1.000000000000000000 ) ) ;
#192 = PERSON_AND_ORGANIZATION_ROLE ( 'creator' ) ;
#193 = ORIENTED_EDGE ( 'NONE', *, *, #15, .F. ) ;
#194 = VECTOR ( 'NONE', #13, 1000.000000000000000 ) ;
#195 = VERTEX_POINT ( 'NONE', #349 ) ;
#196 = DIRECTION ( 'NONE',  ( -1.000000000000000000, 0.000000000000000000, 0.000000000000000000 ) ) ;
#197 = CARTESIAN_POINT ( 'NONE',  ( 4.000000000000000000, 4.898587196589412829E-16, 0.000000000000000000 ) ) ;
#198 = CIRCLE ( 'NONE', #106, 10.00000000000000000 ) ;
#199 = DIRECTION ( 'NONE',  ( 1.000000000000000000, 0.000000000000000000, 0.000000000000000000 ) ) ;
#200 = EDGE_CURVE ( 'NONE', #275, #167, #93, .T. ) ;
#201 = DIRECTION ( 'NONE',  ( 1.000000000000000000, 0.000000000000000000, 0.000000000000000000 ) ) ;
#202 = ORIENTED_EDGE ( 'NONE', *, *, #308, .F. ) ;
#203 = CARTESIAN_POINT ( 'NONE',  ( 0.000000000000000000, 0.000000000000000000, 132.0000000000000000 ) ) ;
#204 = CIRCLE ( 'NONE', #143, 6.000000000000000888 ) ;
#205 = VECTOR ( 'NONE', #26, 1000.000000000000000 ) ;
#206 = DIRECTION ( 'NONE',  ( -0.000000000000000000, -0.000000000000000000, -1.000000000000000000 ) ) ;
#207 = ORIENTED_EDGE ( 'NONE', *, *, #200, .F. ) ;
#208 = ADVANCED_FACE ( 'NONE', ( #170 ), #141, .F. ) ;
#209 = CARTESIAN_POINT ( 'NONE',  ( 0.000000000000000000, 0.000000000000000000, 0.000000000000000000 ) ) ;
#210 = ORIENTED_EDGE ( 'NONE', *, *, #173, .T. ) ;
#211 = LINE ( 'NONE', #270, #205 ) ;
#212 =( NAMED_UNIT ( * ) PLANE_ANGLE_UNIT ( ) SI_UNIT ( $, .RADIAN. ) );
#213 = CIRCLE ( 'NONE', #150, 10.00000000000000000 ) ;
#214 = CIRCLE ( 'NONE', #256, 4.000000000000000000 ) ;
#215 =( LENGTH_UNIT ( ) NAMED_UNIT ( * ) SI_UNIT ( .MILLI., .METRE. ) );
#216 = CYLINDRICAL_SURFACE ( 'NONE', #289, 10.00000000000000000 ) ;
#217 = APPROVAL_STATUS ( 'not_yet_approved' ) ;
#218 = AXIS2_PLACEMENT_3D ( 'NONE', #307, #134, #12 ) ;
#219 = ORIENTED_EDGE ( 'NONE', *, *, #200, .T. ) ;
#220 = EDGE_CURVE ( 'NONE', #313, #246, #213, .T. ) ;
#221 = FACE_BOUND ( 'NONE', #244, .T. ) ;
#222 = ORIENTED_EDGE ( 'NONE', *, *, #234, .T. ) ;
#223 = ORIENTED_EDGE ( 'NONE', *, *, #301, .T. ) ;
#224 = CC_DESIGN_PERSON_AND_ORGANIZATION_ASSIGNMENT ( #98, #65, ( #322 ) ) ;
#225 = AXIS2_PLACEMENT_3D ( 'NONE', #22, #291, #342 ) ;
#226 = DIRECTION ( 'NONE',  ( -0.000000000000000000, -0.000000000000000000, -1.000000000000000000 ) ) ;
#227 = CARTESIAN_POINT ( 'NONE',  ( 6.700000000000001066, 0.000000000000000000, 6.999999999999999112 ) ) ;
#228 = DIRECTION ( 'NONE',  ( -1.000000000000000000, 0.000000000000000000, 0.000000000000000000 ) ) ;
#229 = DIRECTION ( 'NONE',  ( 0.000000000000000000, 0.000000000000000000, 1.000000000000000000 ) ) ;
#230 = ORIENTED_EDGE ( 'NONE', *, *, #44, .F. ) ;
#231 = DIRECTION ( 'NONE',  ( -1.000000000000000000, 0.000000000000000000, 0.000000000000000000 ) ) ;
#232 = ORIENTED_EDGE ( 'NONE', *, *, #97, .T. ) ;
#233 = CARTESIAN_POINT ( 'NONE',  ( -6.000000000000000888, 0.000000000000000000, 132.0000000000000000 ) ) ;
#234 = EDGE_CURVE ( 'NONE', #350, #71, #236, .T. ) ;
#235 = ORIENTED_EDGE ( 'NONE', *, *, #102, .T. ) ;
#236 = CIRCLE ( 'NONE', #180, 4.000000000000000000 ) ;
#237 = AXIS2_PLACEMENT_3D ( 'NONE', #157, #1, #181 ) ;
#238 = VERTEX_POINT ( 'NONE', #49 ) ;
#239 = DIRECTION ( 'NONE',  ( -0.000000000000000000, -0.000000000000000000, -1.000000000000000000 ) ) ;
#240 = ORIENTED_EDGE ( 'NONE', *, *, #250, .T. ) ;
#241 = DIRECTION ( 'NONE',  ( -0.000000000000000000, -0.000000000000000000, -1.000000000000000000 ) ) ;
#242 = DIRECTION ( 'NONE',  ( 0.000000000000000000, 0.000000000000000000, 1.000000000000000000 ) ) ;
#243 = CALENDAR_DATE ( 2022, 8, 7 ) ;
#244 = EDGE_LOOP ( 'NONE', ( #85, #186 ) ) ;
#245 = APPROVAL_ROLE ( '' ) ;
#246 = VERTEX_POINT ( 'NONE', #257 ) ;
#247 = AXIS2_PLACEMENT_3D ( 'NONE', #183, #241, #268 ) ;
#248 = LINE ( 'NONE', #364, #194 ) ;
#249 = CALENDAR_DATE ( 2022, 8, 7 ) ;
#250 = EDGE_CURVE ( 'NONE', #362, #167, #76, .T. ) ;
#251 = PLANE ( 'NONE',  #218 ) ;
#252 = PERSON ( 'NEURÈENÝ', 'NEURÈENÝ', 'NEURÈENÝ', ('NEURÈENÝ'), ('NEURÈENÝ'), ('NEURÈENÝ') ) ;
#253 = PERSON_AND_ORGANIZATION ( #252, #334 ) ;
#254 = CARTESIAN_POINT ( 'NONE',  ( -10.00000000000000000, 0.000000000000000000, 7.000000000000000000 ) ) ;
#255 = AXIS2_PLACEMENT_3D ( 'NONE', #101, #191, #305 ) ;
#256 = AXIS2_PLACEMENT_3D ( 'NONE', #34, #239, #153 ) ;
#257 = CARTESIAN_POINT ( 'NONE',  ( -10.00000000000000000, 0.000000000000000000, 7.000000000000000000 ) ) ;
#258 = DIRECTION ( 'NONE',  ( 0.000000000000000000, 0.000000000000000000, 1.000000000000000000 ) ) ;
#259 = CARTESIAN_POINT ( 'NONE',  ( 0.000000000000000000, 0.000000000000000000, 7.000000000000000000 ) ) ;
#260 = VECTOR ( 'NONE', #226, 1000.000000000000000 ) ;
#261 = AXIS2_PLACEMENT_3D ( 'NONE', #94, #28, #4 ) ;
#262 = CARTESIAN_POINT ( 'NONE',  ( 0.000000000000000000, 0.000000000000000000, 132.0000000000000000 ) ) ;
#263 = CARTESIAN_POINT ( 'NONE',  ( 6.000000000000000888, 7.347880794884120722E-16, 7.699999999999998401 ) ) ;
#264 = CC_DESIGN_PERSON_AND_ORGANIZATION_ASSIGNMENT ( #166, #184, ( #63 ) ) ;
#265 = AXIS2_PLACEMENT_3D ( 'NONE', #120, #242, #356 ) ;
#266 = DIRECTION ( 'NONE',  ( -0.000000000000000000, -0.000000000000000000, -1.000000000000000000 ) ) ;
#267 = CARTESIAN_POINT ( 'NONE',  ( 0.000000000000000000, 0.000000000000000000, 132.0000000000000000 ) ) ;
#268 = DIRECTION ( 'NONE',  ( -1.000000000000000000, 0.000000000000000000, 0.000000000000000000 ) ) ;
#269 = PRODUCT ( '110c', '110c', '', ( #160 ) ) ;
#270 = CARTESIAN_POINT ( 'NONE',  ( 6.000000000000000888, 7.347880794884120722E-16, 132.0000000000000000 ) ) ;
#271 = LOCAL_TIME ( 16, 39, 35.00000000000000000, #274 ) ;
#272 = EDGE_LOOP ( 'NONE', ( #292, #54, #52, #59 ) ) ;
#273 = ADVANCED_FACE ( 'NONE', ( #109 ), #372, .T. ) ;
#274 = COORDINATED_UNIVERSAL_TIME_OFFSET ( 1, 0, .AHEAD. ) ;
#275 = VERTEX_POINT ( 'NONE', #227 ) ;
#276 = PERSON_AND_ORGANIZATION ( #252, #334 ) ;
#277 = ORIENTED_EDGE ( 'NONE', *, *, #55, .T. ) ;
#278 = ADVANCED_FACE ( 'NONE', ( #325 ), #95, .T. ) ;
#279 = APPROVAL_DATE_TIME ( #281, #151 ) ;
#280 = ORIENTED_EDGE ( 'NONE', *, *, #61, .T. ) ;
#281 = DATE_AND_TIME ( #243, #271 ) ;
#282 = FACE_OUTER_BOUND ( 'NONE', #324, .T. ) ;
#283 = CARTESIAN_POINT ( 'NONE',  ( 0.000000000000000000, 0.000000000000000000, 132.0000000000000000 ) ) ;
#284 = TOROIDAL_SURFACE ( 'NONE', #23, 6.700000000000001066, 0.6999999999999999556 ) ;
#285 = FACE_OUTER_BOUND ( 'NONE', #25, .T. ) ;
#286 = EDGE_CURVE ( 'NONE', #331, #195, #31, .T. ) ;
#287 = DIRECTION ( 'NONE',  ( -1.000000000000000000, 1.224646799147353454E-16, 0.000000000000000000 ) ) ;
#288 = DIRECTION ( 'NONE',  ( 1.000000000000000000, 0.000000000000000000, 0.000000000000000000 ) ) ;
#289 = AXIS2_PLACEMENT_3D ( 'NONE', #177, #176, #381 ) ;
#290 = CC_DESIGN_DATE_AND_TIME_ASSIGNMENT ( #309, #336, ( #63 ) ) ;
#291 = DIRECTION ( 'NONE',  ( 0.000000000000000000, -1.000000000000000000, 0.000000000000000000 ) ) ;
#292 = ORIENTED_EDGE ( 'NONE', *, *, #353, .F. ) ;
#293 = FACE_OUTER_BOUND ( 'NONE', #311, .T. ) ;
#294 = EDGE_LOOP ( 'NONE', ( #133, #145, #189, #46 ) ) ;
#295 = DIRECTION ( 'NONE',  ( -1.000000000000000000, 0.000000000000000000, 0.000000000000000000 ) ) ;
#296 = EDGE_LOOP ( 'NONE', ( #319, #368, #341, #222 ) ) ;
#297 = LOCAL_TIME ( 16, 39, 35.00000000000000000, #7 ) ;
#298 = ADVANCED_FACE ( 'NONE', ( #60 ), #68, .F. ) ;
#299 = CARTESIAN_POINT ( 'NONE',  ( 10.00000000000000000, 1.224646799147353256E-15, 7.000000000000000000 ) ) ;
#300 = APPLICATION_CONTEXT ( 'configuration controlled 3d designs of mechanical parts and assemblies' ) ;
#301 = EDGE_CURVE ( 'NONE', #71, #350, #214, .T. ) ;
#302 = COORDINATED_UNIVERSAL_TIME_OFFSET ( 1, 0, .AHEAD. ) ;
#303 = CIRCLE ( 'NONE', #225, 0.7000000000000000666 ) ;
#304 = ORIENTED_EDGE ( 'NONE', *, *, #156, .T. ) ;
#305 = DIRECTION ( 'NONE',  ( 1.000000000000000000, 0.000000000000000000, -0.000000000000000000 ) ) ;
#306 = COORDINATED_UNIVERSAL_TIME_OFFSET ( 1, 0, .AHEAD. ) ;
#307 = CARTESIAN_POINT ( 'NONE',  ( 0.000000000000000000, 0.000000000000000000, 0.000000000000000000 ) ) ;
#308 = EDGE_CURVE ( 'NONE', #313, #352, #56, .T. ) ;
#309 = DATE_AND_TIME ( #312, #42 ) ;
#310 = CLOSED_SHELL ( 'NONE', ( #50, #358, #347, #273, #329, #2, #33, #278, #138, #298, #208 ) ) ;
#311 = EDGE_LOOP ( 'NONE', ( #126, #40, #277, #193 ) ) ;
#312 = CALENDAR_DATE ( 2022, 8, 7 ) ;
#313 = VERTEX_POINT ( 'NONE', #299 ) ;
#314 = EDGE_LOOP ( 'NONE', ( #152, #128 ) ) ;
#315 = DIRECTION ( 'NONE',  ( 0.000000000000000000, 0.000000000000000000, -1.000000000000000000 ) ) ;
#316 = CC_DESIGN_APPROVAL ( #116, ( #63 ) ) ;
#317 = DIRECTION ( 'NONE',  ( 1.000000000000000000, 0.000000000000000000, -0.000000000000000000 ) ) ;
#318 = DIRECTION ( 'NONE',  ( 0.000000000000000000, 0.000000000000000000, 1.000000000000000000 ) ) ;
#319 = ORIENTED_EDGE ( 'NONE', *, *, #131, .F. ) ;
#320 = CARTESIAN_POINT ( 'NONE',  ( 0.000000000000000000, 0.000000000000000000, 7.699999999999998401 ) ) ;
#321 = CIRCLE ( 'NONE', #18, 6.000000000000000888 ) ;
#322 = PRODUCT_DEFINITION_FORMATION_WITH_SPECIFIED_SOURCE ( 'LIBOVOLNÝ', '', #269, .NOT_KNOWN. ) ;
#323 = DIRECTION ( 'NONE',  ( 0.000000000000000000, 0.000000000000000000, 1.000000000000000000 ) ) ;
#324 = EDGE_LOOP ( 'NONE', ( #27, #178 ) ) ;
#325 = FACE_OUTER_BOUND ( 'NONE', #272, .T. ) ;
#326 = AXIS2_PLACEMENT_3D ( 'NONE', #283, #19, #228 ) ;
#327 = DIRECTION ( 'NONE',  ( 0.000000000000000000, 0.000000000000000000, 1.000000000000000000 ) ) ;
#328 =( NAMED_UNIT ( * ) SI_UNIT ( $, .STERADIAN. ) SOLID_ANGLE_UNIT ( ) );
#329 = ADVANCED_FACE ( 'NONE', ( #64 ), #216, .T. ) ;
#330 = CALENDAR_DATE ( 2022, 8, 7 ) ;
#331 = VERTEX_POINT ( 'NONE', #122 ) ;
#332 = AXIS2_PLACEMENT_3D ( 'NONE', #21, #51, #231 ) ;
#333 = DIRECTION ( 'NONE',  ( 1.000000000000000000, 0.000000000000000000, 0.000000000000000000 ) ) ;
#334 = ORGANIZATION ( 'NEURÈENÝ', 'NEURÈENÝ', '' ) ;
#335 = DIRECTION ( 'NONE',  ( 1.000000000000000000, 0.000000000000000000, 0.000000000000000000 ) ) ;
#336 = DATE_TIME_ROLE ( 'classification_date' ) ;
#337 = PLANE ( 'NONE',  #255 ) ;
#338 = DIRECTION ( 'NONE',  ( 0.000000000000000000, 0.000000000000000000, 1.000000000000000000 ) ) ;
#339 = CYLINDRICAL_SURFACE ( 'NONE', #118, 4.000000000000000000 ) ;
#340 = CARTESIAN_POINT ( 'NONE',  ( 0.000000000000000000, 0.000000000000000000, 7.699999999999998401 ) ) ;
#341 = ORIENTED_EDGE ( 'NONE', *, *, #110, .T. ) ;
#342 = DIRECTION ( 'NONE',  ( 0.000000000000000000, 0.000000000000000000, -1.000000000000000000 ) ) ;
#343 = DIRECTION ( 'NONE',  ( 1.000000000000000000, 0.000000000000000000, 0.000000000000000000 ) ) ;
#344 = AXIS2_PLACEMENT_3D ( 'NONE', #48, #258, #199 ) ;
#345 = LOCAL_TIME ( 16, 39, 35.00000000000000000, #302 ) ;
#346 = CARTESIAN_POINT ( 'NONE',  ( 0.000000000000000000, 0.000000000000000000, 0.000000000000000000 ) ) ;
#347 = ADVANCED_FACE ( 'NONE', ( #293 ), #154, .T. ) ;
#348 = DIRECTION ( 'NONE',  ( 1.000000000000000000, 0.000000000000000000, 0.000000000000000000 ) ) ;
#349 = CARTESIAN_POINT ( 'NONE',  ( -4.000000000000000000, 0.000000000000000000, 132.0000000000000000 ) ) ;
#350 = VERTEX_POINT ( 'NONE', #32 ) ;
#351 = CIRCLE ( 'NONE', #344, 4.000000000000000000 ) ;
#352 = VERTEX_POINT ( 'NONE', #58 ) ;
#353 = EDGE_CURVE ( 'NONE', #77, #74, #211, .T. ) ;
#354 = EDGE_LOOP ( 'NONE', ( #57, #240, #207, #91 ) ) ;
#355 = AXIS2_PLACEMENT_3D ( 'NONE', #340, #45, #16 ) ;
#356 = DIRECTION ( 'NONE',  ( 1.000000000000000000, 0.000000000000000000, 0.000000000000000000 ) ) ;
#357 = APPLICATION_CONTEXT ( 'configuration controlled 3d designs of mechanical parts and assemblies' ) ;
#358 = ADVANCED_FACE ( 'NONE', ( #35 ), #284, .F. ) ;
#359 = APPROVAL_STATUS ( 'not_yet_approved' ) ;
#360 = FACE_BOUND ( 'NONE', #30, .T. ) ;
#361 = CC_DESIGN_SECURITY_CLASSIFICATION ( #63, ( #322 ) ) ;
#362 = VERTEX_POINT ( 'NONE', #3 ) ;
#363 = PERSON_AND_ORGANIZATION ( #252, #334 ) ;
#364 = CARTESIAN_POINT ( 'NONE',  ( -6.000000000000000888, 0.000000000000000000, 132.0000000000000000 ) ) ;
#365 = APPROVAL_DATE_TIME ( #367, #75 ) ;
#366 = DIRECTION ( 'NONE',  ( 0.000000000000000000, 0.000000000000000000, -1.000000000000000000 ) ) ;
#367 = DATE_AND_TIME ( #330, #297 ) ;
#368 = ORIENTED_EDGE ( 'NONE', *, *, #286, .T. ) ;
#369 = EDGE_CURVE ( 'NONE', #161, #77, #119, .T. ) ;
#370 = CARTESIAN_POINT ( 'NONE',  ( -6.700000000000001066, 8.205133554287267548E-16, 7.699999999999998401 ) ) ;
#371 = DIRECTION ( 'NONE',  ( 1.000000000000000000, 0.000000000000000000, 0.000000000000000000 ) ) ;
#372 = CYLINDRICAL_SURFACE ( 'NONE', #332, 10.00000000000000000 ) ;
#373 = AXIS2_PLACEMENT_3D ( 'NONE', #203, #53, #317 ) ;
#374 = AXIS2_PLACEMENT_3D ( 'NONE', #209, #338, #333 ) ;
#375 = DIRECTION ( 'NONE',  ( 1.000000000000000000, 0.000000000000000000, 0.000000000000000000 ) ) ;
#376 = ORIENTED_EDGE ( 'NONE', *, *, #142, .T. ) ;
#377 = DIRECTION ( 'NONE',  ( -0.000000000000000000, -0.000000000000000000, -1.000000000000000000 ) ) ;
#378 = DIRECTION ( 'NONE',  ( -0.000000000000000000, -0.000000000000000000, -1.000000000000000000 ) ) ;
#379 = CC_DESIGN_PERSON_AND_ORGANIZATION_ASSIGNMENT ( #125, #107, ( #165 ) ) ;
#380 = EDGE_LOOP ( 'NONE', ( #114, #105, #376, #92 ) ) ;
#381 = DIRECTION ( 'NONE',  ( -1.000000000000000000, 0.000000000000000000, 0.000000000000000000 ) ) ;
ENDSEC;
END-ISO-10303-21;
