ISO-10303-21;
HEADER;
FILE_DESCRIPTION (( 'STEP AP203' ),
    '1' );
FILE_NAME ('2f1c.STEP',
    '2022-07-08T15:46:17',
    ( '' ),
    ( '' ),
    'SwSTEP 2.0',
    'SolidWorks 2019',
    '' );
FILE_SCHEMA (( 'CONFIG_CONTROL_DESIGN' ));
ENDSEC;

DATA;
#1 = EDGE_CURVE ( 'NONE', #118, #339, #134, .T. ) ;
#2 = APPROVAL_PERSON_ORGANIZATION ( #324, #272, #47 ) ;
#3 = CARTESIAN_POINT ( 'NONE',  ( 0.000000000000000000, 0.000000000000000000, 503.0000000000000000 ) ) ;
#4 = VECTOR ( 'NONE', #142, 1000.000000000000000 ) ;
#5 = DIRECTION ( 'NONE',  ( -0.000000000000000000, -0.000000000000000000, -1.000000000000000000 ) ) ;
#6 = EDGE_LOOP ( 'NONE', ( #229, #240, #73, #119 ) ) ;
#7 = EDGE_CURVE ( 'NONE', #118, #189, #187, .T. ) ;
#8 = APPROVAL_PERSON_ORGANIZATION ( #99, #54, #18 ) ;
#9 = PERSON_AND_ORGANIZATION ( #276, #242 ) ;
#10 = CARTESIAN_POINT ( 'NONE',  ( 1.250000000000000000, 1.530808498934191571E-16, 503.0000000000000000 ) ) ;
#11 = ORIENTED_EDGE ( 'NONE', *, *, #15, .T. ) ;
#12 = ORIENTED_EDGE ( 'NONE', *, *, #48, .T. ) ;
#13 = DIRECTION ( 'NONE',  ( -1.000000000000000000, 0.000000000000000000, 0.000000000000000000 ) ) ;
#14 = LINE ( 'NONE', #161, #141 ) ;
#15 = EDGE_CURVE ( 'NONE', #148, #191, #112, .T. ) ;
#16 = CARTESIAN_POINT ( 'NONE',  ( 0.000000000000000000, 0.000000000000000000, 3.300000000000025135 ) ) ;
#17 =( GEOMETRIC_REPRESENTATION_CONTEXT ( 3 ) GLOBAL_UNCERTAINTY_ASSIGNED_CONTEXT ( ( #71 ) ) GLOBAL_UNIT_ASSIGNED_CONTEXT ( ( #308, #277, #344 ) ) REPRESENTATION_CONTEXT ( 'NONE', 'WORKASPACE' ) );
#18 = APPROVAL_ROLE ( '' ) ;
#19 = COORDINATED_UNIVERSAL_TIME_OFFSET ( 1, 0, .AHEAD. ) ;
#20 = CARTESIAN_POINT ( 'NONE',  ( 0.000000000000000000, 0.000000000000000000, 0.000000000000000000 ) ) ;
#21 = DATE_AND_TIME ( #180, #167 ) ;
#22 = DIRECTION ( 'NONE',  ( -1.000000000000000000, 0.000000000000000000, 0.000000000000000000 ) ) ;
#23 = TOROIDAL_SURFACE ( 'NONE', #248, 2.799999999999999822, 0.2999999999999999889 ) ;
#24 = CARTESIAN_POINT ( 'NONE',  ( -1.250000000000000000, 0.000000000000000000, 0.000000000000000000 ) ) ;
#25 = EDGE_CURVE ( 'NONE', #156, #339, #14, .T. ) ;
#26 = EDGE_LOOP ( 'NONE', ( #243, #201, #271, #334 ) ) ;
#27 = CYLINDRICAL_SURFACE ( 'NONE', #354, 1.250000000000000000 ) ;
#28 = VERTEX_POINT ( 'NONE', #10 ) ;
#29 = DIRECTION ( 'NONE',  ( -0.000000000000000000, -0.000000000000000000, -1.000000000000000000 ) ) ;
#30 = EDGE_LOOP ( 'NONE', ( #32, #56, #337, #301 ) ) ;
#31 = CARTESIAN_POINT ( 'NONE',  ( -5.000000000000000000, 0.000000000000000000, 3.000000000000000000 ) ) ;
#32 = ORIENTED_EDGE ( 'NONE', *, *, #1, .F. ) ;
#33 = VECTOR ( 'NONE', #5, 1000.000000000000000 ) ;
#34 = DIRECTION ( 'NONE',  ( 1.000000000000000000, 0.000000000000000000, 0.000000000000000000 ) ) ;
#35 = AXIS2_PLACEMENT_3D ( 'NONE', #88, #246, #364 ) ;
#36 = DIRECTION ( 'NONE',  ( 1.000000000000000000, 0.000000000000000000, -0.000000000000000000 ) ) ;
#37 = EDGE_CURVE ( 'NONE', #28, #360, #127, .T. ) ;
#38 = ORIENTED_EDGE ( 'NONE', *, *, #93, .F. ) ;
#39 = CARTESIAN_POINT ( 'NONE',  ( 0.000000000000000000, 0.000000000000000000, 3.000000000000000000 ) ) ;
#40 = VECTOR ( 'NONE', #224, 1000.000000000000000 ) ;
#41 = ORIENTED_EDGE ( 'NONE', *, *, #366, .F. ) ;
#42 = ADVANCED_FACE ( 'NONE', ( #225, #250 ), #72, .T. ) ;
#43 = FACE_OUTER_BOUND ( 'NONE', #6, .T. ) ;
#44 = CIRCLE ( 'NONE', #74, 2.500000000000000000 ) ;
#45 = DATE_AND_TIME ( #210, #279 ) ;
#46 = CARTESIAN_POINT ( 'NONE',  ( 0.000000000000000000, 0.000000000000000000, 503.0000000000000000 ) ) ;
#47 = APPROVAL_ROLE ( '' ) ;
#48 = EDGE_CURVE ( 'NONE', #191, #195, #345, .T. ) ;
#49 = CARTESIAN_POINT ( 'NONE',  ( -5.000000000000000000, 0.000000000000000000, 3.000000000000000000 ) ) ;
#50 = DATE_TIME_ROLE ( 'creation_date' ) ;
#51 = CARTESIAN_POINT ( 'NONE',  ( 0.000000000000000000, 0.000000000000000000, 503.0000000000000000 ) ) ;
#52 = AXIS2_PLACEMENT_3D ( 'NONE', #3, #244, #53 ) ;
#53 = DIRECTION ( 'NONE',  ( 1.000000000000000000, 0.000000000000000000, 0.000000000000000000 ) ) ;
#54 = APPROVAL ( #226, 'NEURÈENÝ' ) ;
#55 = CARTESIAN_POINT ( 'NONE',  ( 0.000000000000000000, 0.000000000000000000, 3.000000000000000000 ) ) ;
#56 = ORIENTED_EDGE ( 'NONE', *, *, #7, .T. ) ;
#57 = CLOSED_SHELL ( 'NONE', ( #328, #133, #256, #351, #281, #69, #228, #120, #42, #144, #83 ) ) ;
#58 = DIRECTION ( 'NONE',  ( 0.000000000000000000, -1.000000000000000000, 0.000000000000000000 ) ) ;
#59 = ORIENTED_EDGE ( 'NONE', *, *, #159, .T. ) ;
#60 = CC_DESIGN_APPROVAL ( #304, ( #335 ) ) ;
#61 = DIRECTION ( 'NONE',  ( 0.000000000000000000, 0.000000000000000000, 1.000000000000000000 ) ) ;
#62 = CARTESIAN_POINT ( 'NONE',  ( 0.000000000000000000, 0.000000000000000000, 0.000000000000000000 ) ) ;
#63 = EDGE_CURVE ( 'NONE', #64, #156, #346, .T. ) ;
#64 = VERTEX_POINT ( 'NONE', #164 ) ;
#65 = EDGE_LOOP ( 'NONE', ( #171, #247 ) ) ;
#66 = CARTESIAN_POINT ( 'NONE',  ( 1.250000000000000000, 1.530808498934191571E-16, 0.000000000000000000 ) ) ;
#67 = AXIS2_PLACEMENT_3D ( 'NONE', #376, #262, #358 ) ;
#68 = VERTEX_POINT ( 'NONE', #254 ) ;
#69 = ADVANCED_FACE ( 'NONE', ( #101, #200 ), #313, .T. ) ;
#70 = EDGE_LOOP ( 'NONE', ( #154, #158 ) ) ;
#71 = UNCERTAINTY_MEASURE_WITH_UNIT (LENGTH_MEASURE( 1.000000000000000082E-05 ), #308, 'distance_accuracy_value', 'NONE');
#72 = PLANE ( 'NONE',  #173 ) ;
#73 = ORIENTED_EDGE ( 'NONE', *, *, #204, .T. ) ;
#74 = AXIS2_PLACEMENT_3D ( 'NONE', #51, #183, #293 ) ;
#75 = EDGE_LOOP ( 'NONE', ( #59, #216 ) ) ;
#76 = APPROVAL_DATE_TIME ( #236, #54 ) ;
#77 = FACE_OUTER_BOUND ( 'NONE', #297, .T. ) ;
#78 = CC_DESIGN_PERSON_AND_ORGANIZATION_ASSIGNMENT ( #292, #206, ( #335 ) ) ;
#79 = DIRECTION ( 'NONE',  ( 1.000000000000000000, 0.000000000000000000, 0.000000000000000000 ) ) ;
#80 = FACE_OUTER_BOUND ( 'NONE', #30, .T. ) ;
#81 = AXIS2_PLACEMENT_3D ( 'NONE', #100, #227, #309 ) ;
#82 = FACE_OUTER_BOUND ( 'NONE', #96, .T. ) ;
#83 = ADVANCED_FACE ( 'NONE', ( #77 ), #140, .F. ) ;
#84 = AXIS2_PLACEMENT_3D ( 'NONE', #166, #221, #13 ) ;
#85 = CARTESIAN_POINT ( 'NONE',  ( 2.799999999999999822, 0.000000000000000000, 3.000000000000012434 ) ) ;
#86 = ORIENTED_EDGE ( 'NONE', *, *, #93, .T. ) ;
#87 = PRODUCT_DEFINITION_SHAPE ( 'NONE', 'NONE',  #361 ) ;
#88 = CARTESIAN_POINT ( 'NONE',  ( 0.000000000000000000, 0.000000000000000000, 3.000000000000000000 ) ) ;
#89 = ORIENTED_EDGE ( 'NONE', *, *, #139, .T. ) ;
#90 = APPLICATION_CONTEXT ( 'configuration controlled 3d designs of mechanical parts and assemblies' ) ;
#91 = DIRECTION ( 'NONE',  ( -1.000000000000000000, 0.000000000000000000, 0.000000000000000000 ) ) ;
#92 = ORIENTED_EDGE ( 'NONE', *, *, #175, .F. ) ;
#93 = EDGE_CURVE ( 'NONE', #129, #102, #143, .T. ) ;
#94 = CC_DESIGN_APPROVAL ( #54, ( #361 ) ) ;
#95 = CARTESIAN_POINT ( 'NONE',  ( 0.000000000000000000, 0.000000000000000000, 503.0000000000000000 ) ) ;
#96 = EDGE_LOOP ( 'NONE', ( #373, #299, #132, #315 ) ) ;
#97 = MECHANICAL_CONTEXT ( 'NONE', #90, 'mechanical' ) ;
#98 = EDGE_LOOP ( 'NONE', ( #234, #307 ) ) ;
#99 = PERSON_AND_ORGANIZATION ( #276, #242 ) ;
#100 = CARTESIAN_POINT ( 'NONE',  ( 0.000000000000000000, 0.000000000000000000, 503.0000000000000000 ) ) ;
#101 = FACE_BOUND ( 'NONE', #75, .T. ) ;
#102 = VERTEX_POINT ( 'NONE', #24 ) ;
#103 = AXIS2_PLACEMENT_3D ( 'NONE', #62, #192, #302 ) ;
#104 = DIRECTION ( 'NONE',  ( 1.000000000000000000, 0.000000000000000000, 0.000000000000000000 ) ) ;
#105 = DATE_AND_TIME ( #321, #177 ) ;
#106 = CARTESIAN_POINT ( 'NONE',  ( -2.500000000000000000, 0.000000000000000000, 3.300000000000025135 ) ) ;
#107 = PERSON_AND_ORGANIZATION ( #276, #242 ) ;
#108 = AXIS2_PLACEMENT_3D ( 'NONE', #146, #211, #137 ) ;
#109 = CIRCLE ( 'NONE', #130, 5.000000000000000000 ) ;
#110 = DIRECTION ( 'NONE',  ( 1.000000000000000000, 0.000000000000000000, 0.000000000000000000 ) ) ;
#111 = DIRECTION ( 'NONE',  ( 0.000000000000000000, 0.000000000000000000, 1.000000000000000000 ) ) ;
#112 = CIRCLE ( 'NONE', #326, 5.000000000000000000 ) ;
#113 = CARTESIAN_POINT ( 'NONE',  ( 0.000000000000000000, 0.000000000000000000, 503.0000000000000000 ) ) ;
#114 = EDGE_LOOP ( 'NONE', ( #365, #220, #341, #38 ) ) ;
#115 = AXIS2_PLACEMENT_3D ( 'NONE', #207, #327, #104 ) ;
#116 = CC_DESIGN_SECURITY_CLASSIFICATION ( #185, ( #335 ) ) ;
#117 = DIRECTION ( 'NONE',  ( 0.000000000000000000, 0.000000000000000000, -1.000000000000000000 ) ) ;
#118 = VERTEX_POINT ( 'NONE', #106 ) ;
#119 = ORIENTED_EDGE ( 'NONE', *, *, #153, .F. ) ;
#120 = ADVANCED_FACE ( 'NONE', ( #82 ), #264, .T. ) ;
#121 = DIRECTION ( 'NONE',  ( 0.000000000000000000, 0.000000000000000000, 1.000000000000000000 ) ) ;
#122 = PRODUCT ( '2f1c', '2f1c', '', ( #97 ) ) ;
#123 = ORIENTED_EDGE ( 'NONE', *, *, #233, .F. ) ;
#124 = ORIENTED_EDGE ( 'NONE', *, *, #338, .T. ) ;
#125 = EDGE_CURVE ( 'NONE', #339, #118, #223, .T. ) ;
#126 = LINE ( 'NONE', #198, #40 ) ;
#127 = LINE ( 'NONE', #368, #290 ) ;
#128 = APPLICATION_PROTOCOL_DEFINITION ( 'international standard', 'config_control_design', 1994, #179 ) ;
#129 = VERTEX_POINT ( 'NONE', #317 ) ;
#130 = AXIS2_PLACEMENT_3D ( 'NONE', #270, #121, #149 ) ;
#131 = DIRECTION ( 'NONE',  ( -0.000000000000000000, -0.000000000000000000, -1.000000000000000000 ) ) ;
#132 = ORIENTED_EDGE ( 'NONE', *, *, #366, .T. ) ;
#133 = ADVANCED_FACE ( 'NONE', ( #80 ), #23, .F. ) ;
#134 = CIRCLE ( 'NONE', #251, 2.500000000000000000 ) ;
#135 = ORIENTED_EDGE ( 'NONE', *, *, #25, .T. ) ;
#136 = COORDINATED_UNIVERSAL_TIME_OFFSET ( 1, 0, .AHEAD. ) ;
#137 = DIRECTION ( 'NONE',  ( 1.000000000000000000, 0.000000000000000000, 0.000000000000000000 ) ) ;
#138 = APPROVAL_ROLE ( '' ) ;
#139 = EDGE_CURVE ( 'NONE', #195, #68, #285, .T. ) ;
#140 = CYLINDRICAL_SURFACE ( 'NONE', #380, 1.250000000000000000 ) ;
#141 = VECTOR ( 'NONE', #252, 1000.000000000000000 ) ;
#142 = DIRECTION ( 'NONE',  ( 0.000000000000000000, 0.000000000000000000, -1.000000000000000000 ) ) ;
#143 = LINE ( 'NONE', #356, #4 ) ;
#144 = ADVANCED_FACE ( 'NONE', ( #43 ), #378, .F. ) ;
#145 = PERSON_AND_ORGANIZATION ( #276, #242 ) ;
#146 = CARTESIAN_POINT ( 'NONE',  ( 0.000000000000000000, 0.000000000000000000, 3.000000000000000000 ) ) ;
#147 = DIRECTION ( 'NONE',  ( 0.000000000000000000, 0.000000000000000000, 1.000000000000000000 ) ) ;
#148 = VERTEX_POINT ( 'NONE', #49 ) ;
#149 = DIRECTION ( 'NONE',  ( 1.000000000000000000, 0.000000000000000000, 0.000000000000000000 ) ) ;
#150 = EDGE_LOOP ( 'NONE', ( #222, #363 ) ) ;
#151 = AXIS2_PLACEMENT_3D ( 'NONE', #113, #61, #157 ) ;
#152 = DIRECTION ( 'NONE',  ( -1.000000000000000000, 0.000000000000000000, 0.000000000000000000 ) ) ;
#153 = EDGE_CURVE ( 'NONE', #189, #275, #273, .T. ) ;
#154 = ORIENTED_EDGE ( 'NONE', *, *, #338, .F. ) ;
#155 = DIRECTION ( 'NONE',  ( 1.000000000000000000, 0.000000000000000000, -0.000000000000000000 ) ) ;
#156 = VERTEX_POINT ( 'NONE', #287 ) ;
#157 = DIRECTION ( 'NONE',  ( 1.000000000000000000, 0.000000000000000000, 0.000000000000000000 ) ) ;
#158 = ORIENTED_EDGE ( 'NONE', *, *, #357, .F. ) ;
#159 = EDGE_CURVE ( 'NONE', #275, #189, #165, .T. ) ;
#160 = LOCAL_TIME ( 17, 46, 17.00000000000000000, #19 ) ;
#161 = CARTESIAN_POINT ( 'NONE',  ( 2.500000000000000000, 3.061616997868383141E-16, 503.0000000000000000 ) ) ;
#162 = PERSON_AND_ORGANIZATION_ROLE ( 'design_owner' ) ;
#163 = CARTESIAN_POINT ( 'NONE',  ( 5.000000000000000000, 6.123233995736766282E-16, 3.000000000000000000 ) ) ;
#164 = CARTESIAN_POINT ( 'NONE',  ( -2.500000000000000000, 0.000000000000000000, 503.0000000000000000 ) ) ;
#165 = CIRCLE ( 'NONE', #115, 2.799999999999999822 ) ;
#166 = CARTESIAN_POINT ( 'NONE',  ( 0.000000000000000000, 0.000000000000000000, 3.000000000000000000 ) ) ;
#167 = LOCAL_TIME ( 17, 46, 17.00000000000000000, #182 ) ;
#168 = CC_DESIGN_PERSON_AND_ORGANIZATION_ASSIGNMENT ( #9, #162, ( #122 ) ) ;
#169 = EDGE_LOOP ( 'NONE', ( #245, #12, #89, #123 ) ) ;
#170 = DIRECTION ( 'NONE',  ( 1.000000000000000000, 0.000000000000000000, 0.000000000000000000 ) ) ;
#171 = ORIENTED_EDGE ( 'NONE', *, *, #289, .F. ) ;
#172 = PERSON_AND_ORGANIZATION ( #276, #242 ) ;
#173 = AXIS2_PLACEMENT_3D ( 'NONE', #197, #369, #36 ) ;
#174 = DIRECTION ( 'NONE',  ( 0.000000000000000000, 0.000000000000000000, 1.000000000000000000 ) ) ;
#175 = EDGE_CURVE ( 'NONE', #156, #64, #44, .T. ) ;
#176 = DIRECTION ( 'NONE',  ( 0.000000000000000000, 0.000000000000000000, 1.000000000000000000 ) ) ;
#177 = LOCAL_TIME ( 17, 46, 17.00000000000000000, #355 ) ;
#178 = PERSON_AND_ORGANIZATION_ROLE ( 'creator' ) ;
#179 = APPLICATION_CONTEXT ( 'configuration controlled 3d designs of mechanical parts and assemblies' ) ;
#180 = CALENDAR_DATE ( 2022, 8, 7 ) ;
#181 = PRODUCT_RELATED_PRODUCT_CATEGORY ( 'detail', '', ( #122 ) ) ;
#182 = COORDINATED_UNIVERSAL_TIME_OFFSET ( 1, 0, .AHEAD. ) ;
#183 = DIRECTION ( 'NONE',  ( 0.000000000000000000, 0.000000000000000000, 1.000000000000000000 ) ) ;
#184 = AXIS2_PLACEMENT_3D ( 'NONE', #319, #58, #117 ) ;
#185 = SECURITY_CLASSIFICATION ( '', '', #372 ) ;
#186 = CARTESIAN_POINT ( 'NONE',  ( 0.000000000000000000, 0.000000000000000000, 0.000000000000000000 ) ) ;
#187 = CIRCLE ( 'NONE', #310, 0.2999999999999999334 ) ;
#188 = CC_DESIGN_PERSON_AND_ORGANIZATION_ASSIGNMENT ( #172, #178, ( #335 ) ) ;
#189 = VERTEX_POINT ( 'NONE', #235 ) ;
#190 = AXIS2_PLACEMENT_3D ( 'NONE', #20, #353, #322 ) ;
#191 = VERTEX_POINT ( 'NONE', #205 ) ;
#192 = DIRECTION ( 'NONE',  ( -0.000000000000000000, -0.000000000000000000, -1.000000000000000000 ) ) ;
#193 = AXIS2_PLACEMENT_3D ( 'NONE', #39, #176, #238 ) ;
#194 = CARTESIAN_POINT ( 'NONE',  ( 2.500000000000000000, 3.061616997868383141E-16, 3.300000000000025135 ) ) ;
#195 = VERTEX_POINT ( 'NONE', #265 ) ;
#196 = LOCAL_TIME ( 17, 46, 17.00000000000000000, #136 ) ;
#197 = CARTESIAN_POINT ( 'NONE',  ( 0.000000000000000000, 0.000000000000000000, 503.0000000000000000 ) ) ;
#198 = CARTESIAN_POINT ( 'NONE',  ( -2.500000000000000000, 0.000000000000000000, 503.0000000000000000 ) ) ;
#199 = CARTESIAN_POINT ( 'NONE',  ( 0.000000000000000000, 0.000000000000000000, 3.300000000000025135 ) ) ;
#200 = FACE_OUTER_BOUND ( 'NONE', #278, .T. ) ;
#201 = ORIENTED_EDGE ( 'NONE', *, *, #15, .F. ) ;
#202 = PERSON_AND_ORGANIZATION ( #276, #242 ) ;
#203 = DIRECTION ( 'NONE',  ( 0.000000000000000000, 0.000000000000000000, 1.000000000000000000 ) ) ;
#204 = EDGE_CURVE ( 'NONE', #339, #275, #348, .T. ) ;
#205 = CARTESIAN_POINT ( 'NONE',  ( 5.000000000000000000, 6.123233995736766282E-16, 3.000000000000000000 ) ) ;
#206 = PERSON_AND_ORGANIZATION_ROLE ( 'design_supplier' ) ;
#207 = CARTESIAN_POINT ( 'NONE',  ( 0.000000000000000000, 0.000000000000000000, 3.000000000000000000 ) ) ;
#208 = AXIS2_PLACEMENT_3D ( 'NONE', #55, #359, #152 ) ;
#209 = DATE_AND_TIME ( #261, #160 ) ;
#210 = CALENDAR_DATE ( 2022, 8, 7 ) ;
#211 = DIRECTION ( 'NONE',  ( -0.000000000000000000, -0.000000000000000000, -1.000000000000000000 ) ) ;
#212 = FACE_BOUND ( 'NONE', #70, .T. ) ;
#213 = CARTESIAN_POINT ( 'NONE',  ( 0.000000000000000000, 0.000000000000000000, 503.0000000000000000 ) ) ;
#214 = EDGE_LOOP ( 'NONE', ( #92, #135, #267, #41 ) ) ;
#215 = EDGE_CURVE ( 'NONE', #28, #129, #232, .T. ) ;
#216 = ORIENTED_EDGE ( 'NONE', *, *, #153, .T. ) ;
#217 = FACE_OUTER_BOUND ( 'NONE', #26, .T. ) ;
#218 = ORIENTED_EDGE ( 'NONE', *, *, #295, .T. ) ;
#219 = CC_DESIGN_PERSON_AND_ORGANIZATION_ASSIGNMENT ( #202, #318, ( #361 ) ) ;
#220 = ORIENTED_EDGE ( 'NONE', *, *, #37, .T. ) ;
#221 = DIRECTION ( 'NONE',  ( -0.000000000000000000, -0.000000000000000000, -1.000000000000000000 ) ) ;
#222 = ORIENTED_EDGE ( 'NONE', *, *, #63, .T. ) ;
#223 = CIRCLE ( 'NONE', #67, 2.500000000000000000 ) ;
#224 = DIRECTION ( 'NONE',  ( -0.000000000000000000, -0.000000000000000000, -1.000000000000000000 ) ) ;
#225 = FACE_BOUND ( 'NONE', #98, .T. ) ;
#226 = APPROVAL_STATUS ( 'not_yet_approved' ) ;
#227 = DIRECTION ( 'NONE',  ( 0.000000000000000000, 0.000000000000000000, 1.000000000000000000 ) ) ;
#228 = ADVANCED_FACE ( 'NONE', ( #212, #300 ), #330, .F. ) ;
#229 = ORIENTED_EDGE ( 'NONE', *, *, #7, .F. ) ;
#230 = DIRECTION ( 'NONE',  ( 0.000000000000000000, 0.000000000000000000, 1.000000000000000000 ) ) ;
#231 = ORIENTED_EDGE ( 'NONE', *, *, #37, .F. ) ;
#232 = CIRCLE ( 'NONE', #52, 1.250000000000000000 ) ;
#233 = EDGE_CURVE ( 'NONE', #148, #68, #296, .T. ) ;
#234 = ORIENTED_EDGE ( 'NONE', *, *, #274, .F. ) ;
#235 = CARTESIAN_POINT ( 'NONE',  ( -2.799999999999999822, 3.429011037612589276E-16, 3.000000000000012434 ) ) ;
#236 = DATE_AND_TIME ( #350, #196 ) ;
#237 = AXIS2_PLACEMENT_3D ( 'NONE', #379, #174, #110 ) ;
#238 = DIRECTION ( 'NONE',  ( 1.000000000000000000, 0.000000000000000000, -0.000000000000000000 ) ) ;
#239 = CARTESIAN_POINT ( 'NONE',  ( 0.000000000000000000, 0.000000000000000000, 503.0000000000000000 ) ) ;
#240 = ORIENTED_EDGE ( 'NONE', *, *, #125, .F. ) ;
#241 = ADVANCED_BREP_SHAPE_REPRESENTATION ( '2f1c', ( #323, #253 ), #17 ) ;
#242 = ORGANIZATION ( 'NEURÈENÝ', 'NEURÈENÝ', '' ) ;
#243 = ORIENTED_EDGE ( 'NONE', *, *, #48, .F. ) ;
#244 = DIRECTION ( 'NONE',  ( 0.000000000000000000, 0.000000000000000000, 1.000000000000000000 ) ) ;
#245 = ORIENTED_EDGE ( 'NONE', *, *, #295, .F. ) ;
#246 = DIRECTION ( 'NONE',  ( 0.000000000000000000, 0.000000000000000000, 1.000000000000000000 ) ) ;
#247 = ORIENTED_EDGE ( 'NONE', *, *, #139, .F. ) ;
#248 = AXIS2_PLACEMENT_3D ( 'NONE', #16, #111, #79 ) ;
#249 = CARTESIAN_POINT ( 'NONE',  ( 0.000000000000000000, 0.000000000000000000, 0.000000000000000000 ) ) ;
#250 = FACE_OUTER_BOUND ( 'NONE', #150, .T. ) ;
#251 = AXIS2_PLACEMENT_3D ( 'NONE', #199, #370, #367 ) ;
#252 = DIRECTION ( 'NONE',  ( -0.000000000000000000, -0.000000000000000000, -1.000000000000000000 ) ) ;
#253 = AXIS2_PLACEMENT_3D ( 'NONE', #311, #230, #303 ) ;
#254 = CARTESIAN_POINT ( 'NONE',  ( -5.000000000000000000, 0.000000000000000000, 0.000000000000000000 ) ) ;
#255 = CARTESIAN_POINT ( 'NONE',  ( 0.000000000000000000, 0.000000000000000000, 3.000000000000000000 ) ) ;
#256 = ADVANCED_FACE ( 'NONE', ( #266 ), #362, .T. ) ;
#257 = APPLICATION_PROTOCOL_DEFINITION ( 'international standard', 'config_control_design', 1994, #90 ) ;
#258 = CIRCLE ( 'NONE', #35, 5.000000000000000000 ) ;
#259 = DATE_TIME_ROLE ( 'classification_date' ) ;
#260 = DIRECTION ( 'NONE',  ( 0.000000000000000000, 0.000000000000000000, -1.000000000000000000 ) ) ;
#261 = CALENDAR_DATE ( 2022, 8, 7 ) ;
#262 = DIRECTION ( 'NONE',  ( 0.000000000000000000, 0.000000000000000000, 1.000000000000000000 ) ) ;
#263 = APPROVAL_DATE_TIME ( #21, #272 ) ;
#264 = CYLINDRICAL_SURFACE ( 'NONE', #371, 2.500000000000000000 ) ;
#265 = CARTESIAN_POINT ( 'NONE',  ( 5.000000000000000000, 6.123233995736766282E-16, 0.000000000000000000 ) ) ;
#266 = FACE_OUTER_BOUND ( 'NONE', #214, .T. ) ;
#267 = ORIENTED_EDGE ( 'NONE', *, *, #125, .T. ) ;
#268 = ORIENTED_EDGE ( 'NONE', *, *, #215, .T. ) ;
#269 = DIRECTION ( 'NONE',  ( 0.000000000000000000, 0.000000000000000000, -1.000000000000000000 ) ) ;
#270 = CARTESIAN_POINT ( 'NONE',  ( 0.000000000000000000, 0.000000000000000000, 0.000000000000000000 ) ) ;
#271 = ORIENTED_EDGE ( 'NONE', *, *, #233, .T. ) ;
#272 = APPROVAL ( #377, 'NEURÈENÝ' ) ;
#273 = CIRCLE ( 'NONE', #108, 2.799999999999999822 ) ;
#274 = EDGE_CURVE ( 'NONE', #129, #28, #374, .T. ) ;
#275 = VERTEX_POINT ( 'NONE', #85 ) ;
#276 = PERSON ( 'NEURÈENÝ', 'NEURÈENÝ', 'NEURÈENÝ', ('NEURÈENÝ'), ('NEURÈENÝ'), ('NEURÈENÝ') ) ;
#277 =( NAMED_UNIT ( * ) PLANE_ANGLE_UNIT ( ) SI_UNIT ( $, .RADIAN. ) );
#278 = EDGE_LOOP ( 'NONE', ( #11, #218 ) ) ;
#279 = LOCAL_TIME ( 17, 46, 17.00000000000000000, #316 ) ;
#280 = CARTESIAN_POINT ( 'NONE',  ( -2.799999999999999822, 3.429011037612588783E-16, 3.300000000000025135 ) ) ;
#281 = ADVANCED_FACE ( 'NONE', ( #217 ), #332, .T. ) ;
#282 = DIRECTION ( 'NONE',  ( -1.000000000000000000, 1.224646799147353207E-16, 0.000000000000000000 ) ) ;
#283 = SHAPE_DEFINITION_REPRESENTATION ( #87, #241 ) ;
#284 = DIRECTION ( 'NONE',  ( -1.000000000000000000, 0.000000000000000000, 0.000000000000000000 ) ) ;
#285 = CIRCLE ( 'NONE', #190, 5.000000000000000000 ) ;
#286 = CC_DESIGN_APPROVAL ( #272, ( #185 ) ) ;
#287 = CARTESIAN_POINT ( 'NONE',  ( 2.500000000000000000, 3.061616997868383141E-16, 503.0000000000000000 ) ) ;
#288 = PERSON_AND_ORGANIZATION_ROLE ( 'classification_officer' ) ;
#289 = EDGE_CURVE ( 'NONE', #68, #195, #109, .T. ) ;
#290 = VECTOR ( 'NONE', #343, 1000.000000000000000 ) ;
#291 = APPROVAL_STATUS ( 'not_yet_approved' ) ;
#292 = PERSON_AND_ORGANIZATION ( #276, #242 ) ;
#293 = DIRECTION ( 'NONE',  ( 1.000000000000000000, 0.000000000000000000, 0.000000000000000000 ) ) ;
#294 = CIRCLE ( 'NONE', #103, 1.250000000000000000 ) ;
#295 = EDGE_CURVE ( 'NONE', #191, #148, #258, .T. ) ;
#296 = LINE ( 'NONE', #31, #33 ) ;
#297 = EDGE_LOOP ( 'NONE', ( #231, #268, #86, #124 ) ) ;
#298 = FACE_OUTER_BOUND ( 'NONE', #114, .T. ) ;
#299 = ORIENTED_EDGE ( 'NONE', *, *, #63, .F. ) ;
#300 = FACE_OUTER_BOUND ( 'NONE', #65, .T. ) ;
#301 = ORIENTED_EDGE ( 'NONE', *, *, #204, .F. ) ;
#302 = DIRECTION ( 'NONE',  ( 1.000000000000000000, 0.000000000000000000, 0.000000000000000000 ) ) ;
#303 = DIRECTION ( 'NONE',  ( 1.000000000000000000, 0.000000000000000000, 0.000000000000000000 ) ) ;
#304 = APPROVAL ( #291, 'NEURÈENÝ' ) ;
#305 = AXIS2_PLACEMENT_3D ( 'NONE', #249, #314, #170 ) ;
#306 = CYLINDRICAL_SURFACE ( 'NONE', #84, 5.000000000000000000 ) ;
#307 = ORIENTED_EDGE ( 'NONE', *, *, #215, .F. ) ;
#308 =( LENGTH_UNIT ( ) NAMED_UNIT ( * ) SI_UNIT ( .MILLI., .METRE. ) );
#309 = DIRECTION ( 'NONE',  ( 1.000000000000000000, 0.000000000000000000, 0.000000000000000000 ) ) ;
#310 = AXIS2_PLACEMENT_3D ( 'NONE', #280, #349, #282 ) ;
#311 = CARTESIAN_POINT ( 'NONE',  ( 0.000000000000000000, 0.000000000000000000, 0.000000000000000000 ) ) ;
#312 = DESIGN_CONTEXT ( 'detailed design', #179, 'design' ) ;
#313 = PLANE ( 'NONE',  #193 ) ;
#314 = DIRECTION ( 'NONE',  ( -0.000000000000000000, -0.000000000000000000, -1.000000000000000000 ) ) ;
#315 = ORIENTED_EDGE ( 'NONE', *, *, #1, .T. ) ;
#316 = COORDINATED_UNIVERSAL_TIME_OFFSET ( 1, 0, .AHEAD. ) ;
#317 = CARTESIAN_POINT ( 'NONE',  ( -1.250000000000000000, 0.000000000000000000, 503.0000000000000000 ) ) ;
#318 = PERSON_AND_ORGANIZATION_ROLE ( 'creator' ) ;
#319 = CARTESIAN_POINT ( 'NONE',  ( 2.799999999999999822, 0.000000000000000000, 3.300000000000025135 ) ) ;
#320 = AXIS2_PLACEMENT_3D ( 'NONE', #213, #29, #91 ) ;
#321 = CALENDAR_DATE ( 2022, 8, 7 ) ;
#322 = DIRECTION ( 'NONE',  ( 1.000000000000000000, 0.000000000000000000, 0.000000000000000000 ) ) ;
#323 = MANIFOLD_SOLID_BREP ( 'Odebrat vysunutím3', #57 ) ;
#324 = PERSON_AND_ORGANIZATION ( #276, #242 ) ;
#325 = DIRECTION ( 'NONE',  ( -0.000000000000000000, -0.000000000000000000, -1.000000000000000000 ) ) ;
#326 = AXIS2_PLACEMENT_3D ( 'NONE', #255, #203, #34 ) ;
#327 = DIRECTION ( 'NONE',  ( -0.000000000000000000, -0.000000000000000000, -1.000000000000000000 ) ) ;
#328 = ADVANCED_FACE ( 'NONE', ( #298 ), #27, .F. ) ;
#329 = AXIS2_PLACEMENT_3D ( 'NONE', #186, #147, #155 ) ;
#330 = PLANE ( 'NONE',  #329 ) ;
#331 = APPROVAL_PERSON_ORGANIZATION ( #145, #304, #138 ) ;
#332 = CYLINDRICAL_SURFACE ( 'NONE', #208, 5.000000000000000000 ) ;
#333 = CC_DESIGN_PERSON_AND_ORGANIZATION_ASSIGNMENT ( #107, #288, ( #185 ) ) ;
#334 = ORIENTED_EDGE ( 'NONE', *, *, #289, .T. ) ;
#335 = PRODUCT_DEFINITION_FORMATION_WITH_SPECIFIED_SOURCE ( 'LIBOVOLNÝ', '', #122, .NOT_KNOWN. ) ;
#336 = DIRECTION ( 'NONE',  ( -1.000000000000000000, 0.000000000000000000, 0.000000000000000000 ) ) ;
#337 = ORIENTED_EDGE ( 'NONE', *, *, #159, .F. ) ;
#338 = EDGE_CURVE ( 'NONE', #102, #360, #294, .T. ) ;
#339 = VERTEX_POINT ( 'NONE', #194 ) ;
#340 = FACE_OUTER_BOUND ( 'NONE', #169, .T. ) ;
#341 = ORIENTED_EDGE ( 'NONE', *, *, #357, .T. ) ;
#342 = CIRCLE ( 'NONE', #305, 1.250000000000000000 ) ;
#343 = DIRECTION ( 'NONE',  ( 0.000000000000000000, 0.000000000000000000, -1.000000000000000000 ) ) ;
#344 =( NAMED_UNIT ( * ) SI_UNIT ( $, .STERADIAN. ) SOLID_ANGLE_UNIT ( ) );
#345 = LINE ( 'NONE', #163, #381 ) ;
#346 = CIRCLE ( 'NONE', #81, 2.500000000000000000 ) ;
#347 = CC_DESIGN_DATE_AND_TIME_ASSIGNMENT ( #209, #259, ( #185 ) ) ;
#348 = CIRCLE ( 'NONE', #184, 0.2999999999999999334 ) ;
#349 = DIRECTION ( 'NONE',  ( 1.224646799147353207E-16, 1.000000000000000000, -0.000000000000000000 ) ) ;
#350 = CALENDAR_DATE ( 2022, 8, 7 ) ;
#351 = ADVANCED_FACE ( 'NONE', ( #340 ), #306, .T. ) ;
#352 = APPROVAL_DATE_TIME ( #105, #304 ) ;
#353 = DIRECTION ( 'NONE',  ( 0.000000000000000000, 0.000000000000000000, 1.000000000000000000 ) ) ;
#354 = AXIS2_PLACEMENT_3D ( 'NONE', #95, #269, #336 ) ;
#355 = COORDINATED_UNIVERSAL_TIME_OFFSET ( 1, 0, .AHEAD. ) ;
#356 = CARTESIAN_POINT ( 'NONE',  ( -1.250000000000000000, 0.000000000000000000, 503.0000000000000000 ) ) ;
#357 = EDGE_CURVE ( 'NONE', #360, #102, #342, .T. ) ;
#358 = DIRECTION ( 'NONE',  ( 1.000000000000000000, 0.000000000000000000, 0.000000000000000000 ) ) ;
#359 = DIRECTION ( 'NONE',  ( -0.000000000000000000, -0.000000000000000000, -1.000000000000000000 ) ) ;
#360 = VERTEX_POINT ( 'NONE', #66 ) ;
#361 = PRODUCT_DEFINITION ( 'NEZNÁMÝ', '', #335, #312 ) ;
#362 = CYLINDRICAL_SURFACE ( 'NONE', #320, 2.500000000000000000 ) ;
#363 = ORIENTED_EDGE ( 'NONE', *, *, #175, .T. ) ;
#364 = DIRECTION ( 'NONE',  ( 1.000000000000000000, 0.000000000000000000, 0.000000000000000000 ) ) ;
#365 = ORIENTED_EDGE ( 'NONE', *, *, #274, .T. ) ;
#366 = EDGE_CURVE ( 'NONE', #64, #118, #126, .T. ) ;
#367 = DIRECTION ( 'NONE',  ( 1.000000000000000000, 0.000000000000000000, 0.000000000000000000 ) ) ;
#368 = CARTESIAN_POINT ( 'NONE',  ( 1.250000000000000000, 1.530808498934191571E-16, 503.0000000000000000 ) ) ;
#369 = DIRECTION ( 'NONE',  ( 0.000000000000000000, 0.000000000000000000, 1.000000000000000000 ) ) ;
#370 = DIRECTION ( 'NONE',  ( 0.000000000000000000, 0.000000000000000000, 1.000000000000000000 ) ) ;
#371 = AXIS2_PLACEMENT_3D ( 'NONE', #46, #325, #284 ) ;
#372 = SECURITY_CLASSIFICATION_LEVEL ( 'unclassified' ) ;
#373 = ORIENTED_EDGE ( 'NONE', *, *, #25, .F. ) ;
#374 = CIRCLE ( 'NONE', #151, 1.250000000000000000 ) ;
#375 = CC_DESIGN_DATE_AND_TIME_ASSIGNMENT ( #45, #50, ( #361 ) ) ;
#376 = CARTESIAN_POINT ( 'NONE',  ( 0.000000000000000000, 0.000000000000000000, 3.300000000000025135 ) ) ;
#377 = APPROVAL_STATUS ( 'not_yet_approved' ) ;
#378 = TOROIDAL_SURFACE ( 'NONE', #237, 2.799999999999999822, 0.2999999999999999889 ) ;
#379 = CARTESIAN_POINT ( 'NONE',  ( 0.000000000000000000, 0.000000000000000000, 3.300000000000025135 ) ) ;
#380 = AXIS2_PLACEMENT_3D ( 'NONE', #239, #260, #22 ) ;
#381 = VECTOR ( 'NONE', #131, 1000.000000000000000 ) ;
ENDSEC;
END-ISO-10303-21;
